  0
SECTION
  2
HEADER
  9
$ACADVER
  1
AC1009
  9
$INSBASE
 10
   0.0000
 20
 700.0000
 30
    0.0
  9
$EXTMIN
 10
-125.0000
 20
-119.5000
 30
   0.0000
  9
$EXTMAX
 10
3470.4930
 20
 700.0000
 30
   0.0000
  9
$LTSCALE
 40
1.00
  9
$PSLTSCALE
 70
1
  0
ENDSEC
  0
SECTION
  2
TABLES
  0
TABLE
  2
LTYPE
 70
  5
  0
LTYPE
  2
AUSGEZOGEN
 70
 64
  3
AUSGEZOGEN
 72
 65
 73
  0
 40
0.0
  0
LTYPE
  2
PUNKTIERT
 70
 64
  3
Gepunktet
 72
 65
 73
  2
 40
30.0000
 49
0.0
 49
-30.0000
  0
LTYPE
  2
STRICHLIERT
 70
 64
  3
Strichliert
 72
 65
 73
  2
 40
80.0000
 49
50.0000
 49
-30.0000
  0
LTYPE
  2
STRICHPUNKT
 70
 64
  3
Strichpunktet
 72
 65
 73
  4
 40
160.0000
 49
100.0000
 49
-30.0000
 49
0.0
 49
-30.0000
  0
LTYPE
  2
STRICHPUNKTPUNKT
 70
 64
  3
Strichpunktpunktet
 72
 65
 73
  6
 40
190.0000
 49
100.0000
 49
-30.0000
 49
0.0
 49
-30.0000
 49
0.0
 49
-30.0000
  0
ENDTAB
  0
TABLE
  2
LAYER
 70
5
  0
LAYER
  2
550
 70
  0
 62
  2
  6
AUSGEZOGEN
  0
LAYER
  2
510
 70
  0
 62
  2
  6
AUSGEZOGEN
  0
LAYER
  2
0
 70
  0
 62
  1
  6
AUSGEZOGEN
  0
LAYER
  2
200
 70
  0
 62
  7
  6
AUSGEZOGEN
999
SWS-Layer-Line-Width
999
0.20
  0
LAYER
  2
400
 70
  0
 62
  4
  6
AUSGEZOGEN
999
SWS-Layer-Line-Width
999
0.30
  0
ENDTAB
  0
TABLE
  2
STYLE
 70
  1
  0
STYLE
  2
STANDARD
 70
 64
 40
0.0
 41
1.0
 50
0.0
 71
  0
 42
30.0
  3
TXT.SHX
  4

  0
ENDTAB
  0
ENDSEC
  0
SECTION
  2
ENTITIES
  0
LINE
  8
400
  6
AUSGEZOGEN
 10
1082.0000
 20
 580.0000
 11
1549.0000
 21
 566.5000
  0
LINE
  8
400
  6
AUSGEZOGEN
 10
3268.6300
 20
 566.5000
 11
1549.0000
 21
 566.5000
  0
LINE
  8
400
  6
AUSGEZOGEN
 10
1082.0000
 20
 505.0000
 11
1082.0000
 21
 580.0000
  0
LINE
  8
400
  6
AUSGEZOGEN
 10
1082.0000
 20
 655.0000
 11
1082.0000
 21
 580.0000
  0
LINE
  8
400
  6
AUSGEZOGEN
 10
1007.0000
 20
 580.0000
 11
1082.0000
 21
 580.0000
  0
LINE
  8
400
  6
AUSGEZOGEN
 10
1157.0000
 20
 580.0000
 11
1082.0000
 21
 580.0000
  0
CIRCLE
  8
400
  6
AUSGEZOGEN
 10
1082.0000
 20
 580.0000
 40
  50.0000
  0
LINE
  8
200
  6
AUSGEZOGEN
 10
   0.0000
 20
 694.0000
 11
1250.0000
 21
 694.0000
  0
LINE
  8
200
  6
AUSGEZOGEN
 10
1250.0000
 20
 700.0000
 11
   0.0000
 21
 700.0000
  0
LINE
  8
200
  6
AUSGEZOGEN
 10
   0.0000
 20
   0.0000
 11
   0.0000
 21
 700.0000
  0
LINE
  8
200
  6
AUSGEZOGEN
 10
1250.0000
 20
 700.0000
 11
1250.0000
 21
   0.0000
  0
LINE
  8
200
  6
AUSGEZOGEN
 10
 450.0000
 20
 365.0000
 11
 500.0000
 21
 465.0000
  0
LINE
  8
200
  6
AUSGEZOGEN
 10
 420.0000
 20
 345.0000
 11
 430.0000
 21
 365.0000
  0
LINE
  8
200
  6
AUSGEZOGEN
 10
 490.0000
 20
 485.0000
 11
 480.0000
 21
 465.0000
  0
LINE
  8
200
  6
AUSGEZOGEN
 10
 430.0000
 20
 365.0000
 11
 480.0000
 21
 465.0000
  0
LINE
  8
200
  6
AUSGEZOGEN
 10
 460.0000
 20
 465.0000
 11
 410.0000
 21
 365.0000
  0
LINE
  8
200
  6
AUSGEZOGEN
 10
  20.0000
 20
 690.0000
 11
 890.0000
 21
 690.0000
  0
LINE
  8
200
  6
AUSGEZOGEN
 10
1250.0000
 20
   0.0000
 11
   0.0000
 21
   0.0000
  0
LINE
  8
200
  6
AUSGEZOGEN
 10
 890.0000
 20
 690.0000
 11
 890.0000
 21
   0.0000
  0
LINE
  8
200
  6
AUSGEZOGEN
 10
  20.0000
 20
 140.0000
 11
 890.0000
 21
 140.0000
  0
LINE
  8
200
  6
AUSGEZOGEN
 10
  20.0000
 20
 690.0000
 11
  20.0000
 21
   0.0000
  0
LINE
  8
200
  6
AUSGEZOGEN
 10
 529.4000
 20
  50.0000
 11
 383.6000
 21
  50.0000
  0
LINE
  8
200
  6
AUSGEZOGEN
 10
 383.6000
 20
  60.0000
 11
 529.4000
 21
  60.0000
  0
TEXT
  8
400
 10
1562.5000
 20
 580.0000
 40
  45.0000
  1
EZ: 230V 50Hz, Kabellänge 2,5m mit Schukostecker 0,44kW (OKFF 150mm)
 50
   0.0000
 41
   0.6000
  7
STANDARD
  0
ATTDEF
  8
550
 10
10.0
 20
100.0
 30
0.0
 40
30
  1
CCO-KSM721161
  2
CCO-KSM721161D
  3
HKI-Nummer
 70
1
  0
TEXT
  8
510
 10
10.0
 20
-45.0
 30
0.0
 40
30
  1
CCO-KSM721161
 50
0.0
 41
1.0
  7
STANDARD
  0
ENDSEC
  0
EOF
