  0
SECTION
  2
HEADER
  9
$ACADVER
  1
AC1009
  9
$INSBASE
 10
   0.0000
 20
 700.0000
 30
    0.0
  9
$EXTMIN
 10
-250.0000
 20
-119.5000
 30
   0.0000
  9
$EXTMAX
 10
4712.4630
 20
 700.0000
 30
   0.0000
  9
$LTSCALE
 40
1.00
  9
$PSLTSCALE
 70
1
  0
ENDSEC
  0
SECTION
  2
TABLES
  0
TABLE
  2
LTYPE
 70
  5
  0
LTYPE
  2
AUSGEZOGEN
 70
 64
  3
AUSGEZOGEN
 72
 65
 73
  0
 40
0.0
  0
LTYPE
  2
PUNKTIERT
 70
 64
  3
Gepunktet
 72
 65
 73
  2
 40
30.0000
 49
0.0
 49
-30.0000
  0
LTYPE
  2
STRICHLIERT
 70
 64
  3
Strichliert
 72
 65
 73
  2
 40
80.0000
 49
50.0000
 49
-30.0000
  0
LTYPE
  2
STRICHPUNKT
 70
 64
  3
Strichpunktet
 72
 65
 73
  4
 40
160.0000
 49
100.0000
 49
-30.0000
 49
0.0
 49
-30.0000
  0
LTYPE
  2
STRICHPUNKTPUNKT
 70
 64
  3
Strichpunktpunktet
 72
 65
 73
  6
 40
190.0000
 49
100.0000
 49
-30.0000
 49
0.0
 49
-30.0000
 49
0.0
 49
-30.0000
  0
ENDTAB
  0
TABLE
  2
LAYER
 70
7
  0
LAYER
  2
550
 70
  0
 62
  2
  6
AUSGEZOGEN
  0
LAYER
  2
510
 70
  0
 62
  2
  6
AUSGEZOGEN
  0
LAYER
  2
0
 70
  0
 62
  1
  6
AUSGEZOGEN
  0
LAYER
  2
200
 70
  0
 62
  7
  6
AUSGEZOGEN
999
SWS-Layer-Line-Width
999
0.20
  0
LAYER
  2
400
 70
  0
 62
  4
  6
AUSGEZOGEN
999
SWS-Layer-Line-Width
999
0.30
  0
LAYER
  2
410
 70
  0
 62
  6
  6
AUSGEZOGEN
  0
LAYER
  2
420
 70
  0
 62
  2
  6
AUSGEZOGEN
  0
ENDTAB
  0
TABLE
  2
STYLE
 70
  1
  0
STYLE
  2
STANDARD
 70
 64
 40
0.0
 41
1.0
 50
0.0
 71
  0
 42
30.0
  3
TXT.SHX
  4

  0
ENDTAB
  0
ENDSEC
  0
SECTION
  2
ENTITIES
  0
LINE
  8
400
  6
AUSGEZOGEN
 10
 600.0000
 20
 600.0000
 11
3111.5000
 21
 566.5000
  0
LINE
  8
400
  6
AUSGEZOGEN
 10
4511.3300
 20
 566.5000
 11
3111.5000
 21
 566.5000
  0
LINE
  8
400
  6
AUSGEZOGEN
 10
 600.0000
 20
 525.0000
 11
 600.0000
 21
 600.0000
  0
LINE
  8
400
  6
AUSGEZOGEN
 10
 600.0000
 20
 675.0000
 11
 600.0000
 21
 600.0000
  0
LINE
  8
400
  6
AUSGEZOGEN
 10
 525.0000
 20
 600.0000
 11
 600.0000
 21
 600.0000
  0
LINE
  8
400
  6
AUSGEZOGEN
 10
 675.0000
 20
 600.0000
 11
 600.0000
 21
 600.0000
  0
CIRCLE
  8
400
  6
AUSGEZOGEN
 10
 600.0000
 20
 600.0000
 40
  50.0000
  0
LINE
  8
410
  6
AUSGEZOGEN
 10
 600.0000
 20
 450.0000
 11
3111.5000
 21
 446.5000
  0
LINE
  8
410
  6
AUSGEZOGEN
 10
3354.7600
 20
 446.5000
 11
3111.5000
 21
 446.5000
  0
LINE
  8
410
  6
AUSGEZOGEN
 10
 600.0000
 20
 375.0000
 11
 600.0000
 21
 450.0000
  0
LINE
  8
410
  6
AUSGEZOGEN
 10
 600.0000
 20
 525.0000
 11
 600.0000
 21
 450.0000
  0
LINE
  8
410
  6
AUSGEZOGEN
 10
 525.0000
 20
 450.0000
 11
 600.0000
 21
 450.0000
  0
LINE
  8
410
  6
AUSGEZOGEN
 10
 675.0000
 20
 450.0000
 11
 600.0000
 21
 450.0000
  0
CIRCLE
  8
410
  6
AUSGEZOGEN
 10
 600.0000
 20
 450.0000
 40
  50.0000
  0
LINE
  8
420
  6
AUSGEZOGEN
 10
 600.0000
 20
 350.0000
 11
3111.5000
 21
 326.5000
  0
LINE
  8
420
  6
AUSGEZOGEN
 10
4416.4300
 20
 326.5000
 11
3111.5000
 21
 326.5000
  0
LINE
  8
420
  6
AUSGEZOGEN
 10
 600.0000
 20
 275.0000
 11
 600.0000
 21
 350.0000
  0
LINE
  8
420
  6
AUSGEZOGEN
 10
 600.0000
 20
 425.0000
 11
 600.0000
 21
 350.0000
  0
LINE
  8
420
  6
AUSGEZOGEN
 10
 525.0000
 20
 350.0000
 11
 600.0000
 21
 350.0000
  0
LINE
  8
420
  6
AUSGEZOGEN
 10
 675.0000
 20
 350.0000
 11
 600.0000
 21
 350.0000
  0
CIRCLE
  8
420
  6
AUSGEZOGEN
 10
 600.0000
 20
 350.0000
 40
  50.0000
  0
LINE
  8
200
  6
AUSGEZOGEN
 10
 439.0000
 20
 575.1600
 11
 439.0000
 21
 566.8400
  0
LINE
  8
200
  6
AUSGEZOGEN
 10
 434.8400
 20
 559.1600
 11
 439.0000
 21
 566.8400
  0
LINE
  8
200
  6
AUSGEZOGEN
 10
 427.1600
 20
 555.0000
 11
 434.8400
 21
 559.1600
  0
LINE
  8
200
  6
AUSGEZOGEN
 10
 418.8400
 20
 555.0000
 11
 427.1600
 21
 555.0000
  0
LINE
  8
200
  6
AUSGEZOGEN
 10
 411.1600
 20
 559.1600
 11
 418.8400
 21
 555.0000
  0
LINE
  8
200
  6
AUSGEZOGEN
 10
 407.0000
 20
 566.8400
 11
 411.1600
 21
 559.1600
  0
LINE
  8
200
  6
AUSGEZOGEN
 10
 411.1600
 20
 582.8400
 11
 407.0000
 21
 575.1600
  0
LINE
  8
200
  6
AUSGEZOGEN
 10
 418.8400
 20
 587.0000
 11
 411.1600
 21
 582.8400
  0
LINE
  8
200
  6
AUSGEZOGEN
 10
 434.8400
 20
 582.8400
 11
 427.1600
 21
 587.0000
  0
LINE
  8
200
  6
AUSGEZOGEN
 10
 439.0000
 20
 575.1600
 11
 434.8400
 21
 582.8400
  0
LINE
  8
200
  6
AUSGEZOGEN
 10
 407.0000
 20
 566.8400
 11
 407.0000
 21
 575.1600
  0
LINE
  8
200
  6
AUSGEZOGEN
 10
 427.1600
 20
 587.0000
 11
 418.8400
 21
 587.0000
  0
LINE
  8
200
  6
AUSGEZOGEN
 10
 439.0000
 20
 554.1000
 11
 448.1000
 21
 570.9000
  0
LINE
  8
200
  6
AUSGEZOGEN
 10
 464.9000
 20
 580.0000
 11
 448.1000
 21
 570.9000
  0
LINE
  8
200
  6
AUSGEZOGEN
 10
 729.9000
 20
 570.9000
 11
 713.1000
 21
 580.0000
  0
LINE
  8
200
  6
AUSGEZOGEN
 10
 739.0000
 20
 554.1000
 11
 729.9000
 21
 570.9000
  0
LINE
  8
200
  6
AUSGEZOGEN
 10
 739.0000
 20
 105.9000
 11
 739.0000
 21
 554.1000
  0
LINE
  8
200
  6
AUSGEZOGEN
 10
 729.9000
 20
  89.1000
 11
 739.0000
 21
 105.9000
  0
LINE
  8
200
  6
AUSGEZOGEN
 10
 713.1000
 20
  80.0000
 11
 729.9000
 21
  89.1000
  0
LINE
  8
200
  6
AUSGEZOGEN
 10
 464.9000
 20
  80.0000
 11
 713.1000
 21
  80.0000
  0
LINE
  8
200
  6
AUSGEZOGEN
 10
 448.1000
 20
  89.1000
 11
 464.9000
 21
  80.0000
  0
LINE
  8
200
  6
AUSGEZOGEN
 10
 439.0000
 20
 105.9000
 11
 448.1000
 21
  89.1000
  0
CIRCLE
  8
200
  6
AUSGEZOGEN
 10
 589.0000
 20
 510.0000
 40
  40.0000
  0
LINE
  8
200
  6
AUSGEZOGEN
 10
 713.1000
 20
 580.0000
 11
 464.9000
 21
 580.0000
  0
LINE
  8
200
  6
AUSGEZOGEN
 10
 439.0000
 20
 105.9000
 11
 439.0000
 21
 554.1000
  0
LINE
  8
200
  6
AUSGEZOGEN
 10
 113.1000
 20
 570.9000
 11
 104.0000
 21
 554.1000
  0
LINE
  8
200
  6
AUSGEZOGEN
 10
 129.9000
 20
 580.0000
 11
 113.1000
 21
 570.9000
  0
LINE
  8
200
  6
AUSGEZOGEN
 10
 394.9000
 20
 570.9000
 11
 378.1000
 21
 580.0000
  0
LINE
  8
200
  6
AUSGEZOGEN
 10
 404.0000
 20
 554.1000
 11
 394.9000
 21
 570.9000
  0
LINE
  8
200
  6
AUSGEZOGEN
 10
 404.0000
 20
 105.9000
 11
 404.0000
 21
 554.1000
  0
LINE
  8
200
  6
AUSGEZOGEN
 10
 394.9000
 20
  89.1000
 11
 404.0000
 21
 105.9000
  0
LINE
  8
200
  6
AUSGEZOGEN
 10
 378.1000
 20
  80.0000
 11
 394.9000
 21
  89.1000
  0
LINE
  8
200
  6
AUSGEZOGEN
 10
 129.9000
 20
  80.0000
 11
 378.1000
 21
  80.0000
  0
LINE
  8
200
  6
AUSGEZOGEN
 10
 113.1000
 20
  89.1000
 11
 129.9000
 21
  80.0000
  0
LINE
  8
200
  6
AUSGEZOGEN
 10
 104.0000
 20
 105.9000
 11
 113.1000
 21
  89.1000
  0
CIRCLE
  8
200
  6
AUSGEZOGEN
 10
 254.0000
 20
 510.0000
 40
  40.0000
  0
LINE
  8
200
  6
AUSGEZOGEN
 10
 378.1000
 20
 580.0000
 11
 129.9000
 21
 580.0000
  0
LINE
  8
200
  6
AUSGEZOGEN
 10
 104.0000
 20
 105.9000
 11
 104.0000
 21
 554.1000
  0
LINE
  8
200
  6
AUSGEZOGEN
 10
2075.0000
 20
 675.0000
 11
2075.0000
 21
  25.0000
  0
LINE
  8
200
  6
AUSGEZOGEN
 10
   0.0000
 20
   0.0000
 11
   0.0000
 21
 700.0000
  0
LINE
  8
200
  6
AUSGEZOGEN
 10
2500.0000
 20
   0.0000
 11
   0.0000
 21
   0.0000
  0
LINE
  8
200
  6
AUSGEZOGEN
 10
2500.0000
 20
 700.0000
 11
2500.0000
 21
   0.0000
  0
LINE
  8
200
  6
AUSGEZOGEN
 10
   0.0000
 20
 700.0000
 11
2500.0000
 21
 700.0000
  0
LINE
  8
200
  6
AUSGEZOGEN
 10
2075.0000
 20
 675.0000
 11
  25.0000
 21
 675.0000
  0
LINE
  8
200
  6
AUSGEZOGEN
 10
 920.0000
 20
 361.5000
 11
 926.5000
 21
 373.5000
  0
LINE
  8
200
  6
AUSGEZOGEN
 10
 938.5000
 20
 380.0000
 11
 926.5000
 21
 373.5000
  0
LINE
  8
200
  6
AUSGEZOGEN
 10
2013.5000
 20
 373.5000
 11
2001.5000
 21
 380.0000
  0
LINE
  8
200
  6
AUSGEZOGEN
 10
2020.0000
 20
 361.5000
 11
2013.5000
 21
 373.5000
  0
LINE
  8
200
  6
AUSGEZOGEN
 10
2020.0000
 20
  98.5000
 11
2020.0000
 21
 361.5000
  0
LINE
  8
200
  6
AUSGEZOGEN
 10
2013.5000
 20
  86.5000
 11
2020.0000
 21
  98.5000
  0
LINE
  8
200
  6
AUSGEZOGEN
 10
2001.5000
 20
  80.0000
 11
2013.5000
 21
  86.5000
  0
LINE
  8
200
  6
AUSGEZOGEN
 10
 938.5000
 20
  80.0000
 11
2001.5000
 21
  80.0000
  0
LINE
  8
200
  6
AUSGEZOGEN
 10
 926.5000
 20
  86.5000
 11
 938.5000
 21
  80.0000
  0
LINE
  8
200
  6
AUSGEZOGEN
 10
 920.0000
 20
  98.5000
 11
 926.5000
 21
  86.5000
  0
LINE
  8
200
  6
AUSGEZOGEN
 10
1470.0000
 20
 380.0000
 11
1470.0000
 21
  80.0000
  0
LINE
  8
200
  6
AUSGEZOGEN
 10
1414.1400
 20
 250.0000
 11
1420.0000
 21
 255.8600
  0
LINE
  8
200
  6
AUSGEZOGEN
 10
1420.0000
 20
 264.1400
 11
1414.1400
 21
 270.0000
  0
LINE
  8
200
  6
AUSGEZOGEN
 10
1405.8600
 20
 270.0000
 11
1400.0000
 21
 264.1400
  0
LINE
  8
200
  6
AUSGEZOGEN
 10
1400.0000
 20
 255.8600
 11
1405.8600
 21
 250.0000
  0
LINE
  8
200
  6
AUSGEZOGEN
 10
1384.1400
 20
 250.0000
 11
1390.0000
 21
 255.8600
  0
LINE
  8
200
  6
AUSGEZOGEN
 10
1390.0000
 20
 264.1400
 11
1384.1400
 21
 270.0000
  0
LINE
  8
200
  6
AUSGEZOGEN
 10
1375.8600
 20
 270.0000
 11
1370.0000
 21
 264.1400
  0
LINE
  8
200
  6
AUSGEZOGEN
 10
1370.0000
 20
 255.8600
 11
1375.8600
 21
 250.0000
  0
LINE
  8
200
  6
AUSGEZOGEN
 10
1354.1400
 20
 250.0000
 11
1360.0000
 21
 255.8600
  0
LINE
  8
200
  6
AUSGEZOGEN
 10
1360.0000
 20
 264.1400
 11
1354.1400
 21
 270.0000
  0
LINE
  8
200
  6
AUSGEZOGEN
 10
1345.8600
 20
 270.0000
 11
1340.0000
 21
 264.1400
  0
LINE
  8
200
  6
AUSGEZOGEN
 10
1340.0000
 20
 255.8600
 11
1345.8600
 21
 250.0000
  0
LINE
  8
200
  6
AUSGEZOGEN
 10
1324.1400
 20
 250.0000
 11
1330.0000
 21
 255.8600
  0
LINE
  8
200
  6
AUSGEZOGEN
 10
1330.0000
 20
 264.1400
 11
1324.1400
 21
 270.0000
  0
LINE
  8
200
  6
AUSGEZOGEN
 10
1315.8600
 20
 270.0000
 11
1310.0000
 21
 264.1400
  0
LINE
  8
200
  6
AUSGEZOGEN
 10
1310.0000
 20
 255.8600
 11
1315.8600
 21
 250.0000
  0
LINE
  8
200
  6
AUSGEZOGEN
 10
1294.1400
 20
 250.0000
 11
1300.0000
 21
 255.8600
  0
LINE
  8
200
  6
AUSGEZOGEN
 10
1300.0000
 20
 264.1400
 11
1294.1400
 21
 270.0000
  0
LINE
  8
200
  6
AUSGEZOGEN
 10
1285.8600
 20
 270.0000
 11
1280.0000
 21
 264.1400
  0
LINE
  8
200
  6
AUSGEZOGEN
 10
1280.0000
 20
 255.8600
 11
1285.8600
 21
 250.0000
  0
LINE
  8
200
  6
AUSGEZOGEN
 10
1264.1400
 20
 250.0000
 11
1270.0000
 21
 255.8600
  0
LINE
  8
200
  6
AUSGEZOGEN
 10
1270.0000
 20
 264.1400
 11
1264.1400
 21
 270.0000
  0
LINE
  8
200
  6
AUSGEZOGEN
 10
1255.8600
 20
 270.0000
 11
1250.0000
 21
 264.1400
  0
LINE
  8
200
  6
AUSGEZOGEN
 10
1250.0000
 20
 255.8600
 11
1255.8600
 21
 250.0000
  0
LINE
  8
200
  6
AUSGEZOGEN
 10
1234.1400
 20
 250.0000
 11
1240.0000
 21
 255.8600
  0
LINE
  8
200
  6
AUSGEZOGEN
 10
1240.0000
 20
 264.1400
 11
1234.1400
 21
 270.0000
  0
LINE
  8
200
  6
AUSGEZOGEN
 10
1225.8600
 20
 270.0000
 11
1220.0000
 21
 264.1400
  0
LINE
  8
200
  6
AUSGEZOGEN
 10
1220.0000
 20
 255.8600
 11
1225.8600
 21
 250.0000
  0
LINE
  8
200
  6
AUSGEZOGEN
 10
1204.1400
 20
 250.0000
 11
1210.0000
 21
 255.8600
  0
LINE
  8
200
  6
AUSGEZOGEN
 10
1210.0000
 20
 264.1400
 11
1204.1400
 21
 270.0000
  0
LINE
  8
200
  6
AUSGEZOGEN
 10
1195.8600
 20
 270.0000
 11
1190.0000
 21
 264.1400
  0
LINE
  8
200
  6
AUSGEZOGEN
 10
1190.0000
 20
 255.8600
 11
1195.8600
 21
 250.0000
  0
LINE
  8
200
  6
AUSGEZOGEN
 10
1174.1400
 20
 250.0000
 11
1180.0000
 21
 255.8600
  0
LINE
  8
200
  6
AUSGEZOGEN
 10
1180.0000
 20
 264.1400
 11
1174.1400
 21
 270.0000
  0
LINE
  8
200
  6
AUSGEZOGEN
 10
1165.8600
 20
 270.0000
 11
1160.0000
 21
 264.1400
  0
LINE
  8
200
  6
AUSGEZOGEN
 10
1160.0000
 20
 255.8600
 11
1165.8600
 21
 250.0000
  0
LINE
  8
200
  6
AUSGEZOGEN
 10
1144.1400
 20
 250.0000
 11
1150.0000
 21
 255.8600
  0
LINE
  8
200
  6
AUSGEZOGEN
 10
1150.0000
 20
 264.1400
 11
1144.1400
 21
 270.0000
  0
LINE
  8
200
  6
AUSGEZOGEN
 10
1135.8600
 20
 270.0000
 11
1130.0000
 21
 264.1400
  0
LINE
  8
200
  6
AUSGEZOGEN
 10
1130.0000
 20
 255.8600
 11
1135.8600
 21
 250.0000
  0
LINE
  8
200
  6
AUSGEZOGEN
 10
1114.1400
 20
 250.0000
 11
1120.0000
 21
 255.8600
  0
LINE
  8
200
  6
AUSGEZOGEN
 10
1120.0000
 20
 264.1400
 11
1114.1400
 21
 270.0000
  0
LINE
  8
200
  6
AUSGEZOGEN
 10
1105.8600
 20
 270.0000
 11
1100.0000
 21
 264.1400
  0
LINE
  8
200
  6
AUSGEZOGEN
 10
1100.0000
 20
 255.8600
 11
1105.8600
 21
 250.0000
  0
LINE
  8
200
  6
AUSGEZOGEN
 10
1084.1400
 20
 250.0000
 11
1090.0000
 21
 255.8600
  0
LINE
  8
200
  6
AUSGEZOGEN
 10
1090.0000
 20
 264.1400
 11
1084.1400
 21
 270.0000
  0
LINE
  8
200
  6
AUSGEZOGEN
 10
1075.8600
 20
 270.0000
 11
1070.0000
 21
 264.1400
  0
LINE
  8
200
  6
AUSGEZOGEN
 10
1070.0000
 20
 255.8600
 11
1075.8600
 21
 250.0000
  0
LINE
  8
200
  6
AUSGEZOGEN
 10
1054.1400
 20
 250.0000
 11
1060.0000
 21
 255.8600
  0
LINE
  8
200
  6
AUSGEZOGEN
 10
1060.0000
 20
 264.1400
 11
1054.1400
 21
 270.0000
  0
LINE
  8
200
  6
AUSGEZOGEN
 10
1045.8600
 20
 270.0000
 11
1040.0000
 21
 264.1400
  0
LINE
  8
200
  6
AUSGEZOGEN
 10
1040.0000
 20
 255.8600
 11
1045.8600
 21
 250.0000
  0
LINE
  8
200
  6
AUSGEZOGEN
 10
1024.1400
 20
 250.0000
 11
1030.0000
 21
 255.8600
  0
LINE
  8
200
  6
AUSGEZOGEN
 10
1030.0000
 20
 264.1400
 11
1024.1400
 21
 270.0000
  0
LINE
  8
200
  6
AUSGEZOGEN
 10
1015.8600
 20
 270.0000
 11
1010.0000
 21
 264.1400
  0
LINE
  8
200
  6
AUSGEZOGEN
 10
1010.0000
 20
 255.8600
 11
1015.8600
 21
 250.0000
  0
LINE
  8
200
  6
AUSGEZOGEN
 10
 994.1400
 20
 250.0000
 11
1000.0000
 21
 255.8600
  0
LINE
  8
200
  6
AUSGEZOGEN
 10
1000.0000
 20
 264.1400
 11
 994.1400
 21
 270.0000
  0
LINE
  8
200
  6
AUSGEZOGEN
 10
 985.8600
 20
 270.0000
 11
 980.0000
 21
 264.1400
  0
LINE
  8
200
  6
AUSGEZOGEN
 10
 980.0000
 20
 255.8600
 11
 985.8600
 21
 250.0000
  0
LINE
  8
200
  6
AUSGEZOGEN
 10
 964.1400
 20
 250.0000
 11
 970.0000
 21
 255.8600
  0
LINE
  8
200
  6
AUSGEZOGEN
 10
 970.0000
 20
 264.1400
 11
 964.1400
 21
 270.0000
  0
LINE
  8
200
  6
AUSGEZOGEN
 10
 955.8600
 20
 270.0000
 11
 950.0000
 21
 264.1400
  0
LINE
  8
200
  6
AUSGEZOGEN
 10
 950.0000
 20
 255.8600
 11
 955.8600
 21
 250.0000
  0
LINE
  8
200
  6
AUSGEZOGEN
 10
1414.1400
 20
 220.0000
 11
1420.0000
 21
 225.8600
  0
LINE
  8
200
  6
AUSGEZOGEN
 10
1420.0000
 20
 234.1400
 11
1414.1400
 21
 240.0000
  0
LINE
  8
200
  6
AUSGEZOGEN
 10
1405.8600
 20
 240.0000
 11
1400.0000
 21
 234.1400
  0
LINE
  8
200
  6
AUSGEZOGEN
 10
1400.0000
 20
 225.8600
 11
1405.8600
 21
 220.0000
  0
LINE
  8
200
  6
AUSGEZOGEN
 10
1384.1400
 20
 220.0000
 11
1390.0000
 21
 225.8600
  0
LINE
  8
200
  6
AUSGEZOGEN
 10
1390.0000
 20
 234.1400
 11
1384.1400
 21
 240.0000
  0
LINE
  8
200
  6
AUSGEZOGEN
 10
1375.8600
 20
 240.0000
 11
1370.0000
 21
 234.1400
  0
LINE
  8
200
  6
AUSGEZOGEN
 10
1370.0000
 20
 225.8600
 11
1375.8600
 21
 220.0000
  0
LINE
  8
200
  6
AUSGEZOGEN
 10
1354.1400
 20
 220.0000
 11
1360.0000
 21
 225.8600
  0
LINE
  8
200
  6
AUSGEZOGEN
 10
1360.0000
 20
 234.1400
 11
1354.1400
 21
 240.0000
  0
LINE
  8
200
  6
AUSGEZOGEN
 10
1345.8600
 20
 240.0000
 11
1340.0000
 21
 234.1400
  0
LINE
  8
200
  6
AUSGEZOGEN
 10
1340.0000
 20
 225.8600
 11
1345.8600
 21
 220.0000
  0
LINE
  8
200
  6
AUSGEZOGEN
 10
1324.1400
 20
 220.0000
 11
1330.0000
 21
 225.8600
  0
LINE
  8
200
  6
AUSGEZOGEN
 10
1330.0000
 20
 234.1400
 11
1324.1400
 21
 240.0000
  0
LINE
  8
200
  6
AUSGEZOGEN
 10
1315.8600
 20
 240.0000
 11
1310.0000
 21
 234.1400
  0
LINE
  8
200
  6
AUSGEZOGEN
 10
1310.0000
 20
 225.8600
 11
1315.8600
 21
 220.0000
  0
LINE
  8
200
  6
AUSGEZOGEN
 10
1294.1400
 20
 220.0000
 11
1300.0000
 21
 225.8600
  0
LINE
  8
200
  6
AUSGEZOGEN
 10
1300.0000
 20
 234.1400
 11
1294.1400
 21
 240.0000
  0
LINE
  8
200
  6
AUSGEZOGEN
 10
1285.8600
 20
 240.0000
 11
1280.0000
 21
 234.1400
  0
LINE
  8
200
  6
AUSGEZOGEN
 10
1280.0000
 20
 225.8600
 11
1285.8600
 21
 220.0000
  0
LINE
  8
200
  6
AUSGEZOGEN
 10
1264.1400
 20
 220.0000
 11
1270.0000
 21
 225.8600
  0
LINE
  8
200
  6
AUSGEZOGEN
 10
1270.0000
 20
 234.1400
 11
1264.1400
 21
 240.0000
  0
LINE
  8
200
  6
AUSGEZOGEN
 10
1255.8600
 20
 240.0000
 11
1250.0000
 21
 234.1400
  0
LINE
  8
200
  6
AUSGEZOGEN
 10
1250.0000
 20
 225.8600
 11
1255.8600
 21
 220.0000
  0
LINE
  8
200
  6
AUSGEZOGEN
 10
1234.1400
 20
 220.0000
 11
1240.0000
 21
 225.8600
  0
LINE
  8
200
  6
AUSGEZOGEN
 10
1240.0000
 20
 234.1400
 11
1234.1400
 21
 240.0000
  0
LINE
  8
200
  6
AUSGEZOGEN
 10
1225.8600
 20
 240.0000
 11
1220.0000
 21
 234.1400
  0
LINE
  8
200
  6
AUSGEZOGEN
 10
1220.0000
 20
 225.8600
 11
1225.8600
 21
 220.0000
  0
LINE
  8
200
  6
AUSGEZOGEN
 10
1204.1400
 20
 220.0000
 11
1210.0000
 21
 225.8600
  0
LINE
  8
200
  6
AUSGEZOGEN
 10
1210.0000
 20
 234.1400
 11
1204.1400
 21
 240.0000
  0
LINE
  8
200
  6
AUSGEZOGEN
 10
1195.8600
 20
 240.0000
 11
1190.0000
 21
 234.1400
  0
LINE
  8
200
  6
AUSGEZOGEN
 10
1190.0000
 20
 225.8600
 11
1195.8600
 21
 220.0000
  0
LINE
  8
200
  6
AUSGEZOGEN
 10
1174.1400
 20
 220.0000
 11
1180.0000
 21
 225.8600
  0
LINE
  8
200
  6
AUSGEZOGEN
 10
1180.0000
 20
 234.1400
 11
1174.1400
 21
 240.0000
  0
LINE
  8
200
  6
AUSGEZOGEN
 10
1165.8600
 20
 240.0000
 11
1160.0000
 21
 234.1400
  0
LINE
  8
200
  6
AUSGEZOGEN
 10
1160.0000
 20
 225.8600
 11
1165.8600
 21
 220.0000
  0
LINE
  8
200
  6
AUSGEZOGEN
 10
1144.1400
 20
 220.0000
 11
1150.0000
 21
 225.8600
  0
LINE
  8
200
  6
AUSGEZOGEN
 10
1150.0000
 20
 234.1400
 11
1144.1400
 21
 240.0000
  0
LINE
  8
200
  6
AUSGEZOGEN
 10
1135.8600
 20
 240.0000
 11
1130.0000
 21
 234.1400
  0
LINE
  8
200
  6
AUSGEZOGEN
 10
1130.0000
 20
 225.8600
 11
1135.8600
 21
 220.0000
  0
LINE
  8
200
  6
AUSGEZOGEN
 10
1114.1400
 20
 220.0000
 11
1120.0000
 21
 225.8600
  0
LINE
  8
200
  6
AUSGEZOGEN
 10
1120.0000
 20
 234.1400
 11
1114.1400
 21
 240.0000
  0
LINE
  8
200
  6
AUSGEZOGEN
 10
1105.8600
 20
 240.0000
 11
1100.0000
 21
 234.1400
  0
LINE
  8
200
  6
AUSGEZOGEN
 10
1100.0000
 20
 225.8600
 11
1105.8600
 21
 220.0000
  0
LINE
  8
200
  6
AUSGEZOGEN
 10
1084.1400
 20
 220.0000
 11
1090.0000
 21
 225.8600
  0
LINE
  8
200
  6
AUSGEZOGEN
 10
1090.0000
 20
 234.1400
 11
1084.1400
 21
 240.0000
  0
LINE
  8
200
  6
AUSGEZOGEN
 10
1075.8600
 20
 240.0000
 11
1070.0000
 21
 234.1400
  0
LINE
  8
200
  6
AUSGEZOGEN
 10
1070.0000
 20
 225.8600
 11
1075.8600
 21
 220.0000
  0
LINE
  8
200
  6
AUSGEZOGEN
 10
1054.1400
 20
 220.0000
 11
1060.0000
 21
 225.8600
  0
LINE
  8
200
  6
AUSGEZOGEN
 10
1060.0000
 20
 234.1400
 11
1054.1400
 21
 240.0000
  0
LINE
  8
200
  6
AUSGEZOGEN
 10
1045.8600
 20
 240.0000
 11
1040.0000
 21
 234.1400
  0
LINE
  8
200
  6
AUSGEZOGEN
 10
1040.0000
 20
 225.8600
 11
1045.8600
 21
 220.0000
  0
LINE
  8
200
  6
AUSGEZOGEN
 10
1024.1400
 20
 220.0000
 11
1030.0000
 21
 225.8600
  0
LINE
  8
200
  6
AUSGEZOGEN
 10
1030.0000
 20
 234.1400
 11
1024.1400
 21
 240.0000
  0
LINE
  8
200
  6
AUSGEZOGEN
 10
1015.8600
 20
 240.0000
 11
1010.0000
 21
 234.1400
  0
LINE
  8
200
  6
AUSGEZOGEN
 10
1010.0000
 20
 225.8600
 11
1015.8600
 21
 220.0000
  0
LINE
  8
200
  6
AUSGEZOGEN
 10
 994.1400
 20
 220.0000
 11
1000.0000
 21
 225.8600
  0
LINE
  8
200
  6
AUSGEZOGEN
 10
1000.0000
 20
 234.1400
 11
 994.1400
 21
 240.0000
  0
LINE
  8
200
  6
AUSGEZOGEN
 10
 985.8600
 20
 240.0000
 11
 980.0000
 21
 234.1400
  0
LINE
  8
200
  6
AUSGEZOGEN
 10
 980.0000
 20
 225.8600
 11
 985.8600
 21
 220.0000
  0
LINE
  8
200
  6
AUSGEZOGEN
 10
 964.1400
 20
 220.0000
 11
 970.0000
 21
 225.8600
  0
LINE
  8
200
  6
AUSGEZOGEN
 10
 970.0000
 20
 234.1400
 11
 964.1400
 21
 240.0000
  0
LINE
  8
200
  6
AUSGEZOGEN
 10
 955.8600
 20
 240.0000
 11
 950.0000
 21
 234.1400
  0
LINE
  8
200
  6
AUSGEZOGEN
 10
 950.0000
 20
 225.8600
 11
 955.8600
 21
 220.0000
  0
LINE
  8
200
  6
AUSGEZOGEN
 10
1414.1400
 20
 190.0000
 11
1420.0000
 21
 195.8600
  0
LINE
  8
200
  6
AUSGEZOGEN
 10
1420.0000
 20
 204.1400
 11
1414.1400
 21
 210.0000
  0
LINE
  8
200
  6
AUSGEZOGEN
 10
1405.8600
 20
 210.0000
 11
1400.0000
 21
 204.1400
  0
LINE
  8
200
  6
AUSGEZOGEN
 10
1400.0000
 20
 195.8600
 11
1405.8600
 21
 190.0000
  0
LINE
  8
200
  6
AUSGEZOGEN
 10
1384.1400
 20
 190.0000
 11
1390.0000
 21
 195.8600
  0
LINE
  8
200
  6
AUSGEZOGEN
 10
1390.0000
 20
 204.1400
 11
1384.1400
 21
 210.0000
  0
LINE
  8
200
  6
AUSGEZOGEN
 10
1375.8600
 20
 210.0000
 11
1370.0000
 21
 204.1400
  0
LINE
  8
200
  6
AUSGEZOGEN
 10
1370.0000
 20
 195.8600
 11
1375.8600
 21
 190.0000
  0
LINE
  8
200
  6
AUSGEZOGEN
 10
1354.1400
 20
 190.0000
 11
1360.0000
 21
 195.8600
  0
LINE
  8
200
  6
AUSGEZOGEN
 10
1360.0000
 20
 204.1400
 11
1354.1400
 21
 210.0000
  0
LINE
  8
200
  6
AUSGEZOGEN
 10
1345.8600
 20
 210.0000
 11
1340.0000
 21
 204.1400
  0
LINE
  8
200
  6
AUSGEZOGEN
 10
1340.0000
 20
 195.8600
 11
1345.8600
 21
 190.0000
  0
LINE
  8
200
  6
AUSGEZOGEN
 10
1324.1400
 20
 190.0000
 11
1330.0000
 21
 195.8600
  0
LINE
  8
200
  6
AUSGEZOGEN
 10
1330.0000
 20
 204.1400
 11
1324.1400
 21
 210.0000
  0
LINE
  8
200
  6
AUSGEZOGEN
 10
1315.8600
 20
 210.0000
 11
1310.0000
 21
 204.1400
  0
LINE
  8
200
  6
AUSGEZOGEN
 10
1310.0000
 20
 195.8600
 11
1315.8600
 21
 190.0000
  0
LINE
  8
200
  6
AUSGEZOGEN
 10
1294.1400
 20
 190.0000
 11
1300.0000
 21
 195.8600
  0
LINE
  8
200
  6
AUSGEZOGEN
 10
1300.0000
 20
 204.1400
 11
1294.1400
 21
 210.0000
  0
LINE
  8
200
  6
AUSGEZOGEN
 10
1285.8600
 20
 210.0000
 11
1280.0000
 21
 204.1400
  0
LINE
  8
200
  6
AUSGEZOGEN
 10
1280.0000
 20
 195.8600
 11
1285.8600
 21
 190.0000
  0
LINE
  8
200
  6
AUSGEZOGEN
 10
1264.1400
 20
 190.0000
 11
1270.0000
 21
 195.8600
  0
LINE
  8
200
  6
AUSGEZOGEN
 10
1270.0000
 20
 204.1400
 11
1264.1400
 21
 210.0000
  0
LINE
  8
200
  6
AUSGEZOGEN
 10
1255.8600
 20
 210.0000
 11
1250.0000
 21
 204.1400
  0
LINE
  8
200
  6
AUSGEZOGEN
 10
1250.0000
 20
 195.8600
 11
1255.8600
 21
 190.0000
  0
LINE
  8
200
  6
AUSGEZOGEN
 10
1234.1400
 20
 190.0000
 11
1240.0000
 21
 195.8600
  0
LINE
  8
200
  6
AUSGEZOGEN
 10
1240.0000
 20
 204.1400
 11
1234.1400
 21
 210.0000
  0
LINE
  8
200
  6
AUSGEZOGEN
 10
1225.8600
 20
 210.0000
 11
1220.0000
 21
 204.1400
  0
LINE
  8
200
  6
AUSGEZOGEN
 10
1220.0000
 20
 195.8600
 11
1225.8600
 21
 190.0000
  0
LINE
  8
200
  6
AUSGEZOGEN
 10
1204.1400
 20
 190.0000
 11
1210.0000
 21
 195.8600
  0
LINE
  8
200
  6
AUSGEZOGEN
 10
1210.0000
 20
 204.1400
 11
1204.1400
 21
 210.0000
  0
LINE
  8
200
  6
AUSGEZOGEN
 10
1195.8600
 20
 210.0000
 11
1190.0000
 21
 204.1400
  0
LINE
  8
200
  6
AUSGEZOGEN
 10
1190.0000
 20
 195.8600
 11
1195.8600
 21
 190.0000
  0
LINE
  8
200
  6
AUSGEZOGEN
 10
1174.1400
 20
 190.0000
 11
1180.0000
 21
 195.8600
  0
LINE
  8
200
  6
AUSGEZOGEN
 10
1180.0000
 20
 204.1400
 11
1174.1400
 21
 210.0000
  0
LINE
  8
200
  6
AUSGEZOGEN
 10
1165.8600
 20
 210.0000
 11
1160.0000
 21
 204.1400
  0
LINE
  8
200
  6
AUSGEZOGEN
 10
1160.0000
 20
 195.8600
 11
1165.8600
 21
 190.0000
  0
LINE
  8
200
  6
AUSGEZOGEN
 10
1144.1400
 20
 190.0000
 11
1150.0000
 21
 195.8600
  0
LINE
  8
200
  6
AUSGEZOGEN
 10
1150.0000
 20
 204.1400
 11
1144.1400
 21
 210.0000
  0
LINE
  8
200
  6
AUSGEZOGEN
 10
1135.8600
 20
 210.0000
 11
1130.0000
 21
 204.1400
  0
LINE
  8
200
  6
AUSGEZOGEN
 10
1130.0000
 20
 195.8600
 11
1135.8600
 21
 190.0000
  0
LINE
  8
200
  6
AUSGEZOGEN
 10
1114.1400
 20
 190.0000
 11
1120.0000
 21
 195.8600
  0
LINE
  8
200
  6
AUSGEZOGEN
 10
1120.0000
 20
 204.1400
 11
1114.1400
 21
 210.0000
  0
LINE
  8
200
  6
AUSGEZOGEN
 10
1105.8600
 20
 210.0000
 11
1100.0000
 21
 204.1400
  0
LINE
  8
200
  6
AUSGEZOGEN
 10
1100.0000
 20
 195.8600
 11
1105.8600
 21
 190.0000
  0
LINE
  8
200
  6
AUSGEZOGEN
 10
1084.1400
 20
 190.0000
 11
1090.0000
 21
 195.8600
  0
LINE
  8
200
  6
AUSGEZOGEN
 10
1090.0000
 20
 204.1400
 11
1084.1400
 21
 210.0000
  0
LINE
  8
200
  6
AUSGEZOGEN
 10
1075.8600
 20
 210.0000
 11
1070.0000
 21
 204.1400
  0
LINE
  8
200
  6
AUSGEZOGEN
 10
1070.0000
 20
 195.8600
 11
1075.8600
 21
 190.0000
  0
LINE
  8
200
  6
AUSGEZOGEN
 10
1054.1400
 20
 190.0000
 11
1060.0000
 21
 195.8600
  0
LINE
  8
200
  6
AUSGEZOGEN
 10
1060.0000
 20
 204.1400
 11
1054.1400
 21
 210.0000
  0
LINE
  8
200
  6
AUSGEZOGEN
 10
1045.8600
 20
 210.0000
 11
1040.0000
 21
 204.1400
  0
LINE
  8
200
  6
AUSGEZOGEN
 10
1040.0000
 20
 195.8600
 11
1045.8600
 21
 190.0000
  0
LINE
  8
200
  6
AUSGEZOGEN
 10
1024.1400
 20
 190.0000
 11
1030.0000
 21
 195.8600
  0
LINE
  8
200
  6
AUSGEZOGEN
 10
1030.0000
 20
 204.1400
 11
1024.1400
 21
 210.0000
  0
LINE
  8
200
  6
AUSGEZOGEN
 10
1015.8600
 20
 210.0000
 11
1010.0000
 21
 204.1400
  0
LINE
  8
200
  6
AUSGEZOGEN
 10
1010.0000
 20
 195.8600
 11
1015.8600
 21
 190.0000
  0
LINE
  8
200
  6
AUSGEZOGEN
 10
 994.1400
 20
 190.0000
 11
1000.0000
 21
 195.8600
  0
LINE
  8
200
  6
AUSGEZOGEN
 10
1000.0000
 20
 204.1400
 11
 994.1400
 21
 210.0000
  0
LINE
  8
200
  6
AUSGEZOGEN
 10
 985.8600
 20
 210.0000
 11
 980.0000
 21
 204.1400
  0
LINE
  8
200
  6
AUSGEZOGEN
 10
 980.0000
 20
 195.8600
 11
 985.8600
 21
 190.0000
  0
LINE
  8
200
  6
AUSGEZOGEN
 10
 964.1400
 20
 190.0000
 11
 970.0000
 21
 195.8600
  0
LINE
  8
200
  6
AUSGEZOGEN
 10
 970.0000
 20
 204.1400
 11
 964.1400
 21
 210.0000
  0
LINE
  8
200
  6
AUSGEZOGEN
 10
 955.8600
 20
 210.0000
 11
 950.0000
 21
 204.1400
  0
LINE
  8
200
  6
AUSGEZOGEN
 10
 950.0000
 20
 195.8600
 11
 955.8600
 21
 190.0000
  0
LINE
  8
200
  6
AUSGEZOGEN
 10
1414.1400
 20
 160.0000
 11
1420.0000
 21
 165.8600
  0
LINE
  8
200
  6
AUSGEZOGEN
 10
1420.0000
 20
 174.1400
 11
1414.1400
 21
 180.0000
  0
LINE
  8
200
  6
AUSGEZOGEN
 10
1405.8600
 20
 180.0000
 11
1400.0000
 21
 174.1400
  0
LINE
  8
200
  6
AUSGEZOGEN
 10
1400.0000
 20
 165.8600
 11
1405.8600
 21
 160.0000
  0
LINE
  8
200
  6
AUSGEZOGEN
 10
1384.1400
 20
 160.0000
 11
1390.0000
 21
 165.8600
  0
LINE
  8
200
  6
AUSGEZOGEN
 10
1390.0000
 20
 174.1400
 11
1384.1400
 21
 180.0000
  0
LINE
  8
200
  6
AUSGEZOGEN
 10
1375.8600
 20
 180.0000
 11
1370.0000
 21
 174.1400
  0
LINE
  8
200
  6
AUSGEZOGEN
 10
1370.0000
 20
 165.8600
 11
1375.8600
 21
 160.0000
  0
LINE
  8
200
  6
AUSGEZOGEN
 10
1354.1400
 20
 160.0000
 11
1360.0000
 21
 165.8600
  0
LINE
  8
200
  6
AUSGEZOGEN
 10
1360.0000
 20
 174.1400
 11
1354.1400
 21
 180.0000
  0
LINE
  8
200
  6
AUSGEZOGEN
 10
1345.8600
 20
 180.0000
 11
1340.0000
 21
 174.1400
  0
LINE
  8
200
  6
AUSGEZOGEN
 10
1340.0000
 20
 165.8600
 11
1345.8600
 21
 160.0000
  0
LINE
  8
200
  6
AUSGEZOGEN
 10
1324.1400
 20
 160.0000
 11
1330.0000
 21
 165.8600
  0
LINE
  8
200
  6
AUSGEZOGEN
 10
1330.0000
 20
 174.1400
 11
1324.1400
 21
 180.0000
  0
LINE
  8
200
  6
AUSGEZOGEN
 10
1315.8600
 20
 180.0000
 11
1310.0000
 21
 174.1400
  0
LINE
  8
200
  6
AUSGEZOGEN
 10
1310.0000
 20
 165.8600
 11
1315.8600
 21
 160.0000
  0
LINE
  8
200
  6
AUSGEZOGEN
 10
1294.1400
 20
 160.0000
 11
1300.0000
 21
 165.8600
  0
LINE
  8
200
  6
AUSGEZOGEN
 10
1300.0000
 20
 174.1400
 11
1294.1400
 21
 180.0000
  0
LINE
  8
200
  6
AUSGEZOGEN
 10
1285.8600
 20
 180.0000
 11
1280.0000
 21
 174.1400
  0
LINE
  8
200
  6
AUSGEZOGEN
 10
1280.0000
 20
 165.8600
 11
1285.8600
 21
 160.0000
  0
LINE
  8
200
  6
AUSGEZOGEN
 10
1264.1400
 20
 160.0000
 11
1270.0000
 21
 165.8600
  0
LINE
  8
200
  6
AUSGEZOGEN
 10
1270.0000
 20
 174.1400
 11
1264.1400
 21
 180.0000
  0
LINE
  8
200
  6
AUSGEZOGEN
 10
1255.8600
 20
 180.0000
 11
1250.0000
 21
 174.1400
  0
LINE
  8
200
  6
AUSGEZOGEN
 10
1250.0000
 20
 165.8600
 11
1255.8600
 21
 160.0000
  0
LINE
  8
200
  6
AUSGEZOGEN
 10
1234.1400
 20
 160.0000
 11
1240.0000
 21
 165.8600
  0
LINE
  8
200
  6
AUSGEZOGEN
 10
1240.0000
 20
 174.1400
 11
1234.1400
 21
 180.0000
  0
LINE
  8
200
  6
AUSGEZOGEN
 10
1225.8600
 20
 180.0000
 11
1220.0000
 21
 174.1400
  0
LINE
  8
200
  6
AUSGEZOGEN
 10
1220.0000
 20
 165.8600
 11
1225.8600
 21
 160.0000
  0
LINE
  8
200
  6
AUSGEZOGEN
 10
1204.1400
 20
 160.0000
 11
1210.0000
 21
 165.8600
  0
LINE
  8
200
  6
AUSGEZOGEN
 10
1210.0000
 20
 174.1400
 11
1204.1400
 21
 180.0000
  0
LINE
  8
200
  6
AUSGEZOGEN
 10
1195.8600
 20
 180.0000
 11
1190.0000
 21
 174.1400
  0
LINE
  8
200
  6
AUSGEZOGEN
 10
1190.0000
 20
 165.8600
 11
1195.8600
 21
 160.0000
  0
LINE
  8
200
  6
AUSGEZOGEN
 10
1174.1400
 20
 160.0000
 11
1180.0000
 21
 165.8600
  0
LINE
  8
200
  6
AUSGEZOGEN
 10
1180.0000
 20
 174.1400
 11
1174.1400
 21
 180.0000
  0
LINE
  8
200
  6
AUSGEZOGEN
 10
1165.8600
 20
 180.0000
 11
1160.0000
 21
 174.1400
  0
LINE
  8
200
  6
AUSGEZOGEN
 10
1160.0000
 20
 165.8600
 11
1165.8600
 21
 160.0000
  0
LINE
  8
200
  6
AUSGEZOGEN
 10
1144.1400
 20
 160.0000
 11
1150.0000
 21
 165.8600
  0
LINE
  8
200
  6
AUSGEZOGEN
 10
1150.0000
 20
 174.1400
 11
1144.1400
 21
 180.0000
  0
LINE
  8
200
  6
AUSGEZOGEN
 10
1135.8600
 20
 180.0000
 11
1130.0000
 21
 174.1400
  0
LINE
  8
200
  6
AUSGEZOGEN
 10
1130.0000
 20
 165.8600
 11
1135.8600
 21
 160.0000
  0
LINE
  8
200
  6
AUSGEZOGEN
 10
1114.1400
 20
 160.0000
 11
1120.0000
 21
 165.8600
  0
LINE
  8
200
  6
AUSGEZOGEN
 10
1120.0000
 20
 174.1400
 11
1114.1400
 21
 180.0000
  0
LINE
  8
200
  6
AUSGEZOGEN
 10
1105.8600
 20
 180.0000
 11
1100.0000
 21
 174.1400
  0
LINE
  8
200
  6
AUSGEZOGEN
 10
1100.0000
 20
 165.8600
 11
1105.8600
 21
 160.0000
  0
LINE
  8
200
  6
AUSGEZOGEN
 10
1084.1400
 20
 160.0000
 11
1090.0000
 21
 165.8600
  0
LINE
  8
200
  6
AUSGEZOGEN
 10
1090.0000
 20
 174.1400
 11
1084.1400
 21
 180.0000
  0
LINE
  8
200
  6
AUSGEZOGEN
 10
1075.8600
 20
 180.0000
 11
1070.0000
 21
 174.1400
  0
LINE
  8
200
  6
AUSGEZOGEN
 10
1070.0000
 20
 165.8600
 11
1075.8600
 21
 160.0000
  0
LINE
  8
200
  6
AUSGEZOGEN
 10
1054.1400
 20
 160.0000
 11
1060.0000
 21
 165.8600
  0
LINE
  8
200
  6
AUSGEZOGEN
 10
1060.0000
 20
 174.1400
 11
1054.1400
 21
 180.0000
  0
LINE
  8
200
  6
AUSGEZOGEN
 10
1045.8600
 20
 180.0000
 11
1040.0000
 21
 174.1400
  0
LINE
  8
200
  6
AUSGEZOGEN
 10
1040.0000
 20
 165.8600
 11
1045.8600
 21
 160.0000
  0
LINE
  8
200
  6
AUSGEZOGEN
 10
1024.1400
 20
 160.0000
 11
1030.0000
 21
 165.8600
  0
LINE
  8
200
  6
AUSGEZOGEN
 10
1030.0000
 20
 174.1400
 11
1024.1400
 21
 180.0000
  0
LINE
  8
200
  6
AUSGEZOGEN
 10
1015.8600
 20
 180.0000
 11
1010.0000
 21
 174.1400
  0
LINE
  8
200
  6
AUSGEZOGEN
 10
1010.0000
 20
 165.8600
 11
1015.8600
 21
 160.0000
  0
LINE
  8
200
  6
AUSGEZOGEN
 10
 994.1400
 20
 160.0000
 11
1000.0000
 21
 165.8600
  0
LINE
  8
200
  6
AUSGEZOGEN
 10
1000.0000
 20
 174.1400
 11
 994.1400
 21
 180.0000
  0
LINE
  8
200
  6
AUSGEZOGEN
 10
 985.8600
 20
 180.0000
 11
 980.0000
 21
 174.1400
  0
LINE
  8
200
  6
AUSGEZOGEN
 10
 980.0000
 20
 165.8600
 11
 985.8600
 21
 160.0000
  0
LINE
  8
200
  6
AUSGEZOGEN
 10
 964.1400
 20
 160.0000
 11
 970.0000
 21
 165.8600
  0
LINE
  8
200
  6
AUSGEZOGEN
 10
 970.0000
 20
 174.1400
 11
 964.1400
 21
 180.0000
  0
LINE
  8
200
  6
AUSGEZOGEN
 10
 955.8600
 20
 180.0000
 11
 950.0000
 21
 174.1400
  0
LINE
  8
200
  6
AUSGEZOGEN
 10
 950.0000
 20
 165.8600
 11
 955.8600
 21
 160.0000
  0
LINE
  8
200
  6
AUSGEZOGEN
 10
1414.1400
 20
 130.0000
 11
1420.0000
 21
 135.8600
  0
LINE
  8
200
  6
AUSGEZOGEN
 10
1420.0000
 20
 144.1400
 11
1414.1400
 21
 150.0000
  0
LINE
  8
200
  6
AUSGEZOGEN
 10
1405.8600
 20
 150.0000
 11
1400.0000
 21
 144.1400
  0
LINE
  8
200
  6
AUSGEZOGEN
 10
1400.0000
 20
 135.8600
 11
1405.8600
 21
 130.0000
  0
LINE
  8
200
  6
AUSGEZOGEN
 10
1384.1400
 20
 130.0000
 11
1390.0000
 21
 135.8600
  0
LINE
  8
200
  6
AUSGEZOGEN
 10
1390.0000
 20
 144.1400
 11
1384.1400
 21
 150.0000
  0
LINE
  8
200
  6
AUSGEZOGEN
 10
1375.8600
 20
 150.0000
 11
1370.0000
 21
 144.1400
  0
LINE
  8
200
  6
AUSGEZOGEN
 10
1370.0000
 20
 135.8600
 11
1375.8600
 21
 130.0000
  0
LINE
  8
200
  6
AUSGEZOGEN
 10
1354.1400
 20
 130.0000
 11
1360.0000
 21
 135.8600
  0
LINE
  8
200
  6
AUSGEZOGEN
 10
1360.0000
 20
 144.1400
 11
1354.1400
 21
 150.0000
  0
LINE
  8
200
  6
AUSGEZOGEN
 10
1345.8600
 20
 150.0000
 11
1340.0000
 21
 144.1400
  0
LINE
  8
200
  6
AUSGEZOGEN
 10
1340.0000
 20
 135.8600
 11
1345.8600
 21
 130.0000
  0
LINE
  8
200
  6
AUSGEZOGEN
 10
1324.1400
 20
 130.0000
 11
1330.0000
 21
 135.8600
  0
LINE
  8
200
  6
AUSGEZOGEN
 10
1330.0000
 20
 144.1400
 11
1324.1400
 21
 150.0000
  0
LINE
  8
200
  6
AUSGEZOGEN
 10
1315.8600
 20
 150.0000
 11
1310.0000
 21
 144.1400
  0
LINE
  8
200
  6
AUSGEZOGEN
 10
1310.0000
 20
 135.8600
 11
1315.8600
 21
 130.0000
  0
LINE
  8
200
  6
AUSGEZOGEN
 10
1294.1400
 20
 130.0000
 11
1300.0000
 21
 135.8600
  0
LINE
  8
200
  6
AUSGEZOGEN
 10
1300.0000
 20
 144.1400
 11
1294.1400
 21
 150.0000
  0
LINE
  8
200
  6
AUSGEZOGEN
 10
1285.8600
 20
 150.0000
 11
1280.0000
 21
 144.1400
  0
LINE
  8
200
  6
AUSGEZOGEN
 10
1280.0000
 20
 135.8600
 11
1285.8600
 21
 130.0000
  0
LINE
  8
200
  6
AUSGEZOGEN
 10
1264.1400
 20
 130.0000
 11
1270.0000
 21
 135.8600
  0
LINE
  8
200
  6
AUSGEZOGEN
 10
1270.0000
 20
 144.1400
 11
1264.1400
 21
 150.0000
  0
LINE
  8
200
  6
AUSGEZOGEN
 10
1255.8600
 20
 150.0000
 11
1250.0000
 21
 144.1400
  0
LINE
  8
200
  6
AUSGEZOGEN
 10
1250.0000
 20
 135.8600
 11
1255.8600
 21
 130.0000
  0
LINE
  8
200
  6
AUSGEZOGEN
 10
1234.1400
 20
 130.0000
 11
1240.0000
 21
 135.8600
  0
LINE
  8
200
  6
AUSGEZOGEN
 10
1240.0000
 20
 144.1400
 11
1234.1400
 21
 150.0000
  0
LINE
  8
200
  6
AUSGEZOGEN
 10
1225.8600
 20
 150.0000
 11
1220.0000
 21
 144.1400
  0
LINE
  8
200
  6
AUSGEZOGEN
 10
1220.0000
 20
 135.8600
 11
1225.8600
 21
 130.0000
  0
LINE
  8
200
  6
AUSGEZOGEN
 10
1204.1400
 20
 130.0000
 11
1210.0000
 21
 135.8600
  0
LINE
  8
200
  6
AUSGEZOGEN
 10
1210.0000
 20
 144.1400
 11
1204.1400
 21
 150.0000
  0
LINE
  8
200
  6
AUSGEZOGEN
 10
1195.8600
 20
 150.0000
 11
1190.0000
 21
 144.1400
  0
LINE
  8
200
  6
AUSGEZOGEN
 10
1190.0000
 20
 135.8600
 11
1195.8600
 21
 130.0000
  0
LINE
  8
200
  6
AUSGEZOGEN
 10
1174.1400
 20
 130.0000
 11
1180.0000
 21
 135.8600
  0
LINE
  8
200
  6
AUSGEZOGEN
 10
1180.0000
 20
 144.1400
 11
1174.1400
 21
 150.0000
  0
LINE
  8
200
  6
AUSGEZOGEN
 10
1165.8600
 20
 150.0000
 11
1160.0000
 21
 144.1400
  0
LINE
  8
200
  6
AUSGEZOGEN
 10
1160.0000
 20
 135.8600
 11
1165.8600
 21
 130.0000
  0
LINE
  8
200
  6
AUSGEZOGEN
 10
1144.1400
 20
 130.0000
 11
1150.0000
 21
 135.8600
  0
LINE
  8
200
  6
AUSGEZOGEN
 10
1150.0000
 20
 144.1400
 11
1144.1400
 21
 150.0000
  0
LINE
  8
200
  6
AUSGEZOGEN
 10
1135.8600
 20
 150.0000
 11
1130.0000
 21
 144.1400
  0
LINE
  8
200
  6
AUSGEZOGEN
 10
1130.0000
 20
 135.8600
 11
1135.8600
 21
 130.0000
  0
LINE
  8
200
  6
AUSGEZOGEN
 10
1114.1400
 20
 130.0000
 11
1120.0000
 21
 135.8600
  0
LINE
  8
200
  6
AUSGEZOGEN
 10
1120.0000
 20
 144.1400
 11
1114.1400
 21
 150.0000
  0
LINE
  8
200
  6
AUSGEZOGEN
 10
1105.8600
 20
 150.0000
 11
1100.0000
 21
 144.1400
  0
LINE
  8
200
  6
AUSGEZOGEN
 10
1100.0000
 20
 135.8600
 11
1105.8600
 21
 130.0000
  0
LINE
  8
200
  6
AUSGEZOGEN
 10
1084.1400
 20
 130.0000
 11
1090.0000
 21
 135.8600
  0
LINE
  8
200
  6
AUSGEZOGEN
 10
1090.0000
 20
 144.1400
 11
1084.1400
 21
 150.0000
  0
LINE
  8
200
  6
AUSGEZOGEN
 10
1075.8600
 20
 150.0000
 11
1070.0000
 21
 144.1400
  0
LINE
  8
200
  6
AUSGEZOGEN
 10
1070.0000
 20
 135.8600
 11
1075.8600
 21
 130.0000
  0
LINE
  8
200
  6
AUSGEZOGEN
 10
1054.1400
 20
 130.0000
 11
1060.0000
 21
 135.8600
  0
LINE
  8
200
  6
AUSGEZOGEN
 10
1060.0000
 20
 144.1400
 11
1054.1400
 21
 150.0000
  0
LINE
  8
200
  6
AUSGEZOGEN
 10
1045.8600
 20
 150.0000
 11
1040.0000
 21
 144.1400
  0
LINE
  8
200
  6
AUSGEZOGEN
 10
1040.0000
 20
 135.8600
 11
1045.8600
 21
 130.0000
  0
LINE
  8
200
  6
AUSGEZOGEN
 10
1024.1400
 20
 130.0000
 11
1030.0000
 21
 135.8600
  0
LINE
  8
200
  6
AUSGEZOGEN
 10
1030.0000
 20
 144.1400
 11
1024.1400
 21
 150.0000
  0
LINE
  8
200
  6
AUSGEZOGEN
 10
1015.8600
 20
 150.0000
 11
1010.0000
 21
 144.1400
  0
LINE
  8
200
  6
AUSGEZOGEN
 10
1010.0000
 20
 135.8600
 11
1015.8600
 21
 130.0000
  0
LINE
  8
200
  6
AUSGEZOGEN
 10
 994.1400
 20
 130.0000
 11
1000.0000
 21
 135.8600
  0
LINE
  8
200
  6
AUSGEZOGEN
 10
1000.0000
 20
 144.1400
 11
 994.1400
 21
 150.0000
  0
LINE
  8
200
  6
AUSGEZOGEN
 10
 985.8600
 20
 150.0000
 11
 980.0000
 21
 144.1400
  0
LINE
  8
200
  6
AUSGEZOGEN
 10
 980.0000
 20
 135.8600
 11
 985.8600
 21
 130.0000
  0
LINE
  8
200
  6
AUSGEZOGEN
 10
 964.1400
 20
 130.0000
 11
 970.0000
 21
 135.8600
  0
LINE
  8
200
  6
AUSGEZOGEN
 10
 970.0000
 20
 144.1400
 11
 964.1400
 21
 150.0000
  0
LINE
  8
200
  6
AUSGEZOGEN
 10
 955.8600
 20
 150.0000
 11
 950.0000
 21
 144.1400
  0
LINE
  8
200
  6
AUSGEZOGEN
 10
 950.0000
 20
 135.8600
 11
 955.8600
 21
 130.0000
  0
LINE
  8
200
  6
AUSGEZOGEN
 10
1414.1400
 20
 100.0000
 11
1420.0000
 21
 105.8600
  0
LINE
  8
200
  6
AUSGEZOGEN
 10
1420.0000
 20
 114.1400
 11
1414.1400
 21
 120.0000
  0
LINE
  8
200
  6
AUSGEZOGEN
 10
1405.8600
 20
 120.0000
 11
1400.0000
 21
 114.1400
  0
LINE
  8
200
  6
AUSGEZOGEN
 10
1400.0000
 20
 105.8600
 11
1405.8600
 21
 100.0000
  0
LINE
  8
200
  6
AUSGEZOGEN
 10
1384.1400
 20
 100.0000
 11
1390.0000
 21
 105.8600
  0
LINE
  8
200
  6
AUSGEZOGEN
 10
1390.0000
 20
 114.1400
 11
1384.1400
 21
 120.0000
  0
LINE
  8
200
  6
AUSGEZOGEN
 10
1375.8600
 20
 120.0000
 11
1370.0000
 21
 114.1400
  0
LINE
  8
200
  6
AUSGEZOGEN
 10
1370.0000
 20
 105.8600
 11
1375.8600
 21
 100.0000
  0
LINE
  8
200
  6
AUSGEZOGEN
 10
1354.1400
 20
 100.0000
 11
1360.0000
 21
 105.8600
  0
LINE
  8
200
  6
AUSGEZOGEN
 10
1360.0000
 20
 114.1400
 11
1354.1400
 21
 120.0000
  0
LINE
  8
200
  6
AUSGEZOGEN
 10
1345.8600
 20
 120.0000
 11
1340.0000
 21
 114.1400
  0
LINE
  8
200
  6
AUSGEZOGEN
 10
1340.0000
 20
 105.8600
 11
1345.8600
 21
 100.0000
  0
LINE
  8
200
  6
AUSGEZOGEN
 10
1324.1400
 20
 100.0000
 11
1330.0000
 21
 105.8600
  0
LINE
  8
200
  6
AUSGEZOGEN
 10
1330.0000
 20
 114.1400
 11
1324.1400
 21
 120.0000
  0
LINE
  8
200
  6
AUSGEZOGEN
 10
1315.8600
 20
 120.0000
 11
1310.0000
 21
 114.1400
  0
LINE
  8
200
  6
AUSGEZOGEN
 10
1310.0000
 20
 105.8600
 11
1315.8600
 21
 100.0000
  0
LINE
  8
200
  6
AUSGEZOGEN
 10
1294.1400
 20
 100.0000
 11
1300.0000
 21
 105.8600
  0
LINE
  8
200
  6
AUSGEZOGEN
 10
1300.0000
 20
 114.1400
 11
1294.1400
 21
 120.0000
  0
LINE
  8
200
  6
AUSGEZOGEN
 10
1285.8600
 20
 120.0000
 11
1280.0000
 21
 114.1400
  0
LINE
  8
200
  6
AUSGEZOGEN
 10
1280.0000
 20
 105.8600
 11
1285.8600
 21
 100.0000
  0
LINE
  8
200
  6
AUSGEZOGEN
 10
1264.1400
 20
 100.0000
 11
1270.0000
 21
 105.8600
  0
LINE
  8
200
  6
AUSGEZOGEN
 10
1270.0000
 20
 114.1400
 11
1264.1400
 21
 120.0000
  0
LINE
  8
200
  6
AUSGEZOGEN
 10
1255.8600
 20
 120.0000
 11
1250.0000
 21
 114.1400
  0
LINE
  8
200
  6
AUSGEZOGEN
 10
1250.0000
 20
 105.8600
 11
1255.8600
 21
 100.0000
  0
LINE
  8
200
  6
AUSGEZOGEN
 10
1234.1400
 20
 100.0000
 11
1240.0000
 21
 105.8600
  0
LINE
  8
200
  6
AUSGEZOGEN
 10
1240.0000
 20
 114.1400
 11
1234.1400
 21
 120.0000
  0
LINE
  8
200
  6
AUSGEZOGEN
 10
1225.8600
 20
 120.0000
 11
1220.0000
 21
 114.1400
  0
LINE
  8
200
  6
AUSGEZOGEN
 10
1220.0000
 20
 105.8600
 11
1225.8600
 21
 100.0000
  0
LINE
  8
200
  6
AUSGEZOGEN
 10
1204.1400
 20
 100.0000
 11
1210.0000
 21
 105.8600
  0
LINE
  8
200
  6
AUSGEZOGEN
 10
1210.0000
 20
 114.1400
 11
1204.1400
 21
 120.0000
  0
LINE
  8
200
  6
AUSGEZOGEN
 10
1195.8600
 20
 120.0000
 11
1190.0000
 21
 114.1400
  0
LINE
  8
200
  6
AUSGEZOGEN
 10
1190.0000
 20
 105.8600
 11
1195.8600
 21
 100.0000
  0
LINE
  8
200
  6
AUSGEZOGEN
 10
1174.1400
 20
 100.0000
 11
1180.0000
 21
 105.8600
  0
LINE
  8
200
  6
AUSGEZOGEN
 10
1180.0000
 20
 114.1400
 11
1174.1400
 21
 120.0000
  0
LINE
  8
200
  6
AUSGEZOGEN
 10
1165.8600
 20
 120.0000
 11
1160.0000
 21
 114.1400
  0
LINE
  8
200
  6
AUSGEZOGEN
 10
1160.0000
 20
 105.8600
 11
1165.8600
 21
 100.0000
  0
LINE
  8
200
  6
AUSGEZOGEN
 10
1144.1400
 20
 100.0000
 11
1150.0000
 21
 105.8600
  0
LINE
  8
200
  6
AUSGEZOGEN
 10
1150.0000
 20
 114.1400
 11
1144.1400
 21
 120.0000
  0
LINE
  8
200
  6
AUSGEZOGEN
 10
1135.8600
 20
 120.0000
 11
1130.0000
 21
 114.1400
  0
LINE
  8
200
  6
AUSGEZOGEN
 10
1130.0000
 20
 105.8600
 11
1135.8600
 21
 100.0000
  0
LINE
  8
200
  6
AUSGEZOGEN
 10
1114.1400
 20
 100.0000
 11
1120.0000
 21
 105.8600
  0
LINE
  8
200
  6
AUSGEZOGEN
 10
1120.0000
 20
 114.1400
 11
1114.1400
 21
 120.0000
  0
LINE
  8
200
  6
AUSGEZOGEN
 10
1105.8600
 20
 120.0000
 11
1100.0000
 21
 114.1400
  0
LINE
  8
200
  6
AUSGEZOGEN
 10
1100.0000
 20
 105.8600
 11
1105.8600
 21
 100.0000
  0
LINE
  8
200
  6
AUSGEZOGEN
 10
1084.1400
 20
 100.0000
 11
1090.0000
 21
 105.8600
  0
LINE
  8
200
  6
AUSGEZOGEN
 10
1090.0000
 20
 114.1400
 11
1084.1400
 21
 120.0000
  0
LINE
  8
200
  6
AUSGEZOGEN
 10
1075.8600
 20
 120.0000
 11
1070.0000
 21
 114.1400
  0
LINE
  8
200
  6
AUSGEZOGEN
 10
1070.0000
 20
 105.8600
 11
1075.8600
 21
 100.0000
  0
LINE
  8
200
  6
AUSGEZOGEN
 10
1054.1400
 20
 100.0000
 11
1060.0000
 21
 105.8600
  0
LINE
  8
200
  6
AUSGEZOGEN
 10
1060.0000
 20
 114.1400
 11
1054.1400
 21
 120.0000
  0
LINE
  8
200
  6
AUSGEZOGEN
 10
1045.8600
 20
 120.0000
 11
1040.0000
 21
 114.1400
  0
LINE
  8
200
  6
AUSGEZOGEN
 10
1040.0000
 20
 105.8600
 11
1045.8600
 21
 100.0000
  0
LINE
  8
200
  6
AUSGEZOGEN
 10
1024.1400
 20
 100.0000
 11
1030.0000
 21
 105.8600
  0
LINE
  8
200
  6
AUSGEZOGEN
 10
1030.0000
 20
 114.1400
 11
1024.1400
 21
 120.0000
  0
LINE
  8
200
  6
AUSGEZOGEN
 10
1015.8600
 20
 120.0000
 11
1010.0000
 21
 114.1400
  0
LINE
  8
200
  6
AUSGEZOGEN
 10
1010.0000
 20
 105.8600
 11
1015.8600
 21
 100.0000
  0
LINE
  8
200
  6
AUSGEZOGEN
 10
 994.1400
 20
 100.0000
 11
1000.0000
 21
 105.8600
  0
LINE
  8
200
  6
AUSGEZOGEN
 10
1000.0000
 20
 114.1400
 11
 994.1400
 21
 120.0000
  0
LINE
  8
200
  6
AUSGEZOGEN
 10
 985.8600
 20
 120.0000
 11
 980.0000
 21
 114.1400
  0
LINE
  8
200
  6
AUSGEZOGEN
 10
 980.0000
 20
 105.8600
 11
 985.8600
 21
 100.0000
  0
LINE
  8
200
  6
AUSGEZOGEN
 10
 964.1400
 20
 100.0000
 11
 970.0000
 21
 105.8600
  0
LINE
  8
200
  6
AUSGEZOGEN
 10
 970.0000
 20
 114.1400
 11
 964.1400
 21
 120.0000
  0
LINE
  8
200
  6
AUSGEZOGEN
 10
 955.8600
 20
 120.0000
 11
 950.0000
 21
 114.1400
  0
LINE
  8
200
  6
AUSGEZOGEN
 10
 950.0000
 20
 105.8600
 11
 955.8600
 21
 100.0000
  0
LINE
  8
200
  6
AUSGEZOGEN
 10
1420.0000
 20
 285.8600
 11
1414.1400
 21
 280.0000
  0
LINE
  8
200
  6
AUSGEZOGEN
 10
1414.1400
 20
 300.0000
 11
1420.0000
 21
 294.1400
  0
LINE
  8
200
  6
AUSGEZOGEN
 10
1400.0000
 20
 294.1400
 11
1405.8600
 21
 300.0000
  0
LINE
  8
200
  6
AUSGEZOGEN
 10
1405.8600
 20
 280.0000
 11
1400.0000
 21
 285.8600
  0
LINE
  8
200
  6
AUSGEZOGEN
 10
1384.1400
 20
 280.0000
 11
1390.0000
 21
 285.8600
  0
LINE
  8
200
  6
AUSGEZOGEN
 10
1390.0000
 20
 294.1400
 11
1384.1400
 21
 300.0000
  0
LINE
  8
200
  6
AUSGEZOGEN
 10
1375.8600
 20
 300.0000
 11
1370.0000
 21
 294.1400
  0
LINE
  8
200
  6
AUSGEZOGEN
 10
1370.0000
 20
 285.8600
 11
1375.8600
 21
 280.0000
  0
LINE
  8
200
  6
AUSGEZOGEN
 10
1354.1400
 20
 280.0000
 11
1360.0000
 21
 285.8600
  0
LINE
  8
200
  6
AUSGEZOGEN
 10
1360.0000
 20
 294.1400
 11
1354.1400
 21
 300.0000
  0
LINE
  8
200
  6
AUSGEZOGEN
 10
1345.8600
 20
 300.0000
 11
1340.0000
 21
 294.1400
  0
LINE
  8
200
  6
AUSGEZOGEN
 10
1340.0000
 20
 285.8600
 11
1345.8600
 21
 280.0000
  0
LINE
  8
200
  6
AUSGEZOGEN
 10
1324.1400
 20
 280.0000
 11
1330.0000
 21
 285.8600
  0
LINE
  8
200
  6
AUSGEZOGEN
 10
1330.0000
 20
 294.1400
 11
1324.1400
 21
 300.0000
  0
LINE
  8
200
  6
AUSGEZOGEN
 10
1315.8600
 20
 300.0000
 11
1310.0000
 21
 294.1400
  0
LINE
  8
200
  6
AUSGEZOGEN
 10
1310.0000
 20
 285.8600
 11
1315.8600
 21
 280.0000
  0
LINE
  8
200
  6
AUSGEZOGEN
 10
1294.1400
 20
 280.0000
 11
1300.0000
 21
 285.8600
  0
LINE
  8
200
  6
AUSGEZOGEN
 10
1300.0000
 20
 294.1400
 11
1294.1400
 21
 300.0000
  0
LINE
  8
200
  6
AUSGEZOGEN
 10
1285.8600
 20
 300.0000
 11
1280.0000
 21
 294.1400
  0
LINE
  8
200
  6
AUSGEZOGEN
 10
1280.0000
 20
 285.8600
 11
1285.8600
 21
 280.0000
  0
LINE
  8
200
  6
AUSGEZOGEN
 10
1264.1400
 20
 280.0000
 11
1270.0000
 21
 285.8600
  0
LINE
  8
200
  6
AUSGEZOGEN
 10
1270.0000
 20
 294.1400
 11
1264.1400
 21
 300.0000
  0
LINE
  8
200
  6
AUSGEZOGEN
 10
1255.8600
 20
 300.0000
 11
1250.0000
 21
 294.1400
  0
LINE
  8
200
  6
AUSGEZOGEN
 10
1250.0000
 20
 285.8600
 11
1255.8600
 21
 280.0000
  0
LINE
  8
200
  6
AUSGEZOGEN
 10
1234.1400
 20
 280.0000
 11
1240.0000
 21
 285.8600
  0
LINE
  8
200
  6
AUSGEZOGEN
 10
1240.0000
 20
 294.1400
 11
1234.1400
 21
 300.0000
  0
LINE
  8
200
  6
AUSGEZOGEN
 10
1225.8600
 20
 300.0000
 11
1220.0000
 21
 294.1400
  0
LINE
  8
200
  6
AUSGEZOGEN
 10
1220.0000
 20
 285.8600
 11
1225.8600
 21
 280.0000
  0
LINE
  8
200
  6
AUSGEZOGEN
 10
1204.1400
 20
 280.0000
 11
1210.0000
 21
 285.8600
  0
LINE
  8
200
  6
AUSGEZOGEN
 10
1210.0000
 20
 294.1400
 11
1204.1400
 21
 300.0000
  0
LINE
  8
200
  6
AUSGEZOGEN
 10
1195.8600
 20
 300.0000
 11
1190.0000
 21
 294.1400
  0
LINE
  8
200
  6
AUSGEZOGEN
 10
1190.0000
 20
 285.8600
 11
1195.8600
 21
 280.0000
  0
LINE
  8
200
  6
AUSGEZOGEN
 10
1174.1400
 20
 280.0000
 11
1180.0000
 21
 285.8600
  0
LINE
  8
200
  6
AUSGEZOGEN
 10
1180.0000
 20
 294.1400
 11
1174.1400
 21
 300.0000
  0
LINE
  8
200
  6
AUSGEZOGEN
 10
1165.8600
 20
 300.0000
 11
1160.0000
 21
 294.1400
  0
LINE
  8
200
  6
AUSGEZOGEN
 10
1160.0000
 20
 285.8600
 11
1165.8600
 21
 280.0000
  0
LINE
  8
200
  6
AUSGEZOGEN
 10
1144.1400
 20
 280.0000
 11
1150.0000
 21
 285.8600
  0
LINE
  8
200
  6
AUSGEZOGEN
 10
1150.0000
 20
 294.1400
 11
1144.1400
 21
 300.0000
  0
LINE
  8
200
  6
AUSGEZOGEN
 10
1135.8600
 20
 300.0000
 11
1130.0000
 21
 294.1400
  0
LINE
  8
200
  6
AUSGEZOGEN
 10
1130.0000
 20
 285.8600
 11
1135.8600
 21
 280.0000
  0
LINE
  8
200
  6
AUSGEZOGEN
 10
1114.1400
 20
 280.0000
 11
1120.0000
 21
 285.8600
  0
LINE
  8
200
  6
AUSGEZOGEN
 10
1120.0000
 20
 294.1400
 11
1114.1400
 21
 300.0000
  0
LINE
  8
200
  6
AUSGEZOGEN
 10
1105.8600
 20
 300.0000
 11
1100.0000
 21
 294.1400
  0
LINE
  8
200
  6
AUSGEZOGEN
 10
1100.0000
 20
 285.8600
 11
1105.8600
 21
 280.0000
  0
LINE
  8
200
  6
AUSGEZOGEN
 10
1084.1400
 20
 280.0000
 11
1090.0000
 21
 285.8600
  0
LINE
  8
200
  6
AUSGEZOGEN
 10
1090.0000
 20
 294.1400
 11
1084.1400
 21
 300.0000
  0
LINE
  8
200
  6
AUSGEZOGEN
 10
1075.8600
 20
 300.0000
 11
1070.0000
 21
 294.1400
  0
LINE
  8
200
  6
AUSGEZOGEN
 10
1070.0000
 20
 285.8600
 11
1075.8600
 21
 280.0000
  0
LINE
  8
200
  6
AUSGEZOGEN
 10
1054.1400
 20
 280.0000
 11
1060.0000
 21
 285.8600
  0
LINE
  8
200
  6
AUSGEZOGEN
 10
1060.0000
 20
 294.1400
 11
1054.1400
 21
 300.0000
  0
LINE
  8
200
  6
AUSGEZOGEN
 10
1045.8600
 20
 300.0000
 11
1040.0000
 21
 294.1400
  0
LINE
  8
200
  6
AUSGEZOGEN
 10
1040.0000
 20
 285.8600
 11
1045.8600
 21
 280.0000
  0
LINE
  8
200
  6
AUSGEZOGEN
 10
1024.1400
 20
 280.0000
 11
1030.0000
 21
 285.8600
  0
LINE
  8
200
  6
AUSGEZOGEN
 10
1030.0000
 20
 294.1400
 11
1024.1400
 21
 300.0000
  0
LINE
  8
200
  6
AUSGEZOGEN
 10
1015.8600
 20
 300.0000
 11
1010.0000
 21
 294.1400
  0
LINE
  8
200
  6
AUSGEZOGEN
 10
1010.0000
 20
 285.8600
 11
1015.8600
 21
 280.0000
  0
LINE
  8
200
  6
AUSGEZOGEN
 10
 994.1400
 20
 280.0000
 11
1000.0000
 21
 285.8600
  0
LINE
  8
200
  6
AUSGEZOGEN
 10
1000.0000
 20
 294.1400
 11
 994.1400
 21
 300.0000
  0
LINE
  8
200
  6
AUSGEZOGEN
 10
 985.8600
 20
 300.0000
 11
 980.0000
 21
 294.1400
  0
LINE
  8
200
  6
AUSGEZOGEN
 10
 980.0000
 20
 285.8600
 11
 985.8600
 21
 280.0000
  0
LINE
  8
200
  6
AUSGEZOGEN
 10
 964.1400
 20
 280.0000
 11
 970.0000
 21
 285.8600
  0
LINE
  8
200
  6
AUSGEZOGEN
 10
 970.0000
 20
 294.1400
 11
 964.1400
 21
 300.0000
  0
LINE
  8
200
  6
AUSGEZOGEN
 10
 955.8600
 20
 300.0000
 11
 950.0000
 21
 294.1400
  0
LINE
  8
200
  6
AUSGEZOGEN
 10
 950.0000
 20
 285.8600
 11
 955.8600
 21
 280.0000
  0
LINE
  8
200
  6
AUSGEZOGEN
 10
1420.0000
 20
 315.8600
 11
1414.1400
 21
 310.0000
  0
LINE
  8
200
  6
AUSGEZOGEN
 10
1414.1400
 20
 330.0000
 11
1420.0000
 21
 324.1400
  0
LINE
  8
200
  6
AUSGEZOGEN
 10
1400.0000
 20
 324.1400
 11
1405.8600
 21
 330.0000
  0
LINE
  8
200
  6
AUSGEZOGEN
 10
1405.8600
 20
 310.0000
 11
1400.0000
 21
 315.8600
  0
LINE
  8
200
  6
AUSGEZOGEN
 10
1384.1400
 20
 310.0000
 11
1390.0000
 21
 315.8600
  0
LINE
  8
200
  6
AUSGEZOGEN
 10
1390.0000
 20
 324.1400
 11
1384.1400
 21
 330.0000
  0
LINE
  8
200
  6
AUSGEZOGEN
 10
1375.8600
 20
 330.0000
 11
1370.0000
 21
 324.1400
  0
LINE
  8
200
  6
AUSGEZOGEN
 10
1370.0000
 20
 315.8600
 11
1375.8600
 21
 310.0000
  0
LINE
  8
200
  6
AUSGEZOGEN
 10
1354.1400
 20
 310.0000
 11
1360.0000
 21
 315.8600
  0
LINE
  8
200
  6
AUSGEZOGEN
 10
1360.0000
 20
 324.1400
 11
1354.1400
 21
 330.0000
  0
LINE
  8
200
  6
AUSGEZOGEN
 10
1345.8600
 20
 330.0000
 11
1340.0000
 21
 324.1400
  0
LINE
  8
200
  6
AUSGEZOGEN
 10
1340.0000
 20
 315.8600
 11
1345.8600
 21
 310.0000
  0
LINE
  8
200
  6
AUSGEZOGEN
 10
1324.1400
 20
 310.0000
 11
1330.0000
 21
 315.8600
  0
LINE
  8
200
  6
AUSGEZOGEN
 10
1330.0000
 20
 324.1400
 11
1324.1400
 21
 330.0000
  0
LINE
  8
200
  6
AUSGEZOGEN
 10
1315.8600
 20
 330.0000
 11
1310.0000
 21
 324.1400
  0
LINE
  8
200
  6
AUSGEZOGEN
 10
1310.0000
 20
 315.8600
 11
1315.8600
 21
 310.0000
  0
LINE
  8
200
  6
AUSGEZOGEN
 10
1294.1400
 20
 310.0000
 11
1300.0000
 21
 315.8600
  0
LINE
  8
200
  6
AUSGEZOGEN
 10
1300.0000
 20
 324.1400
 11
1294.1400
 21
 330.0000
  0
LINE
  8
200
  6
AUSGEZOGEN
 10
1285.8600
 20
 330.0000
 11
1280.0000
 21
 324.1400
  0
LINE
  8
200
  6
AUSGEZOGEN
 10
1280.0000
 20
 315.8600
 11
1285.8600
 21
 310.0000
  0
LINE
  8
200
  6
AUSGEZOGEN
 10
1264.1400
 20
 310.0000
 11
1270.0000
 21
 315.8600
  0
LINE
  8
200
  6
AUSGEZOGEN
 10
1270.0000
 20
 324.1400
 11
1264.1400
 21
 330.0000
  0
LINE
  8
200
  6
AUSGEZOGEN
 10
1255.8600
 20
 330.0000
 11
1250.0000
 21
 324.1400
  0
LINE
  8
200
  6
AUSGEZOGEN
 10
1250.0000
 20
 315.8600
 11
1255.8600
 21
 310.0000
  0
LINE
  8
200
  6
AUSGEZOGEN
 10
1234.1400
 20
 310.0000
 11
1240.0000
 21
 315.8600
  0
LINE
  8
200
  6
AUSGEZOGEN
 10
1240.0000
 20
 324.1400
 11
1234.1400
 21
 330.0000
  0
LINE
  8
200
  6
AUSGEZOGEN
 10
1225.8600
 20
 330.0000
 11
1220.0000
 21
 324.1400
  0
LINE
  8
200
  6
AUSGEZOGEN
 10
1220.0000
 20
 315.8600
 11
1225.8600
 21
 310.0000
  0
LINE
  8
200
  6
AUSGEZOGEN
 10
1204.1400
 20
 310.0000
 11
1210.0000
 21
 315.8600
  0
LINE
  8
200
  6
AUSGEZOGEN
 10
1210.0000
 20
 324.1400
 11
1204.1400
 21
 330.0000
  0
LINE
  8
200
  6
AUSGEZOGEN
 10
1195.8600
 20
 330.0000
 11
1190.0000
 21
 324.1400
  0
LINE
  8
200
  6
AUSGEZOGEN
 10
1190.0000
 20
 315.8600
 11
1195.8600
 21
 310.0000
  0
LINE
  8
200
  6
AUSGEZOGEN
 10
1174.1400
 20
 310.0000
 11
1180.0000
 21
 315.8600
  0
LINE
  8
200
  6
AUSGEZOGEN
 10
1180.0000
 20
 324.1400
 11
1174.1400
 21
 330.0000
  0
LINE
  8
200
  6
AUSGEZOGEN
 10
1165.8600
 20
 330.0000
 11
1160.0000
 21
 324.1400
  0
LINE
  8
200
  6
AUSGEZOGEN
 10
1160.0000
 20
 315.8600
 11
1165.8600
 21
 310.0000
  0
LINE
  8
200
  6
AUSGEZOGEN
 10
1144.1400
 20
 310.0000
 11
1150.0000
 21
 315.8600
  0
LINE
  8
200
  6
AUSGEZOGEN
 10
1150.0000
 20
 324.1400
 11
1144.1400
 21
 330.0000
  0
LINE
  8
200
  6
AUSGEZOGEN
 10
1135.8600
 20
 330.0000
 11
1130.0000
 21
 324.1400
  0
LINE
  8
200
  6
AUSGEZOGEN
 10
1130.0000
 20
 315.8600
 11
1135.8600
 21
 310.0000
  0
LINE
  8
200
  6
AUSGEZOGEN
 10
1114.1400
 20
 310.0000
 11
1120.0000
 21
 315.8600
  0
LINE
  8
200
  6
AUSGEZOGEN
 10
1120.0000
 20
 324.1400
 11
1114.1400
 21
 330.0000
  0
LINE
  8
200
  6
AUSGEZOGEN
 10
1105.8600
 20
 330.0000
 11
1100.0000
 21
 324.1400
  0
LINE
  8
200
  6
AUSGEZOGEN
 10
1100.0000
 20
 315.8600
 11
1105.8600
 21
 310.0000
  0
LINE
  8
200
  6
AUSGEZOGEN
 10
1084.1400
 20
 310.0000
 11
1090.0000
 21
 315.8600
  0
LINE
  8
200
  6
AUSGEZOGEN
 10
1090.0000
 20
 324.1400
 11
1084.1400
 21
 330.0000
  0
LINE
  8
200
  6
AUSGEZOGEN
 10
1075.8600
 20
 330.0000
 11
1070.0000
 21
 324.1400
  0
LINE
  8
200
  6
AUSGEZOGEN
 10
1070.0000
 20
 315.8600
 11
1075.8600
 21
 310.0000
  0
LINE
  8
200
  6
AUSGEZOGEN
 10
1054.1400
 20
 310.0000
 11
1060.0000
 21
 315.8600
  0
LINE
  8
200
  6
AUSGEZOGEN
 10
1060.0000
 20
 324.1400
 11
1054.1400
 21
 330.0000
  0
LINE
  8
200
  6
AUSGEZOGEN
 10
1045.8600
 20
 330.0000
 11
1040.0000
 21
 324.1400
  0
LINE
  8
200
  6
AUSGEZOGEN
 10
1040.0000
 20
 315.8600
 11
1045.8600
 21
 310.0000
  0
LINE
  8
200
  6
AUSGEZOGEN
 10
1024.1400
 20
 330.0000
 11
1030.0000
 21
 324.1400
  0
LINE
  8
200
  6
AUSGEZOGEN
 10
1010.0000
 20
 324.1400
 11
1015.8600
 21
 330.0000
  0
LINE
  8
200
  6
AUSGEZOGEN
 10
1015.8600
 20
 310.0000
 11
1010.0000
 21
 315.8600
  0
LINE
  8
200
  6
AUSGEZOGEN
 10
 994.1400
 20
 310.0000
 11
1000.0000
 21
 315.8600
  0
LINE
  8
200
  6
AUSGEZOGEN
 10
1000.0000
 20
 324.1400
 11
 994.1400
 21
 330.0000
  0
LINE
  8
200
  6
AUSGEZOGEN
 10
 985.8600
 20
 330.0000
 11
 980.0000
 21
 324.1400
  0
LINE
  8
200
  6
AUSGEZOGEN
 10
 980.0000
 20
 315.8600
 11
 985.8600
 21
 310.0000
  0
LINE
  8
200
  6
AUSGEZOGEN
 10
 964.1400
 20
 310.0000
 11
 970.0000
 21
 315.8600
  0
LINE
  8
200
  6
AUSGEZOGEN
 10
 970.0000
 20
 324.1400
 11
 964.1400
 21
 330.0000
  0
LINE
  8
200
  6
AUSGEZOGEN
 10
 955.8600
 20
 330.0000
 11
 950.0000
 21
 324.1400
  0
LINE
  8
200
  6
AUSGEZOGEN
 10
 950.0000
 20
 315.8600
 11
 955.8600
 21
 310.0000
  0
LINE
  8
200
  6
AUSGEZOGEN
 10
1444.1400
 20
 250.0000
 11
1450.0000
 21
 255.8600
  0
LINE
  8
200
  6
AUSGEZOGEN
 10
1450.0000
 20
 264.1400
 11
1444.1400
 21
 270.0000
  0
LINE
  8
200
  6
AUSGEZOGEN
 10
1435.8600
 20
 270.0000
 11
1430.0000
 21
 264.1400
  0
LINE
  8
200
  6
AUSGEZOGEN
 10
1430.0000
 20
 255.8600
 11
1435.8600
 21
 250.0000
  0
LINE
  8
200
  6
AUSGEZOGEN
 10
1444.1400
 20
 220.0000
 11
1450.0000
 21
 225.8600
  0
LINE
  8
200
  6
AUSGEZOGEN
 10
1450.0000
 20
 234.1400
 11
1444.1400
 21
 240.0000
  0
LINE
  8
200
  6
AUSGEZOGEN
 10
1435.8600
 20
 240.0000
 11
1430.0000
 21
 234.1400
  0
LINE
  8
200
  6
AUSGEZOGEN
 10
1430.0000
 20
 225.8600
 11
1435.8600
 21
 220.0000
  0
LINE
  8
200
  6
AUSGEZOGEN
 10
1444.1400
 20
 190.0000
 11
1450.0000
 21
 195.8600
  0
LINE
  8
200
  6
AUSGEZOGEN
 10
1450.0000
 20
 204.1400
 11
1444.1400
 21
 210.0000
  0
LINE
  8
200
  6
AUSGEZOGEN
 10
1435.8600
 20
 210.0000
 11
1430.0000
 21
 204.1400
  0
LINE
  8
200
  6
AUSGEZOGEN
 10
1430.0000
 20
 195.8600
 11
1435.8600
 21
 190.0000
  0
LINE
  8
200
  6
AUSGEZOGEN
 10
1444.1400
 20
 160.0000
 11
1450.0000
 21
 165.8600
  0
LINE
  8
200
  6
AUSGEZOGEN
 10
1450.0000
 20
 174.1400
 11
1444.1400
 21
 180.0000
  0
LINE
  8
200
  6
AUSGEZOGEN
 10
1435.8600
 20
 180.0000
 11
1430.0000
 21
 174.1400
  0
LINE
  8
200
  6
AUSGEZOGEN
 10
1430.0000
 20
 165.8600
 11
1435.8600
 21
 160.0000
  0
LINE
  8
200
  6
AUSGEZOGEN
 10
1444.1400
 20
 130.0000
 11
1450.0000
 21
 135.8600
  0
LINE
  8
200
  6
AUSGEZOGEN
 10
1450.0000
 20
 144.1400
 11
1444.1400
 21
 150.0000
  0
LINE
  8
200
  6
AUSGEZOGEN
 10
1435.8600
 20
 150.0000
 11
1430.0000
 21
 144.1400
  0
LINE
  8
200
  6
AUSGEZOGEN
 10
1430.0000
 20
 135.8600
 11
1435.8600
 21
 130.0000
  0
LINE
  8
200
  6
AUSGEZOGEN
 10
1444.1400
 20
 100.0000
 11
1450.0000
 21
 105.8600
  0
LINE
  8
200
  6
AUSGEZOGEN
 10
1450.0000
 20
 114.1400
 11
1444.1400
 21
 120.0000
  0
LINE
  8
200
  6
AUSGEZOGEN
 10
1435.8600
 20
 120.0000
 11
1430.0000
 21
 114.1400
  0
LINE
  8
200
  6
AUSGEZOGEN
 10
1430.0000
 20
 105.8600
 11
1435.8600
 21
 100.0000
  0
LINE
  8
200
  6
AUSGEZOGEN
 10
1450.0000
 20
 285.8600
 11
1444.1400
 21
 280.0000
  0
LINE
  8
200
  6
AUSGEZOGEN
 10
1444.1400
 20
 300.0000
 11
1450.0000
 21
 294.1400
  0
LINE
  8
200
  6
AUSGEZOGEN
 10
1430.0000
 20
 294.1400
 11
1435.8600
 21
 300.0000
  0
LINE
  8
200
  6
AUSGEZOGEN
 10
1435.8600
 20
 280.0000
 11
1430.0000
 21
 285.8600
  0
LINE
  8
200
  6
AUSGEZOGEN
 10
1450.0000
 20
 315.8600
 11
1444.1400
 21
 310.0000
  0
LINE
  8
200
  6
AUSGEZOGEN
 10
1444.1400
 20
 330.0000
 11
1450.0000
 21
 324.1400
  0
LINE
  8
200
  6
AUSGEZOGEN
 10
1430.0000
 20
 324.1400
 11
1435.8600
 21
 330.0000
  0
LINE
  8
200
  6
AUSGEZOGEN
 10
1435.8600
 20
 310.0000
 11
1430.0000
 21
 315.8600
  0
LINE
  8
200
  6
AUSGEZOGEN
 10
1450.0000
 20
 345.8600
 11
1444.1400
 21
 340.0000
  0
LINE
  8
200
  6
AUSGEZOGEN
 10
1444.1400
 20
 360.0000
 11
1450.0000
 21
 354.1400
  0
LINE
  8
200
  6
AUSGEZOGEN
 10
1430.0000
 20
 354.1400
 11
1435.8600
 21
 360.0000
  0
LINE
  8
200
  6
AUSGEZOGEN
 10
1435.8600
 20
 340.0000
 11
1430.0000
 21
 345.8600
  0
LINE
  8
200
  6
AUSGEZOGEN
 10
1414.1400
 20
 340.0000
 11
1420.0000
 21
 345.8600
  0
LINE
  8
200
  6
AUSGEZOGEN
 10
1420.0000
 20
 354.1400
 11
1414.1400
 21
 360.0000
  0
LINE
  8
200
  6
AUSGEZOGEN
 10
1405.8600
 20
 360.0000
 11
1400.0000
 21
 354.1400
  0
LINE
  8
200
  6
AUSGEZOGEN
 10
1400.0000
 20
 345.8600
 11
1405.8600
 21
 340.0000
  0
LINE
  8
200
  6
AUSGEZOGEN
 10
1384.1400
 20
 340.0000
 11
1390.0000
 21
 345.8600
  0
LINE
  8
200
  6
AUSGEZOGEN
 10
1390.0000
 20
 354.1400
 11
1384.1400
 21
 360.0000
  0
LINE
  8
200
  6
AUSGEZOGEN
 10
1375.8600
 20
 360.0000
 11
1370.0000
 21
 354.1400
  0
LINE
  8
200
  6
AUSGEZOGEN
 10
1370.0000
 20
 345.8600
 11
1375.8600
 21
 340.0000
  0
LINE
  8
200
  6
AUSGEZOGEN
 10
1354.1400
 20
 340.0000
 11
1360.0000
 21
 345.8600
  0
LINE
  8
200
  6
AUSGEZOGEN
 10
1360.0000
 20
 354.1400
 11
1354.1400
 21
 360.0000
  0
LINE
  8
200
  6
AUSGEZOGEN
 10
1345.8600
 20
 360.0000
 11
1340.0000
 21
 354.1400
  0
LINE
  8
200
  6
AUSGEZOGEN
 10
1340.0000
 20
 345.8600
 11
1345.8600
 21
 340.0000
  0
LINE
  8
200
  6
AUSGEZOGEN
 10
1324.1400
 20
 340.0000
 11
1330.0000
 21
 345.8600
  0
LINE
  8
200
  6
AUSGEZOGEN
 10
1330.0000
 20
 354.1400
 11
1324.1400
 21
 360.0000
  0
LINE
  8
200
  6
AUSGEZOGEN
 10
1315.8600
 20
 360.0000
 11
1310.0000
 21
 354.1400
  0
LINE
  8
200
  6
AUSGEZOGEN
 10
1310.0000
 20
 345.8600
 11
1315.8600
 21
 340.0000
  0
LINE
  8
200
  6
AUSGEZOGEN
 10
1294.1400
 20
 340.0000
 11
1300.0000
 21
 345.8600
  0
LINE
  8
200
  6
AUSGEZOGEN
 10
1300.0000
 20
 354.1400
 11
1294.1400
 21
 360.0000
  0
LINE
  8
200
  6
AUSGEZOGEN
 10
1285.8600
 20
 360.0000
 11
1280.0000
 21
 354.1400
  0
LINE
  8
200
  6
AUSGEZOGEN
 10
1280.0000
 20
 345.8600
 11
1285.8600
 21
 340.0000
  0
LINE
  8
200
  6
AUSGEZOGEN
 10
1264.1400
 20
 340.0000
 11
1270.0000
 21
 345.8600
  0
LINE
  8
200
  6
AUSGEZOGEN
 10
1270.0000
 20
 354.1400
 11
1264.1400
 21
 360.0000
  0
LINE
  8
200
  6
AUSGEZOGEN
 10
1255.8600
 20
 360.0000
 11
1250.0000
 21
 354.1400
  0
LINE
  8
200
  6
AUSGEZOGEN
 10
1250.0000
 20
 345.8600
 11
1255.8600
 21
 340.0000
  0
LINE
  8
200
  6
AUSGEZOGEN
 10
1234.1400
 20
 340.0000
 11
1240.0000
 21
 345.8600
  0
LINE
  8
200
  6
AUSGEZOGEN
 10
1240.0000
 20
 354.1400
 11
1234.1400
 21
 360.0000
  0
LINE
  8
200
  6
AUSGEZOGEN
 10
1225.8600
 20
 360.0000
 11
1220.0000
 21
 354.1400
  0
LINE
  8
200
  6
AUSGEZOGEN
 10
1220.0000
 20
 345.8600
 11
1225.8600
 21
 340.0000
  0
LINE
  8
200
  6
AUSGEZOGEN
 10
1204.1400
 20
 340.0000
 11
1210.0000
 21
 345.8600
  0
LINE
  8
200
  6
AUSGEZOGEN
 10
1210.0000
 20
 354.1400
 11
1204.1400
 21
 360.0000
  0
LINE
  8
200
  6
AUSGEZOGEN
 10
1195.8600
 20
 360.0000
 11
1190.0000
 21
 354.1400
  0
LINE
  8
200
  6
AUSGEZOGEN
 10
1190.0000
 20
 345.8600
 11
1195.8600
 21
 340.0000
  0
LINE
  8
200
  6
AUSGEZOGEN
 10
1174.1400
 20
 340.0000
 11
1180.0000
 21
 345.8600
  0
LINE
  8
200
  6
AUSGEZOGEN
 10
1180.0000
 20
 354.1400
 11
1174.1400
 21
 360.0000
  0
LINE
  8
200
  6
AUSGEZOGEN
 10
1165.8600
 20
 360.0000
 11
1160.0000
 21
 354.1400
  0
LINE
  8
200
  6
AUSGEZOGEN
 10
1160.0000
 20
 345.8600
 11
1165.8600
 21
 340.0000
  0
LINE
  8
200
  6
AUSGEZOGEN
 10
1144.1400
 20
 340.0000
 11
1150.0000
 21
 345.8600
  0
LINE
  8
200
  6
AUSGEZOGEN
 10
1150.0000
 20
 354.1400
 11
1144.1400
 21
 360.0000
  0
LINE
  8
200
  6
AUSGEZOGEN
 10
1135.8600
 20
 360.0000
 11
1130.0000
 21
 354.1400
  0
LINE
  8
200
  6
AUSGEZOGEN
 10
1130.0000
 20
 345.8600
 11
1135.8600
 21
 340.0000
  0
LINE
  8
200
  6
AUSGEZOGEN
 10
1114.1400
 20
 340.0000
 11
1120.0000
 21
 345.8600
  0
LINE
  8
200
  6
AUSGEZOGEN
 10
1120.0000
 20
 354.1400
 11
1114.1400
 21
 360.0000
  0
LINE
  8
200
  6
AUSGEZOGEN
 10
1105.8600
 20
 360.0000
 11
1100.0000
 21
 354.1400
  0
LINE
  8
200
  6
AUSGEZOGEN
 10
1100.0000
 20
 345.8600
 11
1105.8600
 21
 340.0000
  0
LINE
  8
200
  6
AUSGEZOGEN
 10
1084.1400
 20
 340.0000
 11
1090.0000
 21
 345.8600
  0
LINE
  8
200
  6
AUSGEZOGEN
 10
1090.0000
 20
 354.1400
 11
1084.1400
 21
 360.0000
  0
LINE
  8
200
  6
AUSGEZOGEN
 10
1075.8600
 20
 360.0000
 11
1070.0000
 21
 354.1400
  0
LINE
  8
200
  6
AUSGEZOGEN
 10
1070.0000
 20
 345.8600
 11
1075.8600
 21
 340.0000
  0
LINE
  8
200
  6
AUSGEZOGEN
 10
1054.1400
 20
 340.0000
 11
1060.0000
 21
 345.8600
  0
LINE
  8
200
  6
AUSGEZOGEN
 10
1060.0000
 20
 354.1400
 11
1054.1400
 21
 360.0000
  0
LINE
  8
200
  6
AUSGEZOGEN
 10
1045.8600
 20
 360.0000
 11
1040.0000
 21
 354.1400
  0
LINE
  8
200
  6
AUSGEZOGEN
 10
1040.0000
 20
 345.8600
 11
1045.8600
 21
 340.0000
  0
LINE
  8
200
  6
AUSGEZOGEN
 10
1024.1400
 20
 340.0000
 11
1030.0000
 21
 345.8600
  0
LINE
  8
200
  6
AUSGEZOGEN
 10
1030.0000
 20
 354.1400
 11
1024.1400
 21
 360.0000
  0
LINE
  8
200
  6
AUSGEZOGEN
 10
1015.8600
 20
 360.0000
 11
1010.0000
 21
 354.1400
  0
LINE
  8
200
  6
AUSGEZOGEN
 10
1010.0000
 20
 345.8600
 11
1015.8600
 21
 340.0000
  0
LINE
  8
200
  6
AUSGEZOGEN
 10
 994.1400
 20
 340.0000
 11
1000.0000
 21
 345.8600
  0
LINE
  8
200
  6
AUSGEZOGEN
 10
1000.0000
 20
 354.1400
 11
 994.1400
 21
 360.0000
  0
LINE
  8
200
  6
AUSGEZOGEN
 10
 985.8600
 20
 360.0000
 11
 980.0000
 21
 354.1400
  0
LINE
  8
200
  6
AUSGEZOGEN
 10
 980.0000
 20
 345.8600
 11
 985.8600
 21
 340.0000
  0
LINE
  8
200
  6
AUSGEZOGEN
 10
 964.1400
 20
 340.0000
 11
 970.0000
 21
 345.8600
  0
LINE
  8
200
  6
AUSGEZOGEN
 10
 970.0000
 20
 354.1400
 11
 964.1400
 21
 360.0000
  0
LINE
  8
200
  6
AUSGEZOGEN
 10
 955.8600
 20
 360.0000
 11
 950.0000
 21
 354.1400
  0
LINE
  8
200
  6
AUSGEZOGEN
 10
 950.0000
 20
 345.8600
 11
 955.8600
 21
 340.0000
  0
LINE
  8
200
  6
AUSGEZOGEN
 10
1024.1400
 20
 310.0000
 11
1030.0000
 21
 315.8600
  0
LINE
  8
200
  6
AUSGEZOGEN
 10
1954.1400
 20
 250.0000
 11
1960.0000
 21
 255.8600
  0
LINE
  8
200
  6
AUSGEZOGEN
 10
1960.0000
 20
 264.1400
 11
1954.1400
 21
 270.0000
  0
LINE
  8
200
  6
AUSGEZOGEN
 10
1945.8600
 20
 270.0000
 11
1940.0000
 21
 264.1400
  0
LINE
  8
200
  6
AUSGEZOGEN
 10
1940.0000
 20
 255.8600
 11
1945.8600
 21
 250.0000
  0
LINE
  8
200
  6
AUSGEZOGEN
 10
1924.1400
 20
 250.0000
 11
1930.0000
 21
 255.8600
  0
LINE
  8
200
  6
AUSGEZOGEN
 10
1930.0000
 20
 264.1400
 11
1924.1400
 21
 270.0000
  0
LINE
  8
200
  6
AUSGEZOGEN
 10
1915.8600
 20
 270.0000
 11
1910.0000
 21
 264.1400
  0
LINE
  8
200
  6
AUSGEZOGEN
 10
1910.0000
 20
 255.8600
 11
1915.8600
 21
 250.0000
  0
LINE
  8
200
  6
AUSGEZOGEN
 10
1894.1400
 20
 250.0000
 11
1900.0000
 21
 255.8600
  0
LINE
  8
200
  6
AUSGEZOGEN
 10
1900.0000
 20
 264.1400
 11
1894.1400
 21
 270.0000
  0
LINE
  8
200
  6
AUSGEZOGEN
 10
1885.8600
 20
 270.0000
 11
1880.0000
 21
 264.1400
  0
LINE
  8
200
  6
AUSGEZOGEN
 10
1880.0000
 20
 255.8600
 11
1885.8600
 21
 250.0000
  0
LINE
  8
200
  6
AUSGEZOGEN
 10
1864.1400
 20
 250.0000
 11
1870.0000
 21
 255.8600
  0
LINE
  8
200
  6
AUSGEZOGEN
 10
1870.0000
 20
 264.1400
 11
1864.1400
 21
 270.0000
  0
LINE
  8
200
  6
AUSGEZOGEN
 10
1855.8600
 20
 270.0000
 11
1850.0000
 21
 264.1400
  0
LINE
  8
200
  6
AUSGEZOGEN
 10
1850.0000
 20
 255.8600
 11
1855.8600
 21
 250.0000
  0
LINE
  8
200
  6
AUSGEZOGEN
 10
1834.1400
 20
 250.0000
 11
1840.0000
 21
 255.8600
  0
LINE
  8
200
  6
AUSGEZOGEN
 10
1840.0000
 20
 264.1400
 11
1834.1400
 21
 270.0000
  0
LINE
  8
200
  6
AUSGEZOGEN
 10
1825.8600
 20
 270.0000
 11
1820.0000
 21
 264.1400
  0
LINE
  8
200
  6
AUSGEZOGEN
 10
1820.0000
 20
 255.8600
 11
1825.8600
 21
 250.0000
  0
LINE
  8
200
  6
AUSGEZOGEN
 10
1804.1400
 20
 250.0000
 11
1810.0000
 21
 255.8600
  0
LINE
  8
200
  6
AUSGEZOGEN
 10
1810.0000
 20
 264.1400
 11
1804.1400
 21
 270.0000
  0
LINE
  8
200
  6
AUSGEZOGEN
 10
1795.8600
 20
 270.0000
 11
1790.0000
 21
 264.1400
  0
LINE
  8
200
  6
AUSGEZOGEN
 10
1790.0000
 20
 255.8600
 11
1795.8600
 21
 250.0000
  0
LINE
  8
200
  6
AUSGEZOGEN
 10
1774.1400
 20
 250.0000
 11
1780.0000
 21
 255.8600
  0
LINE
  8
200
  6
AUSGEZOGEN
 10
1780.0000
 20
 264.1400
 11
1774.1400
 21
 270.0000
  0
LINE
  8
200
  6
AUSGEZOGEN
 10
1765.8600
 20
 270.0000
 11
1760.0000
 21
 264.1400
  0
LINE
  8
200
  6
AUSGEZOGEN
 10
1760.0000
 20
 255.8600
 11
1765.8600
 21
 250.0000
  0
LINE
  8
200
  6
AUSGEZOGEN
 10
1744.1400
 20
 250.0000
 11
1750.0000
 21
 255.8600
  0
LINE
  8
200
  6
AUSGEZOGEN
 10
1750.0000
 20
 264.1400
 11
1744.1400
 21
 270.0000
  0
LINE
  8
200
  6
AUSGEZOGEN
 10
1735.8600
 20
 270.0000
 11
1730.0000
 21
 264.1400
  0
LINE
  8
200
  6
AUSGEZOGEN
 10
1730.0000
 20
 255.8600
 11
1735.8600
 21
 250.0000
  0
LINE
  8
200
  6
AUSGEZOGEN
 10
1714.1400
 20
 250.0000
 11
1720.0000
 21
 255.8600
  0
LINE
  8
200
  6
AUSGEZOGEN
 10
1720.0000
 20
 264.1400
 11
1714.1400
 21
 270.0000
  0
LINE
  8
200
  6
AUSGEZOGEN
 10
1705.8600
 20
 270.0000
 11
1700.0000
 21
 264.1400
  0
LINE
  8
200
  6
AUSGEZOGEN
 10
1700.0000
 20
 255.8600
 11
1705.8600
 21
 250.0000
  0
LINE
  8
200
  6
AUSGEZOGEN
 10
1684.1400
 20
 250.0000
 11
1690.0000
 21
 255.8600
  0
LINE
  8
200
  6
AUSGEZOGEN
 10
1690.0000
 20
 264.1400
 11
1684.1400
 21
 270.0000
  0
LINE
  8
200
  6
AUSGEZOGEN
 10
1675.8600
 20
 270.0000
 11
1670.0000
 21
 264.1400
  0
LINE
  8
200
  6
AUSGEZOGEN
 10
1670.0000
 20
 255.8600
 11
1675.8600
 21
 250.0000
  0
LINE
  8
200
  6
AUSGEZOGEN
 10
1654.1400
 20
 250.0000
 11
1660.0000
 21
 255.8600
  0
LINE
  8
200
  6
AUSGEZOGEN
 10
1660.0000
 20
 264.1400
 11
1654.1400
 21
 270.0000
  0
LINE
  8
200
  6
AUSGEZOGEN
 10
1645.8600
 20
 270.0000
 11
1640.0000
 21
 264.1400
  0
LINE
  8
200
  6
AUSGEZOGEN
 10
1640.0000
 20
 255.8600
 11
1645.8600
 21
 250.0000
  0
LINE
  8
200
  6
AUSGEZOGEN
 10
1624.1400
 20
 250.0000
 11
1630.0000
 21
 255.8600
  0
LINE
  8
200
  6
AUSGEZOGEN
 10
1630.0000
 20
 264.1400
 11
1624.1400
 21
 270.0000
  0
LINE
  8
200
  6
AUSGEZOGEN
 10
1615.8600
 20
 270.0000
 11
1610.0000
 21
 264.1400
  0
LINE
  8
200
  6
AUSGEZOGEN
 10
1610.0000
 20
 255.8600
 11
1615.8600
 21
 250.0000
  0
LINE
  8
200
  6
AUSGEZOGEN
 10
1594.1400
 20
 250.0000
 11
1600.0000
 21
 255.8600
  0
LINE
  8
200
  6
AUSGEZOGEN
 10
1600.0000
 20
 264.1400
 11
1594.1400
 21
 270.0000
  0
LINE
  8
200
  6
AUSGEZOGEN
 10
1585.8600
 20
 270.0000
 11
1580.0000
 21
 264.1400
  0
LINE
  8
200
  6
AUSGEZOGEN
 10
1580.0000
 20
 255.8600
 11
1585.8600
 21
 250.0000
  0
LINE
  8
200
  6
AUSGEZOGEN
 10
1564.1400
 20
 250.0000
 11
1570.0000
 21
 255.8600
  0
LINE
  8
200
  6
AUSGEZOGEN
 10
1570.0000
 20
 264.1400
 11
1564.1400
 21
 270.0000
  0
LINE
  8
200
  6
AUSGEZOGEN
 10
1555.8600
 20
 270.0000
 11
1550.0000
 21
 264.1400
  0
LINE
  8
200
  6
AUSGEZOGEN
 10
1550.0000
 20
 255.8600
 11
1555.8600
 21
 250.0000
  0
LINE
  8
200
  6
AUSGEZOGEN
 10
1534.1400
 20
 250.0000
 11
1540.0000
 21
 255.8600
  0
LINE
  8
200
  6
AUSGEZOGEN
 10
1540.0000
 20
 264.1400
 11
1534.1400
 21
 270.0000
  0
LINE
  8
200
  6
AUSGEZOGEN
 10
1525.8600
 20
 270.0000
 11
1520.0000
 21
 264.1400
  0
LINE
  8
200
  6
AUSGEZOGEN
 10
1520.0000
 20
 255.8600
 11
1525.8600
 21
 250.0000
  0
LINE
  8
200
  6
AUSGEZOGEN
 10
1504.1400
 20
 250.0000
 11
1510.0000
 21
 255.8600
  0
LINE
  8
200
  6
AUSGEZOGEN
 10
1510.0000
 20
 264.1400
 11
1504.1400
 21
 270.0000
  0
LINE
  8
200
  6
AUSGEZOGEN
 10
1495.8600
 20
 270.0000
 11
1490.0000
 21
 264.1400
  0
LINE
  8
200
  6
AUSGEZOGEN
 10
1490.0000
 20
 255.8600
 11
1495.8600
 21
 250.0000
  0
LINE
  8
200
  6
AUSGEZOGEN
 10
1954.1400
 20
 220.0000
 11
1960.0000
 21
 225.8600
  0
LINE
  8
200
  6
AUSGEZOGEN
 10
1960.0000
 20
 234.1400
 11
1954.1400
 21
 240.0000
  0
LINE
  8
200
  6
AUSGEZOGEN
 10
1945.8600
 20
 240.0000
 11
1940.0000
 21
 234.1400
  0
LINE
  8
200
  6
AUSGEZOGEN
 10
1940.0000
 20
 225.8600
 11
1945.8600
 21
 220.0000
  0
LINE
  8
200
  6
AUSGEZOGEN
 10
1924.1400
 20
 220.0000
 11
1930.0000
 21
 225.8600
  0
LINE
  8
200
  6
AUSGEZOGEN
 10
1930.0000
 20
 234.1400
 11
1924.1400
 21
 240.0000
  0
LINE
  8
200
  6
AUSGEZOGEN
 10
1915.8600
 20
 240.0000
 11
1910.0000
 21
 234.1400
  0
LINE
  8
200
  6
AUSGEZOGEN
 10
1910.0000
 20
 225.8600
 11
1915.8600
 21
 220.0000
  0
LINE
  8
200
  6
AUSGEZOGEN
 10
1894.1400
 20
 220.0000
 11
1900.0000
 21
 225.8600
  0
LINE
  8
200
  6
AUSGEZOGEN
 10
1900.0000
 20
 234.1400
 11
1894.1400
 21
 240.0000
  0
LINE
  8
200
  6
AUSGEZOGEN
 10
1885.8600
 20
 240.0000
 11
1880.0000
 21
 234.1400
  0
LINE
  8
200
  6
AUSGEZOGEN
 10
1880.0000
 20
 225.8600
 11
1885.8600
 21
 220.0000
  0
LINE
  8
200
  6
AUSGEZOGEN
 10
1864.1400
 20
 220.0000
 11
1870.0000
 21
 225.8600
  0
LINE
  8
200
  6
AUSGEZOGEN
 10
1870.0000
 20
 234.1400
 11
1864.1400
 21
 240.0000
  0
LINE
  8
200
  6
AUSGEZOGEN
 10
1855.8600
 20
 240.0000
 11
1850.0000
 21
 234.1400
  0
LINE
  8
200
  6
AUSGEZOGEN
 10
1850.0000
 20
 225.8600
 11
1855.8600
 21
 220.0000
  0
LINE
  8
200
  6
AUSGEZOGEN
 10
1834.1400
 20
 220.0000
 11
1840.0000
 21
 225.8600
  0
LINE
  8
200
  6
AUSGEZOGEN
 10
1840.0000
 20
 234.1400
 11
1834.1400
 21
 240.0000
  0
LINE
  8
200
  6
AUSGEZOGEN
 10
1825.8600
 20
 240.0000
 11
1820.0000
 21
 234.1400
  0
LINE
  8
200
  6
AUSGEZOGEN
 10
1820.0000
 20
 225.8600
 11
1825.8600
 21
 220.0000
  0
LINE
  8
200
  6
AUSGEZOGEN
 10
1804.1400
 20
 220.0000
 11
1810.0000
 21
 225.8600
  0
LINE
  8
200
  6
AUSGEZOGEN
 10
1810.0000
 20
 234.1400
 11
1804.1400
 21
 240.0000
  0
LINE
  8
200
  6
AUSGEZOGEN
 10
1795.8600
 20
 240.0000
 11
1790.0000
 21
 234.1400
  0
LINE
  8
200
  6
AUSGEZOGEN
 10
1790.0000
 20
 225.8600
 11
1795.8600
 21
 220.0000
  0
LINE
  8
200
  6
AUSGEZOGEN
 10
1774.1400
 20
 220.0000
 11
1780.0000
 21
 225.8600
  0
LINE
  8
200
  6
AUSGEZOGEN
 10
1780.0000
 20
 234.1400
 11
1774.1400
 21
 240.0000
  0
LINE
  8
200
  6
AUSGEZOGEN
 10
1765.8600
 20
 240.0000
 11
1760.0000
 21
 234.1400
  0
LINE
  8
200
  6
AUSGEZOGEN
 10
1760.0000
 20
 225.8600
 11
1765.8600
 21
 220.0000
  0
LINE
  8
200
  6
AUSGEZOGEN
 10
1744.1400
 20
 220.0000
 11
1750.0000
 21
 225.8600
  0
LINE
  8
200
  6
AUSGEZOGEN
 10
1750.0000
 20
 234.1400
 11
1744.1400
 21
 240.0000
  0
LINE
  8
200
  6
AUSGEZOGEN
 10
1735.8600
 20
 240.0000
 11
1730.0000
 21
 234.1400
  0
LINE
  8
200
  6
AUSGEZOGEN
 10
1730.0000
 20
 225.8600
 11
1735.8600
 21
 220.0000
  0
LINE
  8
200
  6
AUSGEZOGEN
 10
1714.1400
 20
 220.0000
 11
1720.0000
 21
 225.8600
  0
LINE
  8
200
  6
AUSGEZOGEN
 10
1720.0000
 20
 234.1400
 11
1714.1400
 21
 240.0000
  0
LINE
  8
200
  6
AUSGEZOGEN
 10
1705.8600
 20
 240.0000
 11
1700.0000
 21
 234.1400
  0
LINE
  8
200
  6
AUSGEZOGEN
 10
1700.0000
 20
 225.8600
 11
1705.8600
 21
 220.0000
  0
LINE
  8
200
  6
AUSGEZOGEN
 10
1684.1400
 20
 220.0000
 11
1690.0000
 21
 225.8600
  0
LINE
  8
200
  6
AUSGEZOGEN
 10
1690.0000
 20
 234.1400
 11
1684.1400
 21
 240.0000
  0
LINE
  8
200
  6
AUSGEZOGEN
 10
1675.8600
 20
 240.0000
 11
1670.0000
 21
 234.1400
  0
LINE
  8
200
  6
AUSGEZOGEN
 10
1670.0000
 20
 225.8600
 11
1675.8600
 21
 220.0000
  0
LINE
  8
200
  6
AUSGEZOGEN
 10
1654.1400
 20
 220.0000
 11
1660.0000
 21
 225.8600
  0
LINE
  8
200
  6
AUSGEZOGEN
 10
1660.0000
 20
 234.1400
 11
1654.1400
 21
 240.0000
  0
LINE
  8
200
  6
AUSGEZOGEN
 10
1645.8600
 20
 240.0000
 11
1640.0000
 21
 234.1400
  0
LINE
  8
200
  6
AUSGEZOGEN
 10
1640.0000
 20
 225.8600
 11
1645.8600
 21
 220.0000
  0
LINE
  8
200
  6
AUSGEZOGEN
 10
1624.1400
 20
 220.0000
 11
1630.0000
 21
 225.8600
  0
LINE
  8
200
  6
AUSGEZOGEN
 10
1630.0000
 20
 234.1400
 11
1624.1400
 21
 240.0000
  0
LINE
  8
200
  6
AUSGEZOGEN
 10
1615.8600
 20
 240.0000
 11
1610.0000
 21
 234.1400
  0
LINE
  8
200
  6
AUSGEZOGEN
 10
1610.0000
 20
 225.8600
 11
1615.8600
 21
 220.0000
  0
LINE
  8
200
  6
AUSGEZOGEN
 10
1594.1400
 20
 220.0000
 11
1600.0000
 21
 225.8600
  0
LINE
  8
200
  6
AUSGEZOGEN
 10
1600.0000
 20
 234.1400
 11
1594.1400
 21
 240.0000
  0
LINE
  8
200
  6
AUSGEZOGEN
 10
1585.8600
 20
 240.0000
 11
1580.0000
 21
 234.1400
  0
LINE
  8
200
  6
AUSGEZOGEN
 10
1580.0000
 20
 225.8600
 11
1585.8600
 21
 220.0000
  0
LINE
  8
200
  6
AUSGEZOGEN
 10
1564.1400
 20
 220.0000
 11
1570.0000
 21
 225.8600
  0
LINE
  8
200
  6
AUSGEZOGEN
 10
1570.0000
 20
 234.1400
 11
1564.1400
 21
 240.0000
  0
LINE
  8
200
  6
AUSGEZOGEN
 10
1555.8600
 20
 240.0000
 11
1550.0000
 21
 234.1400
  0
LINE
  8
200
  6
AUSGEZOGEN
 10
1550.0000
 20
 225.8600
 11
1555.8600
 21
 220.0000
  0
LINE
  8
200
  6
AUSGEZOGEN
 10
1534.1400
 20
 220.0000
 11
1540.0000
 21
 225.8600
  0
LINE
  8
200
  6
AUSGEZOGEN
 10
1540.0000
 20
 234.1400
 11
1534.1400
 21
 240.0000
  0
LINE
  8
200
  6
AUSGEZOGEN
 10
1525.8600
 20
 240.0000
 11
1520.0000
 21
 234.1400
  0
LINE
  8
200
  6
AUSGEZOGEN
 10
1520.0000
 20
 225.8600
 11
1525.8600
 21
 220.0000
  0
LINE
  8
200
  6
AUSGEZOGEN
 10
1504.1400
 20
 220.0000
 11
1510.0000
 21
 225.8600
  0
LINE
  8
200
  6
AUSGEZOGEN
 10
1510.0000
 20
 234.1400
 11
1504.1400
 21
 240.0000
  0
LINE
  8
200
  6
AUSGEZOGEN
 10
1495.8600
 20
 240.0000
 11
1490.0000
 21
 234.1400
  0
LINE
  8
200
  6
AUSGEZOGEN
 10
1490.0000
 20
 225.8600
 11
1495.8600
 21
 220.0000
  0
LINE
  8
200
  6
AUSGEZOGEN
 10
1954.1400
 20
 190.0000
 11
1960.0000
 21
 195.8600
  0
LINE
  8
200
  6
AUSGEZOGEN
 10
1960.0000
 20
 204.1400
 11
1954.1400
 21
 210.0000
  0
LINE
  8
200
  6
AUSGEZOGEN
 10
1945.8600
 20
 210.0000
 11
1940.0000
 21
 204.1400
  0
LINE
  8
200
  6
AUSGEZOGEN
 10
1940.0000
 20
 195.8600
 11
1945.8600
 21
 190.0000
  0
LINE
  8
200
  6
AUSGEZOGEN
 10
1924.1400
 20
 190.0000
 11
1930.0000
 21
 195.8600
  0
LINE
  8
200
  6
AUSGEZOGEN
 10
1930.0000
 20
 204.1400
 11
1924.1400
 21
 210.0000
  0
LINE
  8
200
  6
AUSGEZOGEN
 10
1915.8600
 20
 210.0000
 11
1910.0000
 21
 204.1400
  0
LINE
  8
200
  6
AUSGEZOGEN
 10
1910.0000
 20
 195.8600
 11
1915.8600
 21
 190.0000
  0
LINE
  8
200
  6
AUSGEZOGEN
 10
1894.1400
 20
 190.0000
 11
1900.0000
 21
 195.8600
  0
LINE
  8
200
  6
AUSGEZOGEN
 10
1900.0000
 20
 204.1400
 11
1894.1400
 21
 210.0000
  0
LINE
  8
200
  6
AUSGEZOGEN
 10
1885.8600
 20
 210.0000
 11
1880.0000
 21
 204.1400
  0
LINE
  8
200
  6
AUSGEZOGEN
 10
1880.0000
 20
 195.8600
 11
1885.8600
 21
 190.0000
  0
LINE
  8
200
  6
AUSGEZOGEN
 10
1864.1400
 20
 190.0000
 11
1870.0000
 21
 195.8600
  0
LINE
  8
200
  6
AUSGEZOGEN
 10
1870.0000
 20
 204.1400
 11
1864.1400
 21
 210.0000
  0
LINE
  8
200
  6
AUSGEZOGEN
 10
1855.8600
 20
 210.0000
 11
1850.0000
 21
 204.1400
  0
LINE
  8
200
  6
AUSGEZOGEN
 10
1850.0000
 20
 195.8600
 11
1855.8600
 21
 190.0000
  0
LINE
  8
200
  6
AUSGEZOGEN
 10
1834.1400
 20
 190.0000
 11
1840.0000
 21
 195.8600
  0
LINE
  8
200
  6
AUSGEZOGEN
 10
1840.0000
 20
 204.1400
 11
1834.1400
 21
 210.0000
  0
LINE
  8
200
  6
AUSGEZOGEN
 10
1825.8600
 20
 210.0000
 11
1820.0000
 21
 204.1400
  0
LINE
  8
200
  6
AUSGEZOGEN
 10
1820.0000
 20
 195.8600
 11
1825.8600
 21
 190.0000
  0
LINE
  8
200
  6
AUSGEZOGEN
 10
1804.1400
 20
 190.0000
 11
1810.0000
 21
 195.8600
  0
LINE
  8
200
  6
AUSGEZOGEN
 10
1810.0000
 20
 204.1400
 11
1804.1400
 21
 210.0000
  0
LINE
  8
200
  6
AUSGEZOGEN
 10
1795.8600
 20
 210.0000
 11
1790.0000
 21
 204.1400
  0
LINE
  8
200
  6
AUSGEZOGEN
 10
1790.0000
 20
 195.8600
 11
1795.8600
 21
 190.0000
  0
LINE
  8
200
  6
AUSGEZOGEN
 10
1774.1400
 20
 190.0000
 11
1780.0000
 21
 195.8600
  0
LINE
  8
200
  6
AUSGEZOGEN
 10
1780.0000
 20
 204.1400
 11
1774.1400
 21
 210.0000
  0
LINE
  8
200
  6
AUSGEZOGEN
 10
1765.8600
 20
 210.0000
 11
1760.0000
 21
 204.1400
  0
LINE
  8
200
  6
AUSGEZOGEN
 10
1760.0000
 20
 195.8600
 11
1765.8600
 21
 190.0000
  0
LINE
  8
200
  6
AUSGEZOGEN
 10
1744.1400
 20
 190.0000
 11
1750.0000
 21
 195.8600
  0
LINE
  8
200
  6
AUSGEZOGEN
 10
1750.0000
 20
 204.1400
 11
1744.1400
 21
 210.0000
  0
LINE
  8
200
  6
AUSGEZOGEN
 10
1735.8600
 20
 210.0000
 11
1730.0000
 21
 204.1400
  0
LINE
  8
200
  6
AUSGEZOGEN
 10
1730.0000
 20
 195.8600
 11
1735.8600
 21
 190.0000
  0
LINE
  8
200
  6
AUSGEZOGEN
 10
1714.1400
 20
 190.0000
 11
1720.0000
 21
 195.8600
  0
LINE
  8
200
  6
AUSGEZOGEN
 10
1720.0000
 20
 204.1400
 11
1714.1400
 21
 210.0000
  0
LINE
  8
200
  6
AUSGEZOGEN
 10
1705.8600
 20
 210.0000
 11
1700.0000
 21
 204.1400
  0
LINE
  8
200
  6
AUSGEZOGEN
 10
1700.0000
 20
 195.8600
 11
1705.8600
 21
 190.0000
  0
LINE
  8
200
  6
AUSGEZOGEN
 10
1684.1400
 20
 190.0000
 11
1690.0000
 21
 195.8600
  0
LINE
  8
200
  6
AUSGEZOGEN
 10
1690.0000
 20
 204.1400
 11
1684.1400
 21
 210.0000
  0
LINE
  8
200
  6
AUSGEZOGEN
 10
1675.8600
 20
 210.0000
 11
1670.0000
 21
 204.1400
  0
LINE
  8
200
  6
AUSGEZOGEN
 10
1670.0000
 20
 195.8600
 11
1675.8600
 21
 190.0000
  0
LINE
  8
200
  6
AUSGEZOGEN
 10
1654.1400
 20
 190.0000
 11
1660.0000
 21
 195.8600
  0
LINE
  8
200
  6
AUSGEZOGEN
 10
1660.0000
 20
 204.1400
 11
1654.1400
 21
 210.0000
  0
LINE
  8
200
  6
AUSGEZOGEN
 10
1645.8600
 20
 210.0000
 11
1640.0000
 21
 204.1400
  0
LINE
  8
200
  6
AUSGEZOGEN
 10
1640.0000
 20
 195.8600
 11
1645.8600
 21
 190.0000
  0
LINE
  8
200
  6
AUSGEZOGEN
 10
1624.1400
 20
 190.0000
 11
1630.0000
 21
 195.8600
  0
LINE
  8
200
  6
AUSGEZOGEN
 10
1630.0000
 20
 204.1400
 11
1624.1400
 21
 210.0000
  0
LINE
  8
200
  6
AUSGEZOGEN
 10
1615.8600
 20
 210.0000
 11
1610.0000
 21
 204.1400
  0
LINE
  8
200
  6
AUSGEZOGEN
 10
1610.0000
 20
 195.8600
 11
1615.8600
 21
 190.0000
  0
LINE
  8
200
  6
AUSGEZOGEN
 10
1594.1400
 20
 190.0000
 11
1600.0000
 21
 195.8600
  0
LINE
  8
200
  6
AUSGEZOGEN
 10
1600.0000
 20
 204.1400
 11
1594.1400
 21
 210.0000
  0
LINE
  8
200
  6
AUSGEZOGEN
 10
1585.8600
 20
 210.0000
 11
1580.0000
 21
 204.1400
  0
LINE
  8
200
  6
AUSGEZOGEN
 10
1580.0000
 20
 195.8600
 11
1585.8600
 21
 190.0000
  0
LINE
  8
200
  6
AUSGEZOGEN
 10
1564.1400
 20
 190.0000
 11
1570.0000
 21
 195.8600
  0
LINE
  8
200
  6
AUSGEZOGEN
 10
1570.0000
 20
 204.1400
 11
1564.1400
 21
 210.0000
  0
LINE
  8
200
  6
AUSGEZOGEN
 10
1555.8600
 20
 210.0000
 11
1550.0000
 21
 204.1400
  0
LINE
  8
200
  6
AUSGEZOGEN
 10
1550.0000
 20
 195.8600
 11
1555.8600
 21
 190.0000
  0
LINE
  8
200
  6
AUSGEZOGEN
 10
1534.1400
 20
 190.0000
 11
1540.0000
 21
 195.8600
  0
LINE
  8
200
  6
AUSGEZOGEN
 10
1540.0000
 20
 204.1400
 11
1534.1400
 21
 210.0000
  0
LINE
  8
200
  6
AUSGEZOGEN
 10
1525.8600
 20
 210.0000
 11
1520.0000
 21
 204.1400
  0
LINE
  8
200
  6
AUSGEZOGEN
 10
1520.0000
 20
 195.8600
 11
1525.8600
 21
 190.0000
  0
LINE
  8
200
  6
AUSGEZOGEN
 10
1504.1400
 20
 190.0000
 11
1510.0000
 21
 195.8600
  0
LINE
  8
200
  6
AUSGEZOGEN
 10
1510.0000
 20
 204.1400
 11
1504.1400
 21
 210.0000
  0
LINE
  8
200
  6
AUSGEZOGEN
 10
1495.8600
 20
 210.0000
 11
1490.0000
 21
 204.1400
  0
LINE
  8
200
  6
AUSGEZOGEN
 10
1490.0000
 20
 195.8600
 11
1495.8600
 21
 190.0000
  0
LINE
  8
200
  6
AUSGEZOGEN
 10
1954.1400
 20
 160.0000
 11
1960.0000
 21
 165.8600
  0
LINE
  8
200
  6
AUSGEZOGEN
 10
1960.0000
 20
 174.1400
 11
1954.1400
 21
 180.0000
  0
LINE
  8
200
  6
AUSGEZOGEN
 10
1945.8600
 20
 180.0000
 11
1940.0000
 21
 174.1400
  0
LINE
  8
200
  6
AUSGEZOGEN
 10
1940.0000
 20
 165.8600
 11
1945.8600
 21
 160.0000
  0
LINE
  8
200
  6
AUSGEZOGEN
 10
1924.1400
 20
 160.0000
 11
1930.0000
 21
 165.8600
  0
LINE
  8
200
  6
AUSGEZOGEN
 10
1930.0000
 20
 174.1400
 11
1924.1400
 21
 180.0000
  0
LINE
  8
200
  6
AUSGEZOGEN
 10
1915.8600
 20
 180.0000
 11
1910.0000
 21
 174.1400
  0
LINE
  8
200
  6
AUSGEZOGEN
 10
1910.0000
 20
 165.8600
 11
1915.8600
 21
 160.0000
  0
LINE
  8
200
  6
AUSGEZOGEN
 10
1894.1400
 20
 160.0000
 11
1900.0000
 21
 165.8600
  0
LINE
  8
200
  6
AUSGEZOGEN
 10
1900.0000
 20
 174.1400
 11
1894.1400
 21
 180.0000
  0
LINE
  8
200
  6
AUSGEZOGEN
 10
1885.8600
 20
 180.0000
 11
1880.0000
 21
 174.1400
  0
LINE
  8
200
  6
AUSGEZOGEN
 10
1880.0000
 20
 165.8600
 11
1885.8600
 21
 160.0000
  0
LINE
  8
200
  6
AUSGEZOGEN
 10
1864.1400
 20
 160.0000
 11
1870.0000
 21
 165.8600
  0
LINE
  8
200
  6
AUSGEZOGEN
 10
1870.0000
 20
 174.1400
 11
1864.1400
 21
 180.0000
  0
LINE
  8
200
  6
AUSGEZOGEN
 10
1855.8600
 20
 180.0000
 11
1850.0000
 21
 174.1400
  0
LINE
  8
200
  6
AUSGEZOGEN
 10
1850.0000
 20
 165.8600
 11
1855.8600
 21
 160.0000
  0
LINE
  8
200
  6
AUSGEZOGEN
 10
1834.1400
 20
 160.0000
 11
1840.0000
 21
 165.8600
  0
LINE
  8
200
  6
AUSGEZOGEN
 10
1840.0000
 20
 174.1400
 11
1834.1400
 21
 180.0000
  0
LINE
  8
200
  6
AUSGEZOGEN
 10
1825.8600
 20
 180.0000
 11
1820.0000
 21
 174.1400
  0
LINE
  8
200
  6
AUSGEZOGEN
 10
1820.0000
 20
 165.8600
 11
1825.8600
 21
 160.0000
  0
LINE
  8
200
  6
AUSGEZOGEN
 10
1804.1400
 20
 160.0000
 11
1810.0000
 21
 165.8600
  0
LINE
  8
200
  6
AUSGEZOGEN
 10
1810.0000
 20
 174.1400
 11
1804.1400
 21
 180.0000
  0
LINE
  8
200
  6
AUSGEZOGEN
 10
1795.8600
 20
 180.0000
 11
1790.0000
 21
 174.1400
  0
LINE
  8
200
  6
AUSGEZOGEN
 10
1790.0000
 20
 165.8600
 11
1795.8600
 21
 160.0000
  0
LINE
  8
200
  6
AUSGEZOGEN
 10
1774.1400
 20
 160.0000
 11
1780.0000
 21
 165.8600
  0
LINE
  8
200
  6
AUSGEZOGEN
 10
1780.0000
 20
 174.1400
 11
1774.1400
 21
 180.0000
  0
LINE
  8
200
  6
AUSGEZOGEN
 10
1765.8600
 20
 180.0000
 11
1760.0000
 21
 174.1400
  0
LINE
  8
200
  6
AUSGEZOGEN
 10
1760.0000
 20
 165.8600
 11
1765.8600
 21
 160.0000
  0
LINE
  8
200
  6
AUSGEZOGEN
 10
1744.1400
 20
 160.0000
 11
1750.0000
 21
 165.8600
  0
LINE
  8
200
  6
AUSGEZOGEN
 10
1750.0000
 20
 174.1400
 11
1744.1400
 21
 180.0000
  0
LINE
  8
200
  6
AUSGEZOGEN
 10
1735.8600
 20
 180.0000
 11
1730.0000
 21
 174.1400
  0
LINE
  8
200
  6
AUSGEZOGEN
 10
1730.0000
 20
 165.8600
 11
1735.8600
 21
 160.0000
  0
LINE
  8
200
  6
AUSGEZOGEN
 10
1714.1400
 20
 160.0000
 11
1720.0000
 21
 165.8600
  0
LINE
  8
200
  6
AUSGEZOGEN
 10
1720.0000
 20
 174.1400
 11
1714.1400
 21
 180.0000
  0
LINE
  8
200
  6
AUSGEZOGEN
 10
1705.8600
 20
 180.0000
 11
1700.0000
 21
 174.1400
  0
LINE
  8
200
  6
AUSGEZOGEN
 10
1700.0000
 20
 165.8600
 11
1705.8600
 21
 160.0000
  0
LINE
  8
200
  6
AUSGEZOGEN
 10
1684.1400
 20
 160.0000
 11
1690.0000
 21
 165.8600
  0
LINE
  8
200
  6
AUSGEZOGEN
 10
1690.0000
 20
 174.1400
 11
1684.1400
 21
 180.0000
  0
LINE
  8
200
  6
AUSGEZOGEN
 10
1675.8600
 20
 180.0000
 11
1670.0000
 21
 174.1400
  0
LINE
  8
200
  6
AUSGEZOGEN
 10
1670.0000
 20
 165.8600
 11
1675.8600
 21
 160.0000
  0
LINE
  8
200
  6
AUSGEZOGEN
 10
1654.1400
 20
 160.0000
 11
1660.0000
 21
 165.8600
  0
LINE
  8
200
  6
AUSGEZOGEN
 10
1660.0000
 20
 174.1400
 11
1654.1400
 21
 180.0000
  0
LINE
  8
200
  6
AUSGEZOGEN
 10
1645.8600
 20
 180.0000
 11
1640.0000
 21
 174.1400
  0
LINE
  8
200
  6
AUSGEZOGEN
 10
1640.0000
 20
 165.8600
 11
1645.8600
 21
 160.0000
  0
LINE
  8
200
  6
AUSGEZOGEN
 10
1624.1400
 20
 160.0000
 11
1630.0000
 21
 165.8600
  0
LINE
  8
200
  6
AUSGEZOGEN
 10
1630.0000
 20
 174.1400
 11
1624.1400
 21
 180.0000
  0
LINE
  8
200
  6
AUSGEZOGEN
 10
1615.8600
 20
 180.0000
 11
1610.0000
 21
 174.1400
  0
LINE
  8
200
  6
AUSGEZOGEN
 10
1610.0000
 20
 165.8600
 11
1615.8600
 21
 160.0000
  0
LINE
  8
200
  6
AUSGEZOGEN
 10
1594.1400
 20
 160.0000
 11
1600.0000
 21
 165.8600
  0
LINE
  8
200
  6
AUSGEZOGEN
 10
1600.0000
 20
 174.1400
 11
1594.1400
 21
 180.0000
  0
LINE
  8
200
  6
AUSGEZOGEN
 10
1585.8600
 20
 180.0000
 11
1580.0000
 21
 174.1400
  0
LINE
  8
200
  6
AUSGEZOGEN
 10
1580.0000
 20
 165.8600
 11
1585.8600
 21
 160.0000
  0
LINE
  8
200
  6
AUSGEZOGEN
 10
1564.1400
 20
 160.0000
 11
1570.0000
 21
 165.8600
  0
LINE
  8
200
  6
AUSGEZOGEN
 10
1570.0000
 20
 174.1400
 11
1564.1400
 21
 180.0000
  0
LINE
  8
200
  6
AUSGEZOGEN
 10
1555.8600
 20
 180.0000
 11
1550.0000
 21
 174.1400
  0
LINE
  8
200
  6
AUSGEZOGEN
 10
1550.0000
 20
 165.8600
 11
1555.8600
 21
 160.0000
  0
LINE
  8
200
  6
AUSGEZOGEN
 10
1534.1400
 20
 160.0000
 11
1540.0000
 21
 165.8600
  0
LINE
  8
200
  6
AUSGEZOGEN
 10
1540.0000
 20
 174.1400
 11
1534.1400
 21
 180.0000
  0
LINE
  8
200
  6
AUSGEZOGEN
 10
1525.8600
 20
 180.0000
 11
1520.0000
 21
 174.1400
  0
LINE
  8
200
  6
AUSGEZOGEN
 10
1520.0000
 20
 165.8600
 11
1525.8600
 21
 160.0000
  0
LINE
  8
200
  6
AUSGEZOGEN
 10
1504.1400
 20
 160.0000
 11
1510.0000
 21
 165.8600
  0
LINE
  8
200
  6
AUSGEZOGEN
 10
1510.0000
 20
 174.1400
 11
1504.1400
 21
 180.0000
  0
LINE
  8
200
  6
AUSGEZOGEN
 10
1495.8600
 20
 180.0000
 11
1490.0000
 21
 174.1400
  0
LINE
  8
200
  6
AUSGEZOGEN
 10
1490.0000
 20
 165.8600
 11
1495.8600
 21
 160.0000
  0
LINE
  8
200
  6
AUSGEZOGEN
 10
1954.1400
 20
 130.0000
 11
1960.0000
 21
 135.8600
  0
LINE
  8
200
  6
AUSGEZOGEN
 10
1960.0000
 20
 144.1400
 11
1954.1400
 21
 150.0000
  0
LINE
  8
200
  6
AUSGEZOGEN
 10
1945.8600
 20
 150.0000
 11
1940.0000
 21
 144.1400
  0
LINE
  8
200
  6
AUSGEZOGEN
 10
1940.0000
 20
 135.8600
 11
1945.8600
 21
 130.0000
  0
LINE
  8
200
  6
AUSGEZOGEN
 10
1924.1400
 20
 130.0000
 11
1930.0000
 21
 135.8600
  0
LINE
  8
200
  6
AUSGEZOGEN
 10
1930.0000
 20
 144.1400
 11
1924.1400
 21
 150.0000
  0
LINE
  8
200
  6
AUSGEZOGEN
 10
1915.8600
 20
 150.0000
 11
1910.0000
 21
 144.1400
  0
LINE
  8
200
  6
AUSGEZOGEN
 10
1910.0000
 20
 135.8600
 11
1915.8600
 21
 130.0000
  0
LINE
  8
200
  6
AUSGEZOGEN
 10
1894.1400
 20
 130.0000
 11
1900.0000
 21
 135.8600
  0
LINE
  8
200
  6
AUSGEZOGEN
 10
1900.0000
 20
 144.1400
 11
1894.1400
 21
 150.0000
  0
LINE
  8
200
  6
AUSGEZOGEN
 10
1885.8600
 20
 150.0000
 11
1880.0000
 21
 144.1400
  0
LINE
  8
200
  6
AUSGEZOGEN
 10
1880.0000
 20
 135.8600
 11
1885.8600
 21
 130.0000
  0
LINE
  8
200
  6
AUSGEZOGEN
 10
1864.1400
 20
 130.0000
 11
1870.0000
 21
 135.8600
  0
LINE
  8
200
  6
AUSGEZOGEN
 10
1870.0000
 20
 144.1400
 11
1864.1400
 21
 150.0000
  0
LINE
  8
200
  6
AUSGEZOGEN
 10
1855.8600
 20
 150.0000
 11
1850.0000
 21
 144.1400
  0
LINE
  8
200
  6
AUSGEZOGEN
 10
1850.0000
 20
 135.8600
 11
1855.8600
 21
 130.0000
  0
LINE
  8
200
  6
AUSGEZOGEN
 10
1834.1400
 20
 130.0000
 11
1840.0000
 21
 135.8600
  0
LINE
  8
200
  6
AUSGEZOGEN
 10
1840.0000
 20
 144.1400
 11
1834.1400
 21
 150.0000
  0
LINE
  8
200
  6
AUSGEZOGEN
 10
1825.8600
 20
 150.0000
 11
1820.0000
 21
 144.1400
  0
LINE
  8
200
  6
AUSGEZOGEN
 10
1820.0000
 20
 135.8600
 11
1825.8600
 21
 130.0000
  0
LINE
  8
200
  6
AUSGEZOGEN
 10
1804.1400
 20
 130.0000
 11
1810.0000
 21
 135.8600
  0
LINE
  8
200
  6
AUSGEZOGEN
 10
1810.0000
 20
 144.1400
 11
1804.1400
 21
 150.0000
  0
LINE
  8
200
  6
AUSGEZOGEN
 10
1795.8600
 20
 150.0000
 11
1790.0000
 21
 144.1400
  0
LINE
  8
200
  6
AUSGEZOGEN
 10
1790.0000
 20
 135.8600
 11
1795.8600
 21
 130.0000
  0
LINE
  8
200
  6
AUSGEZOGEN
 10
1774.1400
 20
 130.0000
 11
1780.0000
 21
 135.8600
  0
LINE
  8
200
  6
AUSGEZOGEN
 10
1780.0000
 20
 144.1400
 11
1774.1400
 21
 150.0000
  0
LINE
  8
200
  6
AUSGEZOGEN
 10
1765.8600
 20
 150.0000
 11
1760.0000
 21
 144.1400
  0
LINE
  8
200
  6
AUSGEZOGEN
 10
1760.0000
 20
 135.8600
 11
1765.8600
 21
 130.0000
  0
LINE
  8
200
  6
AUSGEZOGEN
 10
1744.1400
 20
 130.0000
 11
1750.0000
 21
 135.8600
  0
LINE
  8
200
  6
AUSGEZOGEN
 10
1750.0000
 20
 144.1400
 11
1744.1400
 21
 150.0000
  0
LINE
  8
200
  6
AUSGEZOGEN
 10
1735.8600
 20
 150.0000
 11
1730.0000
 21
 144.1400
  0
LINE
  8
200
  6
AUSGEZOGEN
 10
1730.0000
 20
 135.8600
 11
1735.8600
 21
 130.0000
  0
LINE
  8
200
  6
AUSGEZOGEN
 10
1714.1400
 20
 130.0000
 11
1720.0000
 21
 135.8600
  0
LINE
  8
200
  6
AUSGEZOGEN
 10
1720.0000
 20
 144.1400
 11
1714.1400
 21
 150.0000
  0
LINE
  8
200
  6
AUSGEZOGEN
 10
1705.8600
 20
 150.0000
 11
1700.0000
 21
 144.1400
  0
LINE
  8
200
  6
AUSGEZOGEN
 10
1700.0000
 20
 135.8600
 11
1705.8600
 21
 130.0000
  0
LINE
  8
200
  6
AUSGEZOGEN
 10
1684.1400
 20
 130.0000
 11
1690.0000
 21
 135.8600
  0
LINE
  8
200
  6
AUSGEZOGEN
 10
1690.0000
 20
 144.1400
 11
1684.1400
 21
 150.0000
  0
LINE
  8
200
  6
AUSGEZOGEN
 10
1675.8600
 20
 150.0000
 11
1670.0000
 21
 144.1400
  0
LINE
  8
200
  6
AUSGEZOGEN
 10
1670.0000
 20
 135.8600
 11
1675.8600
 21
 130.0000
  0
LINE
  8
200
  6
AUSGEZOGEN
 10
1654.1400
 20
 130.0000
 11
1660.0000
 21
 135.8600
  0
LINE
  8
200
  6
AUSGEZOGEN
 10
1660.0000
 20
 144.1400
 11
1654.1400
 21
 150.0000
  0
LINE
  8
200
  6
AUSGEZOGEN
 10
1645.8600
 20
 150.0000
 11
1640.0000
 21
 144.1400
  0
LINE
  8
200
  6
AUSGEZOGEN
 10
1640.0000
 20
 135.8600
 11
1645.8600
 21
 130.0000
  0
LINE
  8
200
  6
AUSGEZOGEN
 10
1624.1400
 20
 130.0000
 11
1630.0000
 21
 135.8600
  0
LINE
  8
200
  6
AUSGEZOGEN
 10
1630.0000
 20
 144.1400
 11
1624.1400
 21
 150.0000
  0
LINE
  8
200
  6
AUSGEZOGEN
 10
1615.8600
 20
 150.0000
 11
1610.0000
 21
 144.1400
  0
LINE
  8
200
  6
AUSGEZOGEN
 10
1610.0000
 20
 135.8600
 11
1615.8600
 21
 130.0000
  0
LINE
  8
200
  6
AUSGEZOGEN
 10
1594.1400
 20
 130.0000
 11
1600.0000
 21
 135.8600
  0
LINE
  8
200
  6
AUSGEZOGEN
 10
1600.0000
 20
 144.1400
 11
1594.1400
 21
 150.0000
  0
LINE
  8
200
  6
AUSGEZOGEN
 10
1585.8600
 20
 150.0000
 11
1580.0000
 21
 144.1400
  0
LINE
  8
200
  6
AUSGEZOGEN
 10
1580.0000
 20
 135.8600
 11
1585.8600
 21
 130.0000
  0
LINE
  8
200
  6
AUSGEZOGEN
 10
1564.1400
 20
 130.0000
 11
1570.0000
 21
 135.8600
  0
LINE
  8
200
  6
AUSGEZOGEN
 10
1570.0000
 20
 144.1400
 11
1564.1400
 21
 150.0000
  0
LINE
  8
200
  6
AUSGEZOGEN
 10
1555.8600
 20
 150.0000
 11
1550.0000
 21
 144.1400
  0
LINE
  8
200
  6
AUSGEZOGEN
 10
1550.0000
 20
 135.8600
 11
1555.8600
 21
 130.0000
  0
LINE
  8
200
  6
AUSGEZOGEN
 10
1534.1400
 20
 130.0000
 11
1540.0000
 21
 135.8600
  0
LINE
  8
200
  6
AUSGEZOGEN
 10
1540.0000
 20
 144.1400
 11
1534.1400
 21
 150.0000
  0
LINE
  8
200
  6
AUSGEZOGEN
 10
1525.8600
 20
 150.0000
 11
1520.0000
 21
 144.1400
  0
LINE
  8
200
  6
AUSGEZOGEN
 10
1520.0000
 20
 135.8600
 11
1525.8600
 21
 130.0000
  0
LINE
  8
200
  6
AUSGEZOGEN
 10
1504.1400
 20
 130.0000
 11
1510.0000
 21
 135.8600
  0
LINE
  8
200
  6
AUSGEZOGEN
 10
1510.0000
 20
 144.1400
 11
1504.1400
 21
 150.0000
  0
LINE
  8
200
  6
AUSGEZOGEN
 10
1495.8600
 20
 150.0000
 11
1490.0000
 21
 144.1400
  0
LINE
  8
200
  6
AUSGEZOGEN
 10
1490.0000
 20
 135.8600
 11
1495.8600
 21
 130.0000
  0
LINE
  8
200
  6
AUSGEZOGEN
 10
1954.1400
 20
 100.0000
 11
1960.0000
 21
 105.8600
  0
LINE
  8
200
  6
AUSGEZOGEN
 10
1960.0000
 20
 114.1400
 11
1954.1400
 21
 120.0000
  0
LINE
  8
200
  6
AUSGEZOGEN
 10
1945.8600
 20
 120.0000
 11
1940.0000
 21
 114.1400
  0
LINE
  8
200
  6
AUSGEZOGEN
 10
1940.0000
 20
 105.8600
 11
1945.8600
 21
 100.0000
  0
LINE
  8
200
  6
AUSGEZOGEN
 10
1924.1400
 20
 100.0000
 11
1930.0000
 21
 105.8600
  0
LINE
  8
200
  6
AUSGEZOGEN
 10
1930.0000
 20
 114.1400
 11
1924.1400
 21
 120.0000
  0
LINE
  8
200
  6
AUSGEZOGEN
 10
1915.8600
 20
 120.0000
 11
1910.0000
 21
 114.1400
  0
LINE
  8
200
  6
AUSGEZOGEN
 10
1910.0000
 20
 105.8600
 11
1915.8600
 21
 100.0000
  0
LINE
  8
200
  6
AUSGEZOGEN
 10
1894.1400
 20
 100.0000
 11
1900.0000
 21
 105.8600
  0
LINE
  8
200
  6
AUSGEZOGEN
 10
1900.0000
 20
 114.1400
 11
1894.1400
 21
 120.0000
  0
LINE
  8
200
  6
AUSGEZOGEN
 10
1885.8600
 20
 120.0000
 11
1880.0000
 21
 114.1400
  0
LINE
  8
200
  6
AUSGEZOGEN
 10
1880.0000
 20
 105.8600
 11
1885.8600
 21
 100.0000
  0
LINE
  8
200
  6
AUSGEZOGEN
 10
1864.1400
 20
 100.0000
 11
1870.0000
 21
 105.8600
  0
LINE
  8
200
  6
AUSGEZOGEN
 10
1870.0000
 20
 114.1400
 11
1864.1400
 21
 120.0000
  0
LINE
  8
200
  6
AUSGEZOGEN
 10
1855.8600
 20
 120.0000
 11
1850.0000
 21
 114.1400
  0
LINE
  8
200
  6
AUSGEZOGEN
 10
1850.0000
 20
 105.8600
 11
1855.8600
 21
 100.0000
  0
LINE
  8
200
  6
AUSGEZOGEN
 10
1834.1400
 20
 100.0000
 11
1840.0000
 21
 105.8600
  0
LINE
  8
200
  6
AUSGEZOGEN
 10
1840.0000
 20
 114.1400
 11
1834.1400
 21
 120.0000
  0
LINE
  8
200
  6
AUSGEZOGEN
 10
1825.8600
 20
 120.0000
 11
1820.0000
 21
 114.1400
  0
LINE
  8
200
  6
AUSGEZOGEN
 10
1820.0000
 20
 105.8600
 11
1825.8600
 21
 100.0000
  0
LINE
  8
200
  6
AUSGEZOGEN
 10
1804.1400
 20
 100.0000
 11
1810.0000
 21
 105.8600
  0
LINE
  8
200
  6
AUSGEZOGEN
 10
1810.0000
 20
 114.1400
 11
1804.1400
 21
 120.0000
  0
LINE
  8
200
  6
AUSGEZOGEN
 10
1795.8600
 20
 120.0000
 11
1790.0000
 21
 114.1400
  0
LINE
  8
200
  6
AUSGEZOGEN
 10
1790.0000
 20
 105.8600
 11
1795.8600
 21
 100.0000
  0
LINE
  8
200
  6
AUSGEZOGEN
 10
1774.1400
 20
 100.0000
 11
1780.0000
 21
 105.8600
  0
LINE
  8
200
  6
AUSGEZOGEN
 10
1780.0000
 20
 114.1400
 11
1774.1400
 21
 120.0000
  0
LINE
  8
200
  6
AUSGEZOGEN
 10
1765.8600
 20
 120.0000
 11
1760.0000
 21
 114.1400
  0
LINE
  8
200
  6
AUSGEZOGEN
 10
1760.0000
 20
 105.8600
 11
1765.8600
 21
 100.0000
  0
LINE
  8
200
  6
AUSGEZOGEN
 10
1744.1400
 20
 100.0000
 11
1750.0000
 21
 105.8600
  0
LINE
  8
200
  6
AUSGEZOGEN
 10
1750.0000
 20
 114.1400
 11
1744.1400
 21
 120.0000
  0
LINE
  8
200
  6
AUSGEZOGEN
 10
1735.8600
 20
 120.0000
 11
1730.0000
 21
 114.1400
  0
LINE
  8
200
  6
AUSGEZOGEN
 10
1730.0000
 20
 105.8600
 11
1735.8600
 21
 100.0000
  0
LINE
  8
200
  6
AUSGEZOGEN
 10
1714.1400
 20
 100.0000
 11
1720.0000
 21
 105.8600
  0
LINE
  8
200
  6
AUSGEZOGEN
 10
1720.0000
 20
 114.1400
 11
1714.1400
 21
 120.0000
  0
LINE
  8
200
  6
AUSGEZOGEN
 10
1705.8600
 20
 120.0000
 11
1700.0000
 21
 114.1400
  0
LINE
  8
200
  6
AUSGEZOGEN
 10
1700.0000
 20
 105.8600
 11
1705.8600
 21
 100.0000
  0
LINE
  8
200
  6
AUSGEZOGEN
 10
1684.1400
 20
 100.0000
 11
1690.0000
 21
 105.8600
  0
LINE
  8
200
  6
AUSGEZOGEN
 10
1690.0000
 20
 114.1400
 11
1684.1400
 21
 120.0000
  0
LINE
  8
200
  6
AUSGEZOGEN
 10
1675.8600
 20
 120.0000
 11
1670.0000
 21
 114.1400
  0
LINE
  8
200
  6
AUSGEZOGEN
 10
1670.0000
 20
 105.8600
 11
1675.8600
 21
 100.0000
  0
LINE
  8
200
  6
AUSGEZOGEN
 10
1654.1400
 20
 100.0000
 11
1660.0000
 21
 105.8600
  0
LINE
  8
200
  6
AUSGEZOGEN
 10
1660.0000
 20
 114.1400
 11
1654.1400
 21
 120.0000
  0
LINE
  8
200
  6
AUSGEZOGEN
 10
1645.8600
 20
 120.0000
 11
1640.0000
 21
 114.1400
  0
LINE
  8
200
  6
AUSGEZOGEN
 10
1640.0000
 20
 105.8600
 11
1645.8600
 21
 100.0000
  0
LINE
  8
200
  6
AUSGEZOGEN
 10
1624.1400
 20
 100.0000
 11
1630.0000
 21
 105.8600
  0
LINE
  8
200
  6
AUSGEZOGEN
 10
1630.0000
 20
 114.1400
 11
1624.1400
 21
 120.0000
  0
LINE
  8
200
  6
AUSGEZOGEN
 10
1615.8600
 20
 120.0000
 11
1610.0000
 21
 114.1400
  0
LINE
  8
200
  6
AUSGEZOGEN
 10
1610.0000
 20
 105.8600
 11
1615.8600
 21
 100.0000
  0
LINE
  8
200
  6
AUSGEZOGEN
 10
1594.1400
 20
 100.0000
 11
1600.0000
 21
 105.8600
  0
LINE
  8
200
  6
AUSGEZOGEN
 10
1600.0000
 20
 114.1400
 11
1594.1400
 21
 120.0000
  0
LINE
  8
200
  6
AUSGEZOGEN
 10
1585.8600
 20
 120.0000
 11
1580.0000
 21
 114.1400
  0
LINE
  8
200
  6
AUSGEZOGEN
 10
1580.0000
 20
 105.8600
 11
1585.8600
 21
 100.0000
  0
LINE
  8
200
  6
AUSGEZOGEN
 10
1564.1400
 20
 100.0000
 11
1570.0000
 21
 105.8600
  0
LINE
  8
200
  6
AUSGEZOGEN
 10
1570.0000
 20
 114.1400
 11
1564.1400
 21
 120.0000
  0
LINE
  8
200
  6
AUSGEZOGEN
 10
1555.8600
 20
 120.0000
 11
1550.0000
 21
 114.1400
  0
LINE
  8
200
  6
AUSGEZOGEN
 10
1550.0000
 20
 105.8600
 11
1555.8600
 21
 100.0000
  0
LINE
  8
200
  6
AUSGEZOGEN
 10
1534.1400
 20
 100.0000
 11
1540.0000
 21
 105.8600
  0
LINE
  8
200
  6
AUSGEZOGEN
 10
1540.0000
 20
 114.1400
 11
1534.1400
 21
 120.0000
  0
LINE
  8
200
  6
AUSGEZOGEN
 10
1525.8600
 20
 120.0000
 11
1520.0000
 21
 114.1400
  0
LINE
  8
200
  6
AUSGEZOGEN
 10
1520.0000
 20
 105.8600
 11
1525.8600
 21
 100.0000
  0
LINE
  8
200
  6
AUSGEZOGEN
 10
1504.1400
 20
 100.0000
 11
1510.0000
 21
 105.8600
  0
LINE
  8
200
  6
AUSGEZOGEN
 10
1510.0000
 20
 114.1400
 11
1504.1400
 21
 120.0000
  0
LINE
  8
200
  6
AUSGEZOGEN
 10
1495.8600
 20
 120.0000
 11
1490.0000
 21
 114.1400
  0
LINE
  8
200
  6
AUSGEZOGEN
 10
1490.0000
 20
 105.8600
 11
1495.8600
 21
 100.0000
  0
LINE
  8
200
  6
AUSGEZOGEN
 10
1960.0000
 20
 285.8600
 11
1954.1400
 21
 280.0000
  0
LINE
  8
200
  6
AUSGEZOGEN
 10
1954.1400
 20
 300.0000
 11
1960.0000
 21
 294.1400
  0
LINE
  8
200
  6
AUSGEZOGEN
 10
1940.0000
 20
 294.1400
 11
1945.8600
 21
 300.0000
  0
LINE
  8
200
  6
AUSGEZOGEN
 10
1945.8600
 20
 280.0000
 11
1940.0000
 21
 285.8600
  0
LINE
  8
200
  6
AUSGEZOGEN
 10
1924.1400
 20
 280.0000
 11
1930.0000
 21
 285.8600
  0
LINE
  8
200
  6
AUSGEZOGEN
 10
1930.0000
 20
 294.1400
 11
1924.1400
 21
 300.0000
  0
LINE
  8
200
  6
AUSGEZOGEN
 10
1915.8600
 20
 300.0000
 11
1910.0000
 21
 294.1400
  0
LINE
  8
200
  6
AUSGEZOGEN
 10
1910.0000
 20
 285.8600
 11
1915.8600
 21
 280.0000
  0
LINE
  8
200
  6
AUSGEZOGEN
 10
1894.1400
 20
 280.0000
 11
1900.0000
 21
 285.8600
  0
LINE
  8
200
  6
AUSGEZOGEN
 10
1900.0000
 20
 294.1400
 11
1894.1400
 21
 300.0000
  0
LINE
  8
200
  6
AUSGEZOGEN
 10
1885.8600
 20
 300.0000
 11
1880.0000
 21
 294.1400
  0
LINE
  8
200
  6
AUSGEZOGEN
 10
1880.0000
 20
 285.8600
 11
1885.8600
 21
 280.0000
  0
LINE
  8
200
  6
AUSGEZOGEN
 10
1864.1400
 20
 280.0000
 11
1870.0000
 21
 285.8600
  0
LINE
  8
200
  6
AUSGEZOGEN
 10
1870.0000
 20
 294.1400
 11
1864.1400
 21
 300.0000
  0
LINE
  8
200
  6
AUSGEZOGEN
 10
1855.8600
 20
 300.0000
 11
1850.0000
 21
 294.1400
  0
LINE
  8
200
  6
AUSGEZOGEN
 10
1850.0000
 20
 285.8600
 11
1855.8600
 21
 280.0000
  0
LINE
  8
200
  6
AUSGEZOGEN
 10
1834.1400
 20
 280.0000
 11
1840.0000
 21
 285.8600
  0
LINE
  8
200
  6
AUSGEZOGEN
 10
1840.0000
 20
 294.1400
 11
1834.1400
 21
 300.0000
  0
LINE
  8
200
  6
AUSGEZOGEN
 10
1825.8600
 20
 300.0000
 11
1820.0000
 21
 294.1400
  0
LINE
  8
200
  6
AUSGEZOGEN
 10
1820.0000
 20
 285.8600
 11
1825.8600
 21
 280.0000
  0
LINE
  8
200
  6
AUSGEZOGEN
 10
1804.1400
 20
 280.0000
 11
1810.0000
 21
 285.8600
  0
LINE
  8
200
  6
AUSGEZOGEN
 10
1810.0000
 20
 294.1400
 11
1804.1400
 21
 300.0000
  0
LINE
  8
200
  6
AUSGEZOGEN
 10
1795.8600
 20
 300.0000
 11
1790.0000
 21
 294.1400
  0
LINE
  8
200
  6
AUSGEZOGEN
 10
1790.0000
 20
 285.8600
 11
1795.8600
 21
 280.0000
  0
LINE
  8
200
  6
AUSGEZOGEN
 10
1774.1400
 20
 280.0000
 11
1780.0000
 21
 285.8600
  0
LINE
  8
200
  6
AUSGEZOGEN
 10
1780.0000
 20
 294.1400
 11
1774.1400
 21
 300.0000
  0
LINE
  8
200
  6
AUSGEZOGEN
 10
1765.8600
 20
 300.0000
 11
1760.0000
 21
 294.1400
  0
LINE
  8
200
  6
AUSGEZOGEN
 10
1760.0000
 20
 285.8600
 11
1765.8600
 21
 280.0000
  0
LINE
  8
200
  6
AUSGEZOGEN
 10
1744.1400
 20
 280.0000
 11
1750.0000
 21
 285.8600
  0
LINE
  8
200
  6
AUSGEZOGEN
 10
1750.0000
 20
 294.1400
 11
1744.1400
 21
 300.0000
  0
LINE
  8
200
  6
AUSGEZOGEN
 10
1735.8600
 20
 300.0000
 11
1730.0000
 21
 294.1400
  0
LINE
  8
200
  6
AUSGEZOGEN
 10
1730.0000
 20
 285.8600
 11
1735.8600
 21
 280.0000
  0
LINE
  8
200
  6
AUSGEZOGEN
 10
1714.1400
 20
 280.0000
 11
1720.0000
 21
 285.8600
  0
LINE
  8
200
  6
AUSGEZOGEN
 10
1720.0000
 20
 294.1400
 11
1714.1400
 21
 300.0000
  0
LINE
  8
200
  6
AUSGEZOGEN
 10
1705.8600
 20
 300.0000
 11
1700.0000
 21
 294.1400
  0
LINE
  8
200
  6
AUSGEZOGEN
 10
1700.0000
 20
 285.8600
 11
1705.8600
 21
 280.0000
  0
LINE
  8
200
  6
AUSGEZOGEN
 10
1684.1400
 20
 280.0000
 11
1690.0000
 21
 285.8600
  0
LINE
  8
200
  6
AUSGEZOGEN
 10
1690.0000
 20
 294.1400
 11
1684.1400
 21
 300.0000
  0
LINE
  8
200
  6
AUSGEZOGEN
 10
1675.8600
 20
 300.0000
 11
1670.0000
 21
 294.1400
  0
LINE
  8
200
  6
AUSGEZOGEN
 10
1670.0000
 20
 285.8600
 11
1675.8600
 21
 280.0000
  0
LINE
  8
200
  6
AUSGEZOGEN
 10
1654.1400
 20
 280.0000
 11
1660.0000
 21
 285.8600
  0
LINE
  8
200
  6
AUSGEZOGEN
 10
1660.0000
 20
 294.1400
 11
1654.1400
 21
 300.0000
  0
LINE
  8
200
  6
AUSGEZOGEN
 10
1645.8600
 20
 300.0000
 11
1640.0000
 21
 294.1400
  0
LINE
  8
200
  6
AUSGEZOGEN
 10
1640.0000
 20
 285.8600
 11
1645.8600
 21
 280.0000
  0
LINE
  8
200
  6
AUSGEZOGEN
 10
1624.1400
 20
 280.0000
 11
1630.0000
 21
 285.8600
  0
LINE
  8
200
  6
AUSGEZOGEN
 10
1630.0000
 20
 294.1400
 11
1624.1400
 21
 300.0000
  0
LINE
  8
200
  6
AUSGEZOGEN
 10
1615.8600
 20
 300.0000
 11
1610.0000
 21
 294.1400
  0
LINE
  8
200
  6
AUSGEZOGEN
 10
1610.0000
 20
 285.8600
 11
1615.8600
 21
 280.0000
  0
LINE
  8
200
  6
AUSGEZOGEN
 10
1594.1400
 20
 280.0000
 11
1600.0000
 21
 285.8600
  0
LINE
  8
200
  6
AUSGEZOGEN
 10
1600.0000
 20
 294.1400
 11
1594.1400
 21
 300.0000
  0
LINE
  8
200
  6
AUSGEZOGEN
 10
1585.8600
 20
 300.0000
 11
1580.0000
 21
 294.1400
  0
LINE
  8
200
  6
AUSGEZOGEN
 10
1580.0000
 20
 285.8600
 11
1585.8600
 21
 280.0000
  0
LINE
  8
200
  6
AUSGEZOGEN
 10
1564.1400
 20
 280.0000
 11
1570.0000
 21
 285.8600
  0
LINE
  8
200
  6
AUSGEZOGEN
 10
1570.0000
 20
 294.1400
 11
1564.1400
 21
 300.0000
  0
LINE
  8
200
  6
AUSGEZOGEN
 10
1555.8600
 20
 300.0000
 11
1550.0000
 21
 294.1400
  0
LINE
  8
200
  6
AUSGEZOGEN
 10
1550.0000
 20
 285.8600
 11
1555.8600
 21
 280.0000
  0
LINE
  8
200
  6
AUSGEZOGEN
 10
1534.1400
 20
 280.0000
 11
1540.0000
 21
 285.8600
  0
LINE
  8
200
  6
AUSGEZOGEN
 10
1540.0000
 20
 294.1400
 11
1534.1400
 21
 300.0000
  0
LINE
  8
200
  6
AUSGEZOGEN
 10
1525.8600
 20
 300.0000
 11
1520.0000
 21
 294.1400
  0
LINE
  8
200
  6
AUSGEZOGEN
 10
1520.0000
 20
 285.8600
 11
1525.8600
 21
 280.0000
  0
LINE
  8
200
  6
AUSGEZOGEN
 10
1504.1400
 20
 280.0000
 11
1510.0000
 21
 285.8600
  0
LINE
  8
200
  6
AUSGEZOGEN
 10
1510.0000
 20
 294.1400
 11
1504.1400
 21
 300.0000
  0
LINE
  8
200
  6
AUSGEZOGEN
 10
1495.8600
 20
 300.0000
 11
1490.0000
 21
 294.1400
  0
LINE
  8
200
  6
AUSGEZOGEN
 10
1490.0000
 20
 285.8600
 11
1495.8600
 21
 280.0000
  0
LINE
  8
200
  6
AUSGEZOGEN
 10
1960.0000
 20
 315.8600
 11
1954.1400
 21
 310.0000
  0
LINE
  8
200
  6
AUSGEZOGEN
 10
1954.1400
 20
 330.0000
 11
1960.0000
 21
 324.1400
  0
LINE
  8
200
  6
AUSGEZOGEN
 10
1940.0000
 20
 324.1400
 11
1945.8600
 21
 330.0000
  0
LINE
  8
200
  6
AUSGEZOGEN
 10
1945.8600
 20
 310.0000
 11
1940.0000
 21
 315.8600
  0
LINE
  8
200
  6
AUSGEZOGEN
 10
1924.1400
 20
 310.0000
 11
1930.0000
 21
 315.8600
  0
LINE
  8
200
  6
AUSGEZOGEN
 10
1930.0000
 20
 324.1400
 11
1924.1400
 21
 330.0000
  0
LINE
  8
200
  6
AUSGEZOGEN
 10
1915.8600
 20
 330.0000
 11
1910.0000
 21
 324.1400
  0
LINE
  8
200
  6
AUSGEZOGEN
 10
1910.0000
 20
 315.8600
 11
1915.8600
 21
 310.0000
  0
LINE
  8
200
  6
AUSGEZOGEN
 10
1894.1400
 20
 310.0000
 11
1900.0000
 21
 315.8600
  0
LINE
  8
200
  6
AUSGEZOGEN
 10
1900.0000
 20
 324.1400
 11
1894.1400
 21
 330.0000
  0
LINE
  8
200
  6
AUSGEZOGEN
 10
1885.8600
 20
 330.0000
 11
1880.0000
 21
 324.1400
  0
LINE
  8
200
  6
AUSGEZOGEN
 10
1880.0000
 20
 315.8600
 11
1885.8600
 21
 310.0000
  0
LINE
  8
200
  6
AUSGEZOGEN
 10
1864.1400
 20
 310.0000
 11
1870.0000
 21
 315.8600
  0
LINE
  8
200
  6
AUSGEZOGEN
 10
1870.0000
 20
 324.1400
 11
1864.1400
 21
 330.0000
  0
LINE
  8
200
  6
AUSGEZOGEN
 10
1855.8600
 20
 330.0000
 11
1850.0000
 21
 324.1400
  0
LINE
  8
200
  6
AUSGEZOGEN
 10
1850.0000
 20
 315.8600
 11
1855.8600
 21
 310.0000
  0
LINE
  8
200
  6
AUSGEZOGEN
 10
1834.1400
 20
 310.0000
 11
1840.0000
 21
 315.8600
  0
LINE
  8
200
  6
AUSGEZOGEN
 10
1840.0000
 20
 324.1400
 11
1834.1400
 21
 330.0000
  0
LINE
  8
200
  6
AUSGEZOGEN
 10
1825.8600
 20
 330.0000
 11
1820.0000
 21
 324.1400
  0
LINE
  8
200
  6
AUSGEZOGEN
 10
1820.0000
 20
 315.8600
 11
1825.8600
 21
 310.0000
  0
LINE
  8
200
  6
AUSGEZOGEN
 10
1804.1400
 20
 310.0000
 11
1810.0000
 21
 315.8600
  0
LINE
  8
200
  6
AUSGEZOGEN
 10
1810.0000
 20
 324.1400
 11
1804.1400
 21
 330.0000
  0
LINE
  8
200
  6
AUSGEZOGEN
 10
1795.8600
 20
 330.0000
 11
1790.0000
 21
 324.1400
  0
LINE
  8
200
  6
AUSGEZOGEN
 10
1790.0000
 20
 315.8600
 11
1795.8600
 21
 310.0000
  0
LINE
  8
200
  6
AUSGEZOGEN
 10
1774.1400
 20
 310.0000
 11
1780.0000
 21
 315.8600
  0
LINE
  8
200
  6
AUSGEZOGEN
 10
1780.0000
 20
 324.1400
 11
1774.1400
 21
 330.0000
  0
LINE
  8
200
  6
AUSGEZOGEN
 10
1765.8600
 20
 330.0000
 11
1760.0000
 21
 324.1400
  0
LINE
  8
200
  6
AUSGEZOGEN
 10
1760.0000
 20
 315.8600
 11
1765.8600
 21
 310.0000
  0
LINE
  8
200
  6
AUSGEZOGEN
 10
1744.1400
 20
 310.0000
 11
1750.0000
 21
 315.8600
  0
LINE
  8
200
  6
AUSGEZOGEN
 10
1750.0000
 20
 324.1400
 11
1744.1400
 21
 330.0000
  0
LINE
  8
200
  6
AUSGEZOGEN
 10
1735.8600
 20
 330.0000
 11
1730.0000
 21
 324.1400
  0
LINE
  8
200
  6
AUSGEZOGEN
 10
1730.0000
 20
 315.8600
 11
1735.8600
 21
 310.0000
  0
LINE
  8
200
  6
AUSGEZOGEN
 10
1714.1400
 20
 310.0000
 11
1720.0000
 21
 315.8600
  0
LINE
  8
200
  6
AUSGEZOGEN
 10
1720.0000
 20
 324.1400
 11
1714.1400
 21
 330.0000
  0
LINE
  8
200
  6
AUSGEZOGEN
 10
1705.8600
 20
 330.0000
 11
1700.0000
 21
 324.1400
  0
LINE
  8
200
  6
AUSGEZOGEN
 10
1700.0000
 20
 315.8600
 11
1705.8600
 21
 310.0000
  0
LINE
  8
200
  6
AUSGEZOGEN
 10
1684.1400
 20
 310.0000
 11
1690.0000
 21
 315.8600
  0
LINE
  8
200
  6
AUSGEZOGEN
 10
1690.0000
 20
 324.1400
 11
1684.1400
 21
 330.0000
  0
LINE
  8
200
  6
AUSGEZOGEN
 10
1675.8600
 20
 330.0000
 11
1670.0000
 21
 324.1400
  0
LINE
  8
200
  6
AUSGEZOGEN
 10
1670.0000
 20
 315.8600
 11
1675.8600
 21
 310.0000
  0
LINE
  8
200
  6
AUSGEZOGEN
 10
1654.1400
 20
 310.0000
 11
1660.0000
 21
 315.8600
  0
LINE
  8
200
  6
AUSGEZOGEN
 10
1660.0000
 20
 324.1400
 11
1654.1400
 21
 330.0000
  0
LINE
  8
200
  6
AUSGEZOGEN
 10
1645.8600
 20
 330.0000
 11
1640.0000
 21
 324.1400
  0
LINE
  8
200
  6
AUSGEZOGEN
 10
1640.0000
 20
 315.8600
 11
1645.8600
 21
 310.0000
  0
LINE
  8
200
  6
AUSGEZOGEN
 10
1624.1400
 20
 310.0000
 11
1630.0000
 21
 315.8600
  0
LINE
  8
200
  6
AUSGEZOGEN
 10
1630.0000
 20
 324.1400
 11
1624.1400
 21
 330.0000
  0
LINE
  8
200
  6
AUSGEZOGEN
 10
1615.8600
 20
 330.0000
 11
1610.0000
 21
 324.1400
  0
LINE
  8
200
  6
AUSGEZOGEN
 10
1610.0000
 20
 315.8600
 11
1615.8600
 21
 310.0000
  0
LINE
  8
200
  6
AUSGEZOGEN
 10
1594.1400
 20
 310.0000
 11
1600.0000
 21
 315.8600
  0
LINE
  8
200
  6
AUSGEZOGEN
 10
1600.0000
 20
 324.1400
 11
1594.1400
 21
 330.0000
  0
LINE
  8
200
  6
AUSGEZOGEN
 10
1585.8600
 20
 330.0000
 11
1580.0000
 21
 324.1400
  0
LINE
  8
200
  6
AUSGEZOGEN
 10
1580.0000
 20
 315.8600
 11
1585.8600
 21
 310.0000
  0
LINE
  8
200
  6
AUSGEZOGEN
 10
1564.1400
 20
 330.0000
 11
1570.0000
 21
 324.1400
  0
LINE
  8
200
  6
AUSGEZOGEN
 10
1550.0000
 20
 324.1400
 11
1555.8600
 21
 330.0000
  0
LINE
  8
200
  6
AUSGEZOGEN
 10
1555.8600
 20
 310.0000
 11
1550.0000
 21
 315.8600
  0
LINE
  8
200
  6
AUSGEZOGEN
 10
1534.1400
 20
 310.0000
 11
1540.0000
 21
 315.8600
  0
LINE
  8
200
  6
AUSGEZOGEN
 10
1540.0000
 20
 324.1400
 11
1534.1400
 21
 330.0000
  0
LINE
  8
200
  6
AUSGEZOGEN
 10
1525.8600
 20
 330.0000
 11
1520.0000
 21
 324.1400
  0
LINE
  8
200
  6
AUSGEZOGEN
 10
1520.0000
 20
 315.8600
 11
1525.8600
 21
 310.0000
  0
LINE
  8
200
  6
AUSGEZOGEN
 10
1504.1400
 20
 310.0000
 11
1510.0000
 21
 315.8600
  0
LINE
  8
200
  6
AUSGEZOGEN
 10
1510.0000
 20
 324.1400
 11
1504.1400
 21
 330.0000
  0
LINE
  8
200
  6
AUSGEZOGEN
 10
1495.8600
 20
 330.0000
 11
1490.0000
 21
 324.1400
  0
LINE
  8
200
  6
AUSGEZOGEN
 10
1490.0000
 20
 315.8600
 11
1495.8600
 21
 310.0000
  0
LINE
  8
200
  6
AUSGEZOGEN
 10
1984.1400
 20
 250.0000
 11
1990.0000
 21
 255.8600
  0
LINE
  8
200
  6
AUSGEZOGEN
 10
1990.0000
 20
 264.1400
 11
1984.1400
 21
 270.0000
  0
LINE
  8
200
  6
AUSGEZOGEN
 10
1975.8600
 20
 270.0000
 11
1970.0000
 21
 264.1400
  0
LINE
  8
200
  6
AUSGEZOGEN
 10
1970.0000
 20
 255.8600
 11
1975.8600
 21
 250.0000
  0
LINE
  8
200
  6
AUSGEZOGEN
 10
1984.1400
 20
 220.0000
 11
1990.0000
 21
 225.8600
  0
LINE
  8
200
  6
AUSGEZOGEN
 10
1990.0000
 20
 234.1400
 11
1984.1400
 21
 240.0000
  0
LINE
  8
200
  6
AUSGEZOGEN
 10
1975.8600
 20
 240.0000
 11
1970.0000
 21
 234.1400
  0
LINE
  8
200
  6
AUSGEZOGEN
 10
1970.0000
 20
 225.8600
 11
1975.8600
 21
 220.0000
  0
LINE
  8
200
  6
AUSGEZOGEN
 10
1984.1400
 20
 190.0000
 11
1990.0000
 21
 195.8600
  0
LINE
  8
200
  6
AUSGEZOGEN
 10
1990.0000
 20
 204.1400
 11
1984.1400
 21
 210.0000
  0
LINE
  8
200
  6
AUSGEZOGEN
 10
1975.8600
 20
 210.0000
 11
1970.0000
 21
 204.1400
  0
LINE
  8
200
  6
AUSGEZOGEN
 10
1970.0000
 20
 195.8600
 11
1975.8600
 21
 190.0000
  0
LINE
  8
200
  6
AUSGEZOGEN
 10
1984.1400
 20
 160.0000
 11
1990.0000
 21
 165.8600
  0
LINE
  8
200
  6
AUSGEZOGEN
 10
1990.0000
 20
 174.1400
 11
1984.1400
 21
 180.0000
  0
LINE
  8
200
  6
AUSGEZOGEN
 10
1975.8600
 20
 180.0000
 11
1970.0000
 21
 174.1400
  0
LINE
  8
200
  6
AUSGEZOGEN
 10
1970.0000
 20
 165.8600
 11
1975.8600
 21
 160.0000
  0
LINE
  8
200
  6
AUSGEZOGEN
 10
1984.1400
 20
 130.0000
 11
1990.0000
 21
 135.8600
  0
LINE
  8
200
  6
AUSGEZOGEN
 10
1990.0000
 20
 144.1400
 11
1984.1400
 21
 150.0000
  0
LINE
  8
200
  6
AUSGEZOGEN
 10
1975.8600
 20
 150.0000
 11
1970.0000
 21
 144.1400
  0
LINE
  8
200
  6
AUSGEZOGEN
 10
1970.0000
 20
 135.8600
 11
1975.8600
 21
 130.0000
  0
LINE
  8
200
  6
AUSGEZOGEN
 10
1984.1400
 20
 100.0000
 11
1990.0000
 21
 105.8600
  0
LINE
  8
200
  6
AUSGEZOGEN
 10
1990.0000
 20
 114.1400
 11
1984.1400
 21
 120.0000
  0
LINE
  8
200
  6
AUSGEZOGEN
 10
1975.8600
 20
 120.0000
 11
1970.0000
 21
 114.1400
  0
LINE
  8
200
  6
AUSGEZOGEN
 10
1970.0000
 20
 105.8600
 11
1975.8600
 21
 100.0000
  0
LINE
  8
200
  6
AUSGEZOGEN
 10
1990.0000
 20
 285.8600
 11
1984.1400
 21
 280.0000
  0
LINE
  8
200
  6
AUSGEZOGEN
 10
1984.1400
 20
 300.0000
 11
1990.0000
 21
 294.1400
  0
LINE
  8
200
  6
AUSGEZOGEN
 10
1970.0000
 20
 294.1400
 11
1975.8600
 21
 300.0000
  0
LINE
  8
200
  6
AUSGEZOGEN
 10
1975.8600
 20
 280.0000
 11
1970.0000
 21
 285.8600
  0
LINE
  8
200
  6
AUSGEZOGEN
 10
1990.0000
 20
 315.8600
 11
1984.1400
 21
 310.0000
  0
LINE
  8
200
  6
AUSGEZOGEN
 10
1984.1400
 20
 330.0000
 11
1990.0000
 21
 324.1400
  0
LINE
  8
200
  6
AUSGEZOGEN
 10
1970.0000
 20
 324.1400
 11
1975.8600
 21
 330.0000
  0
LINE
  8
200
  6
AUSGEZOGEN
 10
1975.8600
 20
 310.0000
 11
1970.0000
 21
 315.8600
  0
LINE
  8
200
  6
AUSGEZOGEN
 10
1990.0000
 20
 345.8600
 11
1984.1400
 21
 340.0000
  0
LINE
  8
200
  6
AUSGEZOGEN
 10
1984.1400
 20
 360.0000
 11
1990.0000
 21
 354.1400
  0
LINE
  8
200
  6
AUSGEZOGEN
 10
1970.0000
 20
 354.1400
 11
1975.8600
 21
 360.0000
  0
LINE
  8
200
  6
AUSGEZOGEN
 10
1975.8600
 20
 340.0000
 11
1970.0000
 21
 345.8600
  0
LINE
  8
200
  6
AUSGEZOGEN
 10
1954.1400
 20
 340.0000
 11
1960.0000
 21
 345.8600
  0
LINE
  8
200
  6
AUSGEZOGEN
 10
1960.0000
 20
 354.1400
 11
1954.1400
 21
 360.0000
  0
LINE
  8
200
  6
AUSGEZOGEN
 10
1945.8600
 20
 360.0000
 11
1940.0000
 21
 354.1400
  0
LINE
  8
200
  6
AUSGEZOGEN
 10
1940.0000
 20
 345.8600
 11
1945.8600
 21
 340.0000
  0
LINE
  8
200
  6
AUSGEZOGEN
 10
1924.1400
 20
 340.0000
 11
1930.0000
 21
 345.8600
  0
LINE
  8
200
  6
AUSGEZOGEN
 10
1930.0000
 20
 354.1400
 11
1924.1400
 21
 360.0000
  0
LINE
  8
200
  6
AUSGEZOGEN
 10
1915.8600
 20
 360.0000
 11
1910.0000
 21
 354.1400
  0
LINE
  8
200
  6
AUSGEZOGEN
 10
1910.0000
 20
 345.8600
 11
1915.8600
 21
 340.0000
  0
LINE
  8
200
  6
AUSGEZOGEN
 10
1894.1400
 20
 340.0000
 11
1900.0000
 21
 345.8600
  0
LINE
  8
200
  6
AUSGEZOGEN
 10
1900.0000
 20
 354.1400
 11
1894.1400
 21
 360.0000
  0
LINE
  8
200
  6
AUSGEZOGEN
 10
1885.8600
 20
 360.0000
 11
1880.0000
 21
 354.1400
  0
LINE
  8
200
  6
AUSGEZOGEN
 10
1880.0000
 20
 345.8600
 11
1885.8600
 21
 340.0000
  0
LINE
  8
200
  6
AUSGEZOGEN
 10
1864.1400
 20
 340.0000
 11
1870.0000
 21
 345.8600
  0
LINE
  8
200
  6
AUSGEZOGEN
 10
1870.0000
 20
 354.1400
 11
1864.1400
 21
 360.0000
  0
LINE
  8
200
  6
AUSGEZOGEN
 10
1855.8600
 20
 360.0000
 11
1850.0000
 21
 354.1400
  0
LINE
  8
200
  6
AUSGEZOGEN
 10
1850.0000
 20
 345.8600
 11
1855.8600
 21
 340.0000
  0
LINE
  8
200
  6
AUSGEZOGEN
 10
1834.1400
 20
 340.0000
 11
1840.0000
 21
 345.8600
  0
LINE
  8
200
  6
AUSGEZOGEN
 10
1840.0000
 20
 354.1400
 11
1834.1400
 21
 360.0000
  0
LINE
  8
200
  6
AUSGEZOGEN
 10
1825.8600
 20
 360.0000
 11
1820.0000
 21
 354.1400
  0
LINE
  8
200
  6
AUSGEZOGEN
 10
1820.0000
 20
 345.8600
 11
1825.8600
 21
 340.0000
  0
LINE
  8
200
  6
AUSGEZOGEN
 10
1804.1400
 20
 340.0000
 11
1810.0000
 21
 345.8600
  0
LINE
  8
200
  6
AUSGEZOGEN
 10
1810.0000
 20
 354.1400
 11
1804.1400
 21
 360.0000
  0
LINE
  8
200
  6
AUSGEZOGEN
 10
1795.8600
 20
 360.0000
 11
1790.0000
 21
 354.1400
  0
LINE
  8
200
  6
AUSGEZOGEN
 10
1790.0000
 20
 345.8600
 11
1795.8600
 21
 340.0000
  0
LINE
  8
200
  6
AUSGEZOGEN
 10
1774.1400
 20
 340.0000
 11
1780.0000
 21
 345.8600
  0
LINE
  8
200
  6
AUSGEZOGEN
 10
1780.0000
 20
 354.1400
 11
1774.1400
 21
 360.0000
  0
LINE
  8
200
  6
AUSGEZOGEN
 10
1765.8600
 20
 360.0000
 11
1760.0000
 21
 354.1400
  0
LINE
  8
200
  6
AUSGEZOGEN
 10
1760.0000
 20
 345.8600
 11
1765.8600
 21
 340.0000
  0
LINE
  8
200
  6
AUSGEZOGEN
 10
1744.1400
 20
 340.0000
 11
1750.0000
 21
 345.8600
  0
LINE
  8
200
  6
AUSGEZOGEN
 10
1750.0000
 20
 354.1400
 11
1744.1400
 21
 360.0000
  0
LINE
  8
200
  6
AUSGEZOGEN
 10
1735.8600
 20
 360.0000
 11
1730.0000
 21
 354.1400
  0
LINE
  8
200
  6
AUSGEZOGEN
 10
1730.0000
 20
 345.8600
 11
1735.8600
 21
 340.0000
  0
LINE
  8
200
  6
AUSGEZOGEN
 10
1714.1400
 20
 340.0000
 11
1720.0000
 21
 345.8600
  0
LINE
  8
200
  6
AUSGEZOGEN
 10
1720.0000
 20
 354.1400
 11
1714.1400
 21
 360.0000
  0
LINE
  8
200
  6
AUSGEZOGEN
 10
1705.8600
 20
 360.0000
 11
1700.0000
 21
 354.1400
  0
LINE
  8
200
  6
AUSGEZOGEN
 10
1700.0000
 20
 345.8600
 11
1705.8600
 21
 340.0000
  0
LINE
  8
200
  6
AUSGEZOGEN
 10
1684.1400
 20
 340.0000
 11
1690.0000
 21
 345.8600
  0
LINE
  8
200
  6
AUSGEZOGEN
 10
1690.0000
 20
 354.1400
 11
1684.1400
 21
 360.0000
  0
LINE
  8
200
  6
AUSGEZOGEN
 10
1675.8600
 20
 360.0000
 11
1670.0000
 21
 354.1400
  0
LINE
  8
200
  6
AUSGEZOGEN
 10
1670.0000
 20
 345.8600
 11
1675.8600
 21
 340.0000
  0
LINE
  8
200
  6
AUSGEZOGEN
 10
1654.1400
 20
 340.0000
 11
1660.0000
 21
 345.8600
  0
LINE
  8
200
  6
AUSGEZOGEN
 10
1660.0000
 20
 354.1400
 11
1654.1400
 21
 360.0000
  0
LINE
  8
200
  6
AUSGEZOGEN
 10
1645.8600
 20
 360.0000
 11
1640.0000
 21
 354.1400
  0
LINE
  8
200
  6
AUSGEZOGEN
 10
1640.0000
 20
 345.8600
 11
1645.8600
 21
 340.0000
  0
LINE
  8
200
  6
AUSGEZOGEN
 10
1624.1400
 20
 340.0000
 11
1630.0000
 21
 345.8600
  0
LINE
  8
200
  6
AUSGEZOGEN
 10
1630.0000
 20
 354.1400
 11
1624.1400
 21
 360.0000
  0
LINE
  8
200
  6
AUSGEZOGEN
 10
1615.8600
 20
 360.0000
 11
1610.0000
 21
 354.1400
  0
LINE
  8
200
  6
AUSGEZOGEN
 10
1610.0000
 20
 345.8600
 11
1615.8600
 21
 340.0000
  0
LINE
  8
200
  6
AUSGEZOGEN
 10
1594.1400
 20
 340.0000
 11
1600.0000
 21
 345.8600
  0
LINE
  8
200
  6
AUSGEZOGEN
 10
1600.0000
 20
 354.1400
 11
1594.1400
 21
 360.0000
  0
LINE
  8
200
  6
AUSGEZOGEN
 10
1585.8600
 20
 360.0000
 11
1580.0000
 21
 354.1400
  0
LINE
  8
200
  6
AUSGEZOGEN
 10
1580.0000
 20
 345.8600
 11
1585.8600
 21
 340.0000
  0
LINE
  8
200
  6
AUSGEZOGEN
 10
1564.1400
 20
 340.0000
 11
1570.0000
 21
 345.8600
  0
LINE
  8
200
  6
AUSGEZOGEN
 10
1570.0000
 20
 354.1400
 11
1564.1400
 21
 360.0000
  0
LINE
  8
200
  6
AUSGEZOGEN
 10
1555.8600
 20
 360.0000
 11
1550.0000
 21
 354.1400
  0
LINE
  8
200
  6
AUSGEZOGEN
 10
1550.0000
 20
 345.8600
 11
1555.8600
 21
 340.0000
  0
LINE
  8
200
  6
AUSGEZOGEN
 10
1534.1400
 20
 340.0000
 11
1540.0000
 21
 345.8600
  0
LINE
  8
200
  6
AUSGEZOGEN
 10
1540.0000
 20
 354.1400
 11
1534.1400
 21
 360.0000
  0
LINE
  8
200
  6
AUSGEZOGEN
 10
1525.8600
 20
 360.0000
 11
1520.0000
 21
 354.1400
  0
LINE
  8
200
  6
AUSGEZOGEN
 10
1520.0000
 20
 345.8600
 11
1525.8600
 21
 340.0000
  0
LINE
  8
200
  6
AUSGEZOGEN
 10
1504.1400
 20
 340.0000
 11
1510.0000
 21
 345.8600
  0
LINE
  8
200
  6
AUSGEZOGEN
 10
1510.0000
 20
 354.1400
 11
1504.1400
 21
 360.0000
  0
LINE
  8
200
  6
AUSGEZOGEN
 10
1495.8600
 20
 360.0000
 11
1490.0000
 21
 354.1400
  0
LINE
  8
200
  6
AUSGEZOGEN
 10
1490.0000
 20
 345.8600
 11
1495.8600
 21
 340.0000
  0
LINE
  8
200
  6
AUSGEZOGEN
 10
1564.1400
 20
 310.0000
 11
1570.0000
 21
 315.8600
  0
LINE
  8
200
  6
AUSGEZOGEN
 10
1984.1400
 20
 250.0000
 11
1975.8600
 21
 250.0000
  0
LINE
  8
200
  6
AUSGEZOGEN
 10
1990.0000
 20
 264.1400
 11
1990.0000
 21
 255.8600
  0
LINE
  8
200
  6
AUSGEZOGEN
 10
1975.8600
 20
 270.0000
 11
1984.1400
 21
 270.0000
  0
LINE
  8
200
  6
AUSGEZOGEN
 10
1970.0000
 20
 255.8600
 11
1970.0000
 21
 264.1400
  0
LINE
  8
200
  6
AUSGEZOGEN
 10
1984.1400
 20
 220.0000
 11
1975.8600
 21
 220.0000
  0
LINE
  8
200
  6
AUSGEZOGEN
 10
1990.0000
 20
 234.1400
 11
1990.0000
 21
 225.8600
  0
LINE
  8
200
  6
AUSGEZOGEN
 10
1975.8600
 20
 240.0000
 11
1984.1400
 21
 240.0000
  0
LINE
  8
200
  6
AUSGEZOGEN
 10
1970.0000
 20
 225.8600
 11
1970.0000
 21
 234.1400
  0
LINE
  8
200
  6
AUSGEZOGEN
 10
1984.1400
 20
 190.0000
 11
1975.8600
 21
 190.0000
  0
LINE
  8
200
  6
AUSGEZOGEN
 10
1990.0000
 20
 204.1400
 11
1990.0000
 21
 195.8600
  0
LINE
  8
200
  6
AUSGEZOGEN
 10
1975.8600
 20
 210.0000
 11
1984.1400
 21
 210.0000
  0
LINE
  8
200
  6
AUSGEZOGEN
 10
1970.0000
 20
 195.8600
 11
1970.0000
 21
 204.1400
  0
LINE
  8
200
  6
AUSGEZOGEN
 10
1984.1400
 20
 160.0000
 11
1975.8600
 21
 160.0000
  0
LINE
  8
200
  6
AUSGEZOGEN
 10
1990.0000
 20
 174.1400
 11
1990.0000
 21
 165.8600
  0
LINE
  8
200
  6
AUSGEZOGEN
 10
1975.8600
 20
 180.0000
 11
1984.1400
 21
 180.0000
  0
LINE
  8
200
  6
AUSGEZOGEN
 10
1970.0000
 20
 165.8600
 11
1970.0000
 21
 174.1400
  0
LINE
  8
200
  6
AUSGEZOGEN
 10
1984.1400
 20
 130.0000
 11
1975.8600
 21
 130.0000
  0
LINE
  8
200
  6
AUSGEZOGEN
 10
1990.0000
 20
 144.1400
 11
1990.0000
 21
 135.8600
  0
LINE
  8
200
  6
AUSGEZOGEN
 10
1975.8600
 20
 150.0000
 11
1984.1400
 21
 150.0000
  0
LINE
  8
200
  6
AUSGEZOGEN
 10
1970.0000
 20
 135.8600
 11
1970.0000
 21
 144.1400
  0
LINE
  8
200
  6
AUSGEZOGEN
 10
1984.1400
 20
 100.0000
 11
1975.8600
 21
 100.0000
  0
LINE
  8
200
  6
AUSGEZOGEN
 10
1990.0000
 20
 114.1400
 11
1990.0000
 21
 105.8600
  0
LINE
  8
200
  6
AUSGEZOGEN
 10
1975.8600
 20
 120.0000
 11
1984.1400
 21
 120.0000
  0
LINE
  8
200
  6
AUSGEZOGEN
 10
1970.0000
 20
 105.8600
 11
1970.0000
 21
 114.1400
  0
LINE
  8
200
  6
AUSGEZOGEN
 10
1984.1400
 20
 280.0000
 11
1975.8600
 21
 280.0000
  0
LINE
  8
200
  6
AUSGEZOGEN
 10
1990.0000
 20
 294.1400
 11
1990.0000
 21
 285.8600
  0
LINE
  8
200
  6
AUSGEZOGEN
 10
1975.8600
 20
 300.0000
 11
1984.1400
 21
 300.0000
  0
LINE
  8
200
  6
AUSGEZOGEN
 10
1970.0000
 20
 285.8600
 11
1970.0000
 21
 294.1400
  0
LINE
  8
200
  6
AUSGEZOGEN
 10
1984.1400
 20
 310.0000
 11
1975.8600
 21
 310.0000
  0
LINE
  8
200
  6
AUSGEZOGEN
 10
1990.0000
 20
 324.1400
 11
1990.0000
 21
 315.8600
  0
LINE
  8
200
  6
AUSGEZOGEN
 10
1975.8600
 20
 330.0000
 11
1984.1400
 21
 330.0000
  0
LINE
  8
200
  6
AUSGEZOGEN
 10
1970.0000
 20
 315.8600
 11
1970.0000
 21
 324.1400
  0
LINE
  8
200
  6
AUSGEZOGEN
 10
1984.1400
 20
 340.0000
 11
1975.8600
 21
 340.0000
  0
LINE
  8
200
  6
AUSGEZOGEN
 10
1990.0000
 20
 354.1400
 11
1990.0000
 21
 345.8600
  0
LINE
  8
200
  6
AUSGEZOGEN
 10
1975.8600
 20
 360.0000
 11
1984.1400
 21
 360.0000
  0
LINE
  8
200
  6
AUSGEZOGEN
 10
1970.0000
 20
 345.8600
 11
1970.0000
 21
 354.1400
  0
LINE
  8
200
  6
AUSGEZOGEN
 10
1945.8600
 20
 250.0000
 11
1954.1400
 21
 250.0000
  0
LINE
  8
200
  6
AUSGEZOGEN
 10
1960.0000
 20
 264.1400
 11
1960.0000
 21
 255.8600
  0
LINE
  8
200
  6
AUSGEZOGEN
 10
1945.8600
 20
 270.0000
 11
1954.1400
 21
 270.0000
  0
LINE
  8
200
  6
AUSGEZOGEN
 10
1940.0000
 20
 255.8600
 11
1940.0000
 21
 264.1400
  0
LINE
  8
200
  6
AUSGEZOGEN
 10
1915.8600
 20
 250.0000
 11
1924.1400
 21
 250.0000
  0
LINE
  8
200
  6
AUSGEZOGEN
 10
1930.0000
 20
 264.1400
 11
1930.0000
 21
 255.8600
  0
LINE
  8
200
  6
AUSGEZOGEN
 10
1915.8600
 20
 270.0000
 11
1924.1400
 21
 270.0000
  0
LINE
  8
200
  6
AUSGEZOGEN
 10
1910.0000
 20
 255.8600
 11
1910.0000
 21
 264.1400
  0
LINE
  8
200
  6
AUSGEZOGEN
 10
1885.8600
 20
 250.0000
 11
1894.1400
 21
 250.0000
  0
LINE
  8
200
  6
AUSGEZOGEN
 10
1900.0000
 20
 264.1400
 11
1900.0000
 21
 255.8600
  0
LINE
  8
200
  6
AUSGEZOGEN
 10
1885.8600
 20
 270.0000
 11
1894.1400
 21
 270.0000
  0
LINE
  8
200
  6
AUSGEZOGEN
 10
1880.0000
 20
 255.8600
 11
1880.0000
 21
 264.1400
  0
LINE
  8
200
  6
AUSGEZOGEN
 10
1855.8600
 20
 250.0000
 11
1864.1400
 21
 250.0000
  0
LINE
  8
200
  6
AUSGEZOGEN
 10
1870.0000
 20
 264.1400
 11
1870.0000
 21
 255.8600
  0
LINE
  8
200
  6
AUSGEZOGEN
 10
1855.8600
 20
 270.0000
 11
1864.1400
 21
 270.0000
  0
LINE
  8
200
  6
AUSGEZOGEN
 10
1850.0000
 20
 255.8600
 11
1850.0000
 21
 264.1400
  0
LINE
  8
200
  6
AUSGEZOGEN
 10
1825.8600
 20
 250.0000
 11
1834.1400
 21
 250.0000
  0
LINE
  8
200
  6
AUSGEZOGEN
 10
1840.0000
 20
 264.1400
 11
1840.0000
 21
 255.8600
  0
LINE
  8
200
  6
AUSGEZOGEN
 10
1825.8600
 20
 270.0000
 11
1834.1400
 21
 270.0000
  0
LINE
  8
200
  6
AUSGEZOGEN
 10
1820.0000
 20
 255.8600
 11
1820.0000
 21
 264.1400
  0
LINE
  8
200
  6
AUSGEZOGEN
 10
1795.8600
 20
 250.0000
 11
1804.1400
 21
 250.0000
  0
LINE
  8
200
  6
AUSGEZOGEN
 10
1810.0000
 20
 264.1400
 11
1810.0000
 21
 255.8600
  0
LINE
  8
200
  6
AUSGEZOGEN
 10
1795.8600
 20
 270.0000
 11
1804.1400
 21
 270.0000
  0
LINE
  8
200
  6
AUSGEZOGEN
 10
1790.0000
 20
 255.8600
 11
1790.0000
 21
 264.1400
  0
LINE
  8
200
  6
AUSGEZOGEN
 10
1765.8600
 20
 250.0000
 11
1774.1400
 21
 250.0000
  0
LINE
  8
200
  6
AUSGEZOGEN
 10
1780.0000
 20
 264.1400
 11
1780.0000
 21
 255.8600
  0
LINE
  8
200
  6
AUSGEZOGEN
 10
1765.8600
 20
 270.0000
 11
1774.1400
 21
 270.0000
  0
LINE
  8
200
  6
AUSGEZOGEN
 10
1760.0000
 20
 255.8600
 11
1760.0000
 21
 264.1400
  0
LINE
  8
200
  6
AUSGEZOGEN
 10
1735.8600
 20
 250.0000
 11
1744.1400
 21
 250.0000
  0
LINE
  8
200
  6
AUSGEZOGEN
 10
1750.0000
 20
 264.1400
 11
1750.0000
 21
 255.8600
  0
LINE
  8
200
  6
AUSGEZOGEN
 10
1735.8600
 20
 270.0000
 11
1744.1400
 21
 270.0000
  0
LINE
  8
200
  6
AUSGEZOGEN
 10
1730.0000
 20
 255.8600
 11
1730.0000
 21
 264.1400
  0
LINE
  8
200
  6
AUSGEZOGEN
 10
1705.8600
 20
 250.0000
 11
1714.1400
 21
 250.0000
  0
LINE
  8
200
  6
AUSGEZOGEN
 10
1720.0000
 20
 264.1400
 11
1720.0000
 21
 255.8600
  0
LINE
  8
200
  6
AUSGEZOGEN
 10
1705.8600
 20
 270.0000
 11
1714.1400
 21
 270.0000
  0
LINE
  8
200
  6
AUSGEZOGEN
 10
1700.0000
 20
 255.8600
 11
1700.0000
 21
 264.1400
  0
LINE
  8
200
  6
AUSGEZOGEN
 10
1675.8600
 20
 250.0000
 11
1684.1400
 21
 250.0000
  0
LINE
  8
200
  6
AUSGEZOGEN
 10
1690.0000
 20
 264.1400
 11
1690.0000
 21
 255.8600
  0
LINE
  8
200
  6
AUSGEZOGEN
 10
1675.8600
 20
 270.0000
 11
1684.1400
 21
 270.0000
  0
LINE
  8
200
  6
AUSGEZOGEN
 10
1670.0000
 20
 255.8600
 11
1670.0000
 21
 264.1400
  0
LINE
  8
200
  6
AUSGEZOGEN
 10
1645.8600
 20
 250.0000
 11
1654.1400
 21
 250.0000
  0
LINE
  8
200
  6
AUSGEZOGEN
 10
1660.0000
 20
 264.1400
 11
1660.0000
 21
 255.8600
  0
LINE
  8
200
  6
AUSGEZOGEN
 10
1645.8600
 20
 270.0000
 11
1654.1400
 21
 270.0000
  0
LINE
  8
200
  6
AUSGEZOGEN
 10
1640.0000
 20
 255.8600
 11
1640.0000
 21
 264.1400
  0
LINE
  8
200
  6
AUSGEZOGEN
 10
1615.8600
 20
 250.0000
 11
1624.1400
 21
 250.0000
  0
LINE
  8
200
  6
AUSGEZOGEN
 10
1630.0000
 20
 264.1400
 11
1630.0000
 21
 255.8600
  0
LINE
  8
200
  6
AUSGEZOGEN
 10
1615.8600
 20
 270.0000
 11
1624.1400
 21
 270.0000
  0
LINE
  8
200
  6
AUSGEZOGEN
 10
1610.0000
 20
 255.8600
 11
1610.0000
 21
 264.1400
  0
LINE
  8
200
  6
AUSGEZOGEN
 10
1585.8600
 20
 250.0000
 11
1594.1400
 21
 250.0000
  0
LINE
  8
200
  6
AUSGEZOGEN
 10
1600.0000
 20
 264.1400
 11
1600.0000
 21
 255.8600
  0
LINE
  8
200
  6
AUSGEZOGEN
 10
1585.8600
 20
 270.0000
 11
1594.1400
 21
 270.0000
  0
LINE
  8
200
  6
AUSGEZOGEN
 10
1580.0000
 20
 255.8600
 11
1580.0000
 21
 264.1400
  0
LINE
  8
200
  6
AUSGEZOGEN
 10
1555.8600
 20
 250.0000
 11
1564.1400
 21
 250.0000
  0
LINE
  8
200
  6
AUSGEZOGEN
 10
1570.0000
 20
 264.1400
 11
1570.0000
 21
 255.8600
  0
LINE
  8
200
  6
AUSGEZOGEN
 10
1555.8600
 20
 270.0000
 11
1564.1400
 21
 270.0000
  0
LINE
  8
200
  6
AUSGEZOGEN
 10
1550.0000
 20
 255.8600
 11
1550.0000
 21
 264.1400
  0
LINE
  8
200
  6
AUSGEZOGEN
 10
1525.8600
 20
 250.0000
 11
1534.1400
 21
 250.0000
  0
LINE
  8
200
  6
AUSGEZOGEN
 10
1540.0000
 20
 264.1400
 11
1540.0000
 21
 255.8600
  0
LINE
  8
200
  6
AUSGEZOGEN
 10
1525.8600
 20
 270.0000
 11
1534.1400
 21
 270.0000
  0
LINE
  8
200
  6
AUSGEZOGEN
 10
1520.0000
 20
 255.8600
 11
1520.0000
 21
 264.1400
  0
LINE
  8
200
  6
AUSGEZOGEN
 10
1495.8600
 20
 250.0000
 11
1504.1400
 21
 250.0000
  0
LINE
  8
200
  6
AUSGEZOGEN
 10
1510.0000
 20
 264.1400
 11
1510.0000
 21
 255.8600
  0
LINE
  8
200
  6
AUSGEZOGEN
 10
1495.8600
 20
 270.0000
 11
1504.1400
 21
 270.0000
  0
LINE
  8
200
  6
AUSGEZOGEN
 10
1490.0000
 20
 255.8600
 11
1490.0000
 21
 264.1400
  0
LINE
  8
200
  6
AUSGEZOGEN
 10
1954.1400
 20
 220.0000
 11
1945.8600
 21
 220.0000
  0
LINE
  8
200
  6
AUSGEZOGEN
 10
1960.0000
 20
 234.1400
 11
1960.0000
 21
 225.8600
  0
LINE
  8
200
  6
AUSGEZOGEN
 10
1945.8600
 20
 240.0000
 11
1954.1400
 21
 240.0000
  0
LINE
  8
200
  6
AUSGEZOGEN
 10
1940.0000
 20
 225.8600
 11
1940.0000
 21
 234.1400
  0
LINE
  8
200
  6
AUSGEZOGEN
 10
1915.8600
 20
 220.0000
 11
1924.1400
 21
 220.0000
  0
LINE
  8
200
  6
AUSGEZOGEN
 10
1930.0000
 20
 234.1400
 11
1930.0000
 21
 225.8600
  0
LINE
  8
200
  6
AUSGEZOGEN
 10
1915.8600
 20
 240.0000
 11
1924.1400
 21
 240.0000
  0
LINE
  8
200
  6
AUSGEZOGEN
 10
1910.0000
 20
 225.8600
 11
1910.0000
 21
 234.1400
  0
LINE
  8
200
  6
AUSGEZOGEN
 10
1885.8600
 20
 220.0000
 11
1894.1400
 21
 220.0000
  0
LINE
  8
200
  6
AUSGEZOGEN
 10
1900.0000
 20
 234.1400
 11
1900.0000
 21
 225.8600
  0
LINE
  8
200
  6
AUSGEZOGEN
 10
1885.8600
 20
 240.0000
 11
1894.1400
 21
 240.0000
  0
LINE
  8
200
  6
AUSGEZOGEN
 10
1880.0000
 20
 225.8600
 11
1880.0000
 21
 234.1400
  0
LINE
  8
200
  6
AUSGEZOGEN
 10
1855.8600
 20
 220.0000
 11
1864.1400
 21
 220.0000
  0
LINE
  8
200
  6
AUSGEZOGEN
 10
1870.0000
 20
 234.1400
 11
1870.0000
 21
 225.8600
  0
LINE
  8
200
  6
AUSGEZOGEN
 10
1855.8600
 20
 240.0000
 11
1864.1400
 21
 240.0000
  0
LINE
  8
200
  6
AUSGEZOGEN
 10
1850.0000
 20
 225.8600
 11
1850.0000
 21
 234.1400
  0
LINE
  8
200
  6
AUSGEZOGEN
 10
1825.8600
 20
 220.0000
 11
1834.1400
 21
 220.0000
  0
LINE
  8
200
  6
AUSGEZOGEN
 10
1840.0000
 20
 234.1400
 11
1840.0000
 21
 225.8600
  0
LINE
  8
200
  6
AUSGEZOGEN
 10
1825.8600
 20
 240.0000
 11
1834.1400
 21
 240.0000
  0
LINE
  8
200
  6
AUSGEZOGEN
 10
1820.0000
 20
 225.8600
 11
1820.0000
 21
 234.1400
  0
LINE
  8
200
  6
AUSGEZOGEN
 10
1795.8600
 20
 220.0000
 11
1804.1400
 21
 220.0000
  0
LINE
  8
200
  6
AUSGEZOGEN
 10
1810.0000
 20
 234.1400
 11
1810.0000
 21
 225.8600
  0
LINE
  8
200
  6
AUSGEZOGEN
 10
1795.8600
 20
 240.0000
 11
1804.1400
 21
 240.0000
  0
LINE
  8
200
  6
AUSGEZOGEN
 10
1790.0000
 20
 225.8600
 11
1790.0000
 21
 234.1400
  0
LINE
  8
200
  6
AUSGEZOGEN
 10
1765.8600
 20
 220.0000
 11
1774.1400
 21
 220.0000
  0
LINE
  8
200
  6
AUSGEZOGEN
 10
1780.0000
 20
 234.1400
 11
1780.0000
 21
 225.8600
  0
LINE
  8
200
  6
AUSGEZOGEN
 10
1765.8600
 20
 240.0000
 11
1774.1400
 21
 240.0000
  0
LINE
  8
200
  6
AUSGEZOGEN
 10
1760.0000
 20
 225.8600
 11
1760.0000
 21
 234.1400
  0
LINE
  8
200
  6
AUSGEZOGEN
 10
1735.8600
 20
 220.0000
 11
1744.1400
 21
 220.0000
  0
LINE
  8
200
  6
AUSGEZOGEN
 10
1750.0000
 20
 234.1400
 11
1750.0000
 21
 225.8600
  0
LINE
  8
200
  6
AUSGEZOGEN
 10
1735.8600
 20
 240.0000
 11
1744.1400
 21
 240.0000
  0
LINE
  8
200
  6
AUSGEZOGEN
 10
1730.0000
 20
 225.8600
 11
1730.0000
 21
 234.1400
  0
LINE
  8
200
  6
AUSGEZOGEN
 10
1705.8600
 20
 220.0000
 11
1714.1400
 21
 220.0000
  0
LINE
  8
200
  6
AUSGEZOGEN
 10
1720.0000
 20
 234.1400
 11
1720.0000
 21
 225.8600
  0
LINE
  8
200
  6
AUSGEZOGEN
 10
1705.8600
 20
 240.0000
 11
1714.1400
 21
 240.0000
  0
LINE
  8
200
  6
AUSGEZOGEN
 10
1700.0000
 20
 225.8600
 11
1700.0000
 21
 234.1400
  0
LINE
  8
200
  6
AUSGEZOGEN
 10
1675.8600
 20
 220.0000
 11
1684.1400
 21
 220.0000
  0
LINE
  8
200
  6
AUSGEZOGEN
 10
1690.0000
 20
 234.1400
 11
1690.0000
 21
 225.8600
  0
LINE
  8
200
  6
AUSGEZOGEN
 10
1675.8600
 20
 240.0000
 11
1684.1400
 21
 240.0000
  0
LINE
  8
200
  6
AUSGEZOGEN
 10
1670.0000
 20
 225.8600
 11
1670.0000
 21
 234.1400
  0
LINE
  8
200
  6
AUSGEZOGEN
 10
1645.8600
 20
 220.0000
 11
1654.1400
 21
 220.0000
  0
LINE
  8
200
  6
AUSGEZOGEN
 10
1660.0000
 20
 234.1400
 11
1660.0000
 21
 225.8600
  0
LINE
  8
200
  6
AUSGEZOGEN
 10
1645.8600
 20
 240.0000
 11
1654.1400
 21
 240.0000
  0
LINE
  8
200
  6
AUSGEZOGEN
 10
1640.0000
 20
 225.8600
 11
1640.0000
 21
 234.1400
  0
LINE
  8
200
  6
AUSGEZOGEN
 10
1615.8600
 20
 220.0000
 11
1624.1400
 21
 220.0000
  0
LINE
  8
200
  6
AUSGEZOGEN
 10
1630.0000
 20
 234.1400
 11
1630.0000
 21
 225.8600
  0
LINE
  8
200
  6
AUSGEZOGEN
 10
1615.8600
 20
 240.0000
 11
1624.1400
 21
 240.0000
  0
LINE
  8
200
  6
AUSGEZOGEN
 10
1610.0000
 20
 225.8600
 11
1610.0000
 21
 234.1400
  0
LINE
  8
200
  6
AUSGEZOGEN
 10
1585.8600
 20
 220.0000
 11
1594.1400
 21
 220.0000
  0
LINE
  8
200
  6
AUSGEZOGEN
 10
1600.0000
 20
 234.1400
 11
1600.0000
 21
 225.8600
  0
LINE
  8
200
  6
AUSGEZOGEN
 10
1585.8600
 20
 240.0000
 11
1594.1400
 21
 240.0000
  0
LINE
  8
200
  6
AUSGEZOGEN
 10
1580.0000
 20
 225.8600
 11
1580.0000
 21
 234.1400
  0
LINE
  8
200
  6
AUSGEZOGEN
 10
1555.8600
 20
 220.0000
 11
1564.1400
 21
 220.0000
  0
LINE
  8
200
  6
AUSGEZOGEN
 10
1570.0000
 20
 234.1400
 11
1570.0000
 21
 225.8600
  0
LINE
  8
200
  6
AUSGEZOGEN
 10
1555.8600
 20
 240.0000
 11
1564.1400
 21
 240.0000
  0
LINE
  8
200
  6
AUSGEZOGEN
 10
1550.0000
 20
 225.8600
 11
1550.0000
 21
 234.1400
  0
LINE
  8
200
  6
AUSGEZOGEN
 10
1525.8600
 20
 220.0000
 11
1534.1400
 21
 220.0000
  0
LINE
  8
200
  6
AUSGEZOGEN
 10
1540.0000
 20
 234.1400
 11
1540.0000
 21
 225.8600
  0
LINE
  8
200
  6
AUSGEZOGEN
 10
1525.8600
 20
 240.0000
 11
1534.1400
 21
 240.0000
  0
LINE
  8
200
  6
AUSGEZOGEN
 10
1520.0000
 20
 225.8600
 11
1520.0000
 21
 234.1400
  0
LINE
  8
200
  6
AUSGEZOGEN
 10
1495.8600
 20
 220.0000
 11
1504.1400
 21
 220.0000
  0
LINE
  8
200
  6
AUSGEZOGEN
 10
1510.0000
 20
 234.1400
 11
1510.0000
 21
 225.8600
  0
LINE
  8
200
  6
AUSGEZOGEN
 10
1495.8600
 20
 240.0000
 11
1504.1400
 21
 240.0000
  0
LINE
  8
200
  6
AUSGEZOGEN
 10
1490.0000
 20
 225.8600
 11
1490.0000
 21
 234.1400
  0
LINE
  8
200
  6
AUSGEZOGEN
 10
1954.1400
 20
 190.0000
 11
1945.8600
 21
 190.0000
  0
LINE
  8
200
  6
AUSGEZOGEN
 10
1960.0000
 20
 204.1400
 11
1960.0000
 21
 195.8600
  0
LINE
  8
200
  6
AUSGEZOGEN
 10
1945.8600
 20
 210.0000
 11
1954.1400
 21
 210.0000
  0
LINE
  8
200
  6
AUSGEZOGEN
 10
1940.0000
 20
 195.8600
 11
1940.0000
 21
 204.1400
  0
LINE
  8
200
  6
AUSGEZOGEN
 10
1915.8600
 20
 190.0000
 11
1924.1400
 21
 190.0000
  0
LINE
  8
200
  6
AUSGEZOGEN
 10
1930.0000
 20
 204.1400
 11
1930.0000
 21
 195.8600
  0
LINE
  8
200
  6
AUSGEZOGEN
 10
1915.8600
 20
 210.0000
 11
1924.1400
 21
 210.0000
  0
LINE
  8
200
  6
AUSGEZOGEN
 10
1910.0000
 20
 195.8600
 11
1910.0000
 21
 204.1400
  0
LINE
  8
200
  6
AUSGEZOGEN
 10
1885.8600
 20
 190.0000
 11
1894.1400
 21
 190.0000
  0
LINE
  8
200
  6
AUSGEZOGEN
 10
1900.0000
 20
 204.1400
 11
1900.0000
 21
 195.8600
  0
LINE
  8
200
  6
AUSGEZOGEN
 10
1885.8600
 20
 210.0000
 11
1894.1400
 21
 210.0000
  0
LINE
  8
200
  6
AUSGEZOGEN
 10
1880.0000
 20
 195.8600
 11
1880.0000
 21
 204.1400
  0
LINE
  8
200
  6
AUSGEZOGEN
 10
1855.8600
 20
 190.0000
 11
1864.1400
 21
 190.0000
  0
LINE
  8
200
  6
AUSGEZOGEN
 10
1870.0000
 20
 204.1400
 11
1870.0000
 21
 195.8600
  0
LINE
  8
200
  6
AUSGEZOGEN
 10
1855.8600
 20
 210.0000
 11
1864.1400
 21
 210.0000
  0
LINE
  8
200
  6
AUSGEZOGEN
 10
1850.0000
 20
 195.8600
 11
1850.0000
 21
 204.1400
  0
LINE
  8
200
  6
AUSGEZOGEN
 10
1825.8600
 20
 190.0000
 11
1834.1400
 21
 190.0000
  0
LINE
  8
200
  6
AUSGEZOGEN
 10
1840.0000
 20
 204.1400
 11
1840.0000
 21
 195.8600
  0
LINE
  8
200
  6
AUSGEZOGEN
 10
1825.8600
 20
 210.0000
 11
1834.1400
 21
 210.0000
  0
LINE
  8
200
  6
AUSGEZOGEN
 10
1820.0000
 20
 195.8600
 11
1820.0000
 21
 204.1400
  0
LINE
  8
200
  6
AUSGEZOGEN
 10
1795.8600
 20
 190.0000
 11
1804.1400
 21
 190.0000
  0
LINE
  8
200
  6
AUSGEZOGEN
 10
1810.0000
 20
 204.1400
 11
1810.0000
 21
 195.8600
  0
LINE
  8
200
  6
AUSGEZOGEN
 10
1795.8600
 20
 210.0000
 11
1804.1400
 21
 210.0000
  0
LINE
  8
200
  6
AUSGEZOGEN
 10
1790.0000
 20
 195.8600
 11
1790.0000
 21
 204.1400
  0
LINE
  8
200
  6
AUSGEZOGEN
 10
1765.8600
 20
 190.0000
 11
1774.1400
 21
 190.0000
  0
LINE
  8
200
  6
AUSGEZOGEN
 10
1780.0000
 20
 204.1400
 11
1780.0000
 21
 195.8600
  0
LINE
  8
200
  6
AUSGEZOGEN
 10
1765.8600
 20
 210.0000
 11
1774.1400
 21
 210.0000
  0
LINE
  8
200
  6
AUSGEZOGEN
 10
1760.0000
 20
 195.8600
 11
1760.0000
 21
 204.1400
  0
LINE
  8
200
  6
AUSGEZOGEN
 10
1735.8600
 20
 190.0000
 11
1744.1400
 21
 190.0000
  0
LINE
  8
200
  6
AUSGEZOGEN
 10
1750.0000
 20
 204.1400
 11
1750.0000
 21
 195.8600
  0
LINE
  8
200
  6
AUSGEZOGEN
 10
1735.8600
 20
 210.0000
 11
1744.1400
 21
 210.0000
  0
LINE
  8
200
  6
AUSGEZOGEN
 10
1730.0000
 20
 195.8600
 11
1730.0000
 21
 204.1400
  0
LINE
  8
200
  6
AUSGEZOGEN
 10
1705.8600
 20
 190.0000
 11
1714.1400
 21
 190.0000
  0
LINE
  8
200
  6
AUSGEZOGEN
 10
1720.0000
 20
 204.1400
 11
1720.0000
 21
 195.8600
  0
LINE
  8
200
  6
AUSGEZOGEN
 10
1705.8600
 20
 210.0000
 11
1714.1400
 21
 210.0000
  0
LINE
  8
200
  6
AUSGEZOGEN
 10
1700.0000
 20
 195.8600
 11
1700.0000
 21
 204.1400
  0
LINE
  8
200
  6
AUSGEZOGEN
 10
1675.8600
 20
 190.0000
 11
1684.1400
 21
 190.0000
  0
LINE
  8
200
  6
AUSGEZOGEN
 10
1690.0000
 20
 204.1400
 11
1690.0000
 21
 195.8600
  0
LINE
  8
200
  6
AUSGEZOGEN
 10
1675.8600
 20
 210.0000
 11
1684.1400
 21
 210.0000
  0
LINE
  8
200
  6
AUSGEZOGEN
 10
1670.0000
 20
 195.8600
 11
1670.0000
 21
 204.1400
  0
LINE
  8
200
  6
AUSGEZOGEN
 10
1645.8600
 20
 190.0000
 11
1654.1400
 21
 190.0000
  0
LINE
  8
200
  6
AUSGEZOGEN
 10
1660.0000
 20
 204.1400
 11
1660.0000
 21
 195.8600
  0
LINE
  8
200
  6
AUSGEZOGEN
 10
1645.8600
 20
 210.0000
 11
1654.1400
 21
 210.0000
  0
LINE
  8
200
  6
AUSGEZOGEN
 10
1640.0000
 20
 195.8600
 11
1640.0000
 21
 204.1400
  0
LINE
  8
200
  6
AUSGEZOGEN
 10
1615.8600
 20
 190.0000
 11
1624.1400
 21
 190.0000
  0
LINE
  8
200
  6
AUSGEZOGEN
 10
1630.0000
 20
 204.1400
 11
1630.0000
 21
 195.8600
  0
LINE
  8
200
  6
AUSGEZOGEN
 10
1615.8600
 20
 210.0000
 11
1624.1400
 21
 210.0000
  0
LINE
  8
200
  6
AUSGEZOGEN
 10
1610.0000
 20
 195.8600
 11
1610.0000
 21
 204.1400
  0
LINE
  8
200
  6
AUSGEZOGEN
 10
1585.8600
 20
 190.0000
 11
1594.1400
 21
 190.0000
  0
LINE
  8
200
  6
AUSGEZOGEN
 10
1600.0000
 20
 204.1400
 11
1600.0000
 21
 195.8600
  0
LINE
  8
200
  6
AUSGEZOGEN
 10
1585.8600
 20
 210.0000
 11
1594.1400
 21
 210.0000
  0
LINE
  8
200
  6
AUSGEZOGEN
 10
1580.0000
 20
 195.8600
 11
1580.0000
 21
 204.1400
  0
LINE
  8
200
  6
AUSGEZOGEN
 10
1555.8600
 20
 190.0000
 11
1564.1400
 21
 190.0000
  0
LINE
  8
200
  6
AUSGEZOGEN
 10
1570.0000
 20
 204.1400
 11
1570.0000
 21
 195.8600
  0
LINE
  8
200
  6
AUSGEZOGEN
 10
1555.8600
 20
 210.0000
 11
1564.1400
 21
 210.0000
  0
LINE
  8
200
  6
AUSGEZOGEN
 10
1550.0000
 20
 195.8600
 11
1550.0000
 21
 204.1400
  0
LINE
  8
200
  6
AUSGEZOGEN
 10
1525.8600
 20
 190.0000
 11
1534.1400
 21
 190.0000
  0
LINE
  8
200
  6
AUSGEZOGEN
 10
1540.0000
 20
 204.1400
 11
1540.0000
 21
 195.8600
  0
LINE
  8
200
  6
AUSGEZOGEN
 10
1525.8600
 20
 210.0000
 11
1534.1400
 21
 210.0000
  0
LINE
  8
200
  6
AUSGEZOGEN
 10
1520.0000
 20
 195.8600
 11
1520.0000
 21
 204.1400
  0
LINE
  8
200
  6
AUSGEZOGEN
 10
1495.8600
 20
 190.0000
 11
1504.1400
 21
 190.0000
  0
LINE
  8
200
  6
AUSGEZOGEN
 10
1510.0000
 20
 204.1400
 11
1510.0000
 21
 195.8600
  0
LINE
  8
200
  6
AUSGEZOGEN
 10
1495.8600
 20
 210.0000
 11
1504.1400
 21
 210.0000
  0
LINE
  8
200
  6
AUSGEZOGEN
 10
1490.0000
 20
 195.8600
 11
1490.0000
 21
 204.1400
  0
LINE
  8
200
  6
AUSGEZOGEN
 10
1954.1400
 20
 160.0000
 11
1945.8600
 21
 160.0000
  0
LINE
  8
200
  6
AUSGEZOGEN
 10
1960.0000
 20
 174.1400
 11
1960.0000
 21
 165.8600
  0
LINE
  8
200
  6
AUSGEZOGEN
 10
1945.8600
 20
 180.0000
 11
1954.1400
 21
 180.0000
  0
LINE
  8
200
  6
AUSGEZOGEN
 10
1940.0000
 20
 165.8600
 11
1940.0000
 21
 174.1400
  0
LINE
  8
200
  6
AUSGEZOGEN
 10
1915.8600
 20
 160.0000
 11
1924.1400
 21
 160.0000
  0
LINE
  8
200
  6
AUSGEZOGEN
 10
1930.0000
 20
 174.1400
 11
1930.0000
 21
 165.8600
  0
LINE
  8
200
  6
AUSGEZOGEN
 10
1915.8600
 20
 180.0000
 11
1924.1400
 21
 180.0000
  0
LINE
  8
200
  6
AUSGEZOGEN
 10
1910.0000
 20
 165.8600
 11
1910.0000
 21
 174.1400
  0
LINE
  8
200
  6
AUSGEZOGEN
 10
1885.8600
 20
 160.0000
 11
1894.1400
 21
 160.0000
  0
LINE
  8
200
  6
AUSGEZOGEN
 10
1900.0000
 20
 174.1400
 11
1900.0000
 21
 165.8600
  0
LINE
  8
200
  6
AUSGEZOGEN
 10
1885.8600
 20
 180.0000
 11
1894.1400
 21
 180.0000
  0
LINE
  8
200
  6
AUSGEZOGEN
 10
1880.0000
 20
 165.8600
 11
1880.0000
 21
 174.1400
  0
LINE
  8
200
  6
AUSGEZOGEN
 10
1855.8600
 20
 160.0000
 11
1864.1400
 21
 160.0000
  0
LINE
  8
200
  6
AUSGEZOGEN
 10
1870.0000
 20
 174.1400
 11
1870.0000
 21
 165.8600
  0
LINE
  8
200
  6
AUSGEZOGEN
 10
1855.8600
 20
 180.0000
 11
1864.1400
 21
 180.0000
  0
LINE
  8
200
  6
AUSGEZOGEN
 10
1850.0000
 20
 165.8600
 11
1850.0000
 21
 174.1400
  0
LINE
  8
200
  6
AUSGEZOGEN
 10
1825.8600
 20
 160.0000
 11
1834.1400
 21
 160.0000
  0
LINE
  8
200
  6
AUSGEZOGEN
 10
1840.0000
 20
 174.1400
 11
1840.0000
 21
 165.8600
  0
LINE
  8
200
  6
AUSGEZOGEN
 10
1825.8600
 20
 180.0000
 11
1834.1400
 21
 180.0000
  0
LINE
  8
200
  6
AUSGEZOGEN
 10
1820.0000
 20
 165.8600
 11
1820.0000
 21
 174.1400
  0
LINE
  8
200
  6
AUSGEZOGEN
 10
1795.8600
 20
 160.0000
 11
1804.1400
 21
 160.0000
  0
LINE
  8
200
  6
AUSGEZOGEN
 10
1810.0000
 20
 174.1400
 11
1810.0000
 21
 165.8600
  0
LINE
  8
200
  6
AUSGEZOGEN
 10
1795.8600
 20
 180.0000
 11
1804.1400
 21
 180.0000
  0
LINE
  8
200
  6
AUSGEZOGEN
 10
1790.0000
 20
 165.8600
 11
1790.0000
 21
 174.1400
  0
LINE
  8
200
  6
AUSGEZOGEN
 10
1765.8600
 20
 160.0000
 11
1774.1400
 21
 160.0000
  0
LINE
  8
200
  6
AUSGEZOGEN
 10
1780.0000
 20
 174.1400
 11
1780.0000
 21
 165.8600
  0
LINE
  8
200
  6
AUSGEZOGEN
 10
1765.8600
 20
 180.0000
 11
1774.1400
 21
 180.0000
  0
LINE
  8
200
  6
AUSGEZOGEN
 10
1760.0000
 20
 165.8600
 11
1760.0000
 21
 174.1400
  0
LINE
  8
200
  6
AUSGEZOGEN
 10
1735.8600
 20
 160.0000
 11
1744.1400
 21
 160.0000
  0
LINE
  8
200
  6
AUSGEZOGEN
 10
1750.0000
 20
 174.1400
 11
1750.0000
 21
 165.8600
  0
LINE
  8
200
  6
AUSGEZOGEN
 10
1735.8600
 20
 180.0000
 11
1744.1400
 21
 180.0000
  0
LINE
  8
200
  6
AUSGEZOGEN
 10
1730.0000
 20
 165.8600
 11
1730.0000
 21
 174.1400
  0
LINE
  8
200
  6
AUSGEZOGEN
 10
1705.8600
 20
 160.0000
 11
1714.1400
 21
 160.0000
  0
LINE
  8
200
  6
AUSGEZOGEN
 10
1720.0000
 20
 174.1400
 11
1720.0000
 21
 165.8600
  0
LINE
  8
200
  6
AUSGEZOGEN
 10
1705.8600
 20
 180.0000
 11
1714.1400
 21
 180.0000
  0
LINE
  8
200
  6
AUSGEZOGEN
 10
1700.0000
 20
 165.8600
 11
1700.0000
 21
 174.1400
  0
LINE
  8
200
  6
AUSGEZOGEN
 10
1675.8600
 20
 160.0000
 11
1684.1400
 21
 160.0000
  0
LINE
  8
200
  6
AUSGEZOGEN
 10
1690.0000
 20
 174.1400
 11
1690.0000
 21
 165.8600
  0
LINE
  8
200
  6
AUSGEZOGEN
 10
1675.8600
 20
 180.0000
 11
1684.1400
 21
 180.0000
  0
LINE
  8
200
  6
AUSGEZOGEN
 10
1670.0000
 20
 165.8600
 11
1670.0000
 21
 174.1400
  0
LINE
  8
200
  6
AUSGEZOGEN
 10
1645.8600
 20
 160.0000
 11
1654.1400
 21
 160.0000
  0
LINE
  8
200
  6
AUSGEZOGEN
 10
1660.0000
 20
 174.1400
 11
1660.0000
 21
 165.8600
  0
LINE
  8
200
  6
AUSGEZOGEN
 10
1645.8600
 20
 180.0000
 11
1654.1400
 21
 180.0000
  0
LINE
  8
200
  6
AUSGEZOGEN
 10
1640.0000
 20
 165.8600
 11
1640.0000
 21
 174.1400
  0
LINE
  8
200
  6
AUSGEZOGEN
 10
1615.8600
 20
 160.0000
 11
1624.1400
 21
 160.0000
  0
LINE
  8
200
  6
AUSGEZOGEN
 10
1630.0000
 20
 174.1400
 11
1630.0000
 21
 165.8600
  0
LINE
  8
200
  6
AUSGEZOGEN
 10
1615.8600
 20
 180.0000
 11
1624.1400
 21
 180.0000
  0
LINE
  8
200
  6
AUSGEZOGEN
 10
1610.0000
 20
 165.8600
 11
1610.0000
 21
 174.1400
  0
LINE
  8
200
  6
AUSGEZOGEN
 10
1585.8600
 20
 160.0000
 11
1594.1400
 21
 160.0000
  0
LINE
  8
200
  6
AUSGEZOGEN
 10
1600.0000
 20
 174.1400
 11
1600.0000
 21
 165.8600
  0
LINE
  8
200
  6
AUSGEZOGEN
 10
1585.8600
 20
 180.0000
 11
1594.1400
 21
 180.0000
  0
LINE
  8
200
  6
AUSGEZOGEN
 10
1580.0000
 20
 165.8600
 11
1580.0000
 21
 174.1400
  0
LINE
  8
200
  6
AUSGEZOGEN
 10
1555.8600
 20
 160.0000
 11
1564.1400
 21
 160.0000
  0
LINE
  8
200
  6
AUSGEZOGEN
 10
1570.0000
 20
 174.1400
 11
1570.0000
 21
 165.8600
  0
LINE
  8
200
  6
AUSGEZOGEN
 10
1555.8600
 20
 180.0000
 11
1564.1400
 21
 180.0000
  0
LINE
  8
200
  6
AUSGEZOGEN
 10
1550.0000
 20
 165.8600
 11
1550.0000
 21
 174.1400
  0
LINE
  8
200
  6
AUSGEZOGEN
 10
1525.8600
 20
 160.0000
 11
1534.1400
 21
 160.0000
  0
LINE
  8
200
  6
AUSGEZOGEN
 10
1540.0000
 20
 174.1400
 11
1540.0000
 21
 165.8600
  0
LINE
  8
200
  6
AUSGEZOGEN
 10
1525.8600
 20
 180.0000
 11
1534.1400
 21
 180.0000
  0
LINE
  8
200
  6
AUSGEZOGEN
 10
1520.0000
 20
 165.8600
 11
1520.0000
 21
 174.1400
  0
LINE
  8
200
  6
AUSGEZOGEN
 10
1495.8600
 20
 160.0000
 11
1504.1400
 21
 160.0000
  0
LINE
  8
200
  6
AUSGEZOGEN
 10
1510.0000
 20
 174.1400
 11
1510.0000
 21
 165.8600
  0
LINE
  8
200
  6
AUSGEZOGEN
 10
1495.8600
 20
 180.0000
 11
1504.1400
 21
 180.0000
  0
LINE
  8
200
  6
AUSGEZOGEN
 10
1490.0000
 20
 165.8600
 11
1490.0000
 21
 174.1400
  0
LINE
  8
200
  6
AUSGEZOGEN
 10
1954.1400
 20
 130.0000
 11
1945.8600
 21
 130.0000
  0
LINE
  8
200
  6
AUSGEZOGEN
 10
1960.0000
 20
 144.1400
 11
1960.0000
 21
 135.8600
  0
LINE
  8
200
  6
AUSGEZOGEN
 10
1945.8600
 20
 150.0000
 11
1954.1400
 21
 150.0000
  0
LINE
  8
200
  6
AUSGEZOGEN
 10
1940.0000
 20
 135.8600
 11
1940.0000
 21
 144.1400
  0
LINE
  8
200
  6
AUSGEZOGEN
 10
1915.8600
 20
 130.0000
 11
1924.1400
 21
 130.0000
  0
LINE
  8
200
  6
AUSGEZOGEN
 10
1930.0000
 20
 144.1400
 11
1930.0000
 21
 135.8600
  0
LINE
  8
200
  6
AUSGEZOGEN
 10
1915.8600
 20
 150.0000
 11
1924.1400
 21
 150.0000
  0
LINE
  8
200
  6
AUSGEZOGEN
 10
1910.0000
 20
 135.8600
 11
1910.0000
 21
 144.1400
  0
LINE
  8
200
  6
AUSGEZOGEN
 10
1885.8600
 20
 130.0000
 11
1894.1400
 21
 130.0000
  0
LINE
  8
200
  6
AUSGEZOGEN
 10
1900.0000
 20
 144.1400
 11
1900.0000
 21
 135.8600
  0
LINE
  8
200
  6
AUSGEZOGEN
 10
1885.8600
 20
 150.0000
 11
1894.1400
 21
 150.0000
  0
LINE
  8
200
  6
AUSGEZOGEN
 10
1880.0000
 20
 135.8600
 11
1880.0000
 21
 144.1400
  0
LINE
  8
200
  6
AUSGEZOGEN
 10
1855.8600
 20
 130.0000
 11
1864.1400
 21
 130.0000
  0
LINE
  8
200
  6
AUSGEZOGEN
 10
1870.0000
 20
 144.1400
 11
1870.0000
 21
 135.8600
  0
LINE
  8
200
  6
AUSGEZOGEN
 10
1855.8600
 20
 150.0000
 11
1864.1400
 21
 150.0000
  0
LINE
  8
200
  6
AUSGEZOGEN
 10
1850.0000
 20
 135.8600
 11
1850.0000
 21
 144.1400
  0
LINE
  8
200
  6
AUSGEZOGEN
 10
1825.8600
 20
 130.0000
 11
1834.1400
 21
 130.0000
  0
LINE
  8
200
  6
AUSGEZOGEN
 10
1840.0000
 20
 144.1400
 11
1840.0000
 21
 135.8600
  0
LINE
  8
200
  6
AUSGEZOGEN
 10
1825.8600
 20
 150.0000
 11
1834.1400
 21
 150.0000
  0
LINE
  8
200
  6
AUSGEZOGEN
 10
1820.0000
 20
 135.8600
 11
1820.0000
 21
 144.1400
  0
LINE
  8
200
  6
AUSGEZOGEN
 10
1795.8600
 20
 130.0000
 11
1804.1400
 21
 130.0000
  0
LINE
  8
200
  6
AUSGEZOGEN
 10
1810.0000
 20
 144.1400
 11
1810.0000
 21
 135.8600
  0
LINE
  8
200
  6
AUSGEZOGEN
 10
1795.8600
 20
 150.0000
 11
1804.1400
 21
 150.0000
  0
LINE
  8
200
  6
AUSGEZOGEN
 10
1790.0000
 20
 135.8600
 11
1790.0000
 21
 144.1400
  0
LINE
  8
200
  6
AUSGEZOGEN
 10
1765.8600
 20
 130.0000
 11
1774.1400
 21
 130.0000
  0
LINE
  8
200
  6
AUSGEZOGEN
 10
1780.0000
 20
 144.1400
 11
1780.0000
 21
 135.8600
  0
LINE
  8
200
  6
AUSGEZOGEN
 10
1765.8600
 20
 150.0000
 11
1774.1400
 21
 150.0000
  0
LINE
  8
200
  6
AUSGEZOGEN
 10
1760.0000
 20
 135.8600
 11
1760.0000
 21
 144.1400
  0
LINE
  8
200
  6
AUSGEZOGEN
 10
1735.8600
 20
 130.0000
 11
1744.1400
 21
 130.0000
  0
LINE
  8
200
  6
AUSGEZOGEN
 10
1750.0000
 20
 144.1400
 11
1750.0000
 21
 135.8600
  0
LINE
  8
200
  6
AUSGEZOGEN
 10
1735.8600
 20
 150.0000
 11
1744.1400
 21
 150.0000
  0
LINE
  8
200
  6
AUSGEZOGEN
 10
1730.0000
 20
 135.8600
 11
1730.0000
 21
 144.1400
  0
LINE
  8
200
  6
AUSGEZOGEN
 10
1705.8600
 20
 130.0000
 11
1714.1400
 21
 130.0000
  0
LINE
  8
200
  6
AUSGEZOGEN
 10
1720.0000
 20
 144.1400
 11
1720.0000
 21
 135.8600
  0
LINE
  8
200
  6
AUSGEZOGEN
 10
1705.8600
 20
 150.0000
 11
1714.1400
 21
 150.0000
  0
LINE
  8
200
  6
AUSGEZOGEN
 10
1700.0000
 20
 135.8600
 11
1700.0000
 21
 144.1400
  0
LINE
  8
200
  6
AUSGEZOGEN
 10
1675.8600
 20
 130.0000
 11
1684.1400
 21
 130.0000
  0
LINE
  8
200
  6
AUSGEZOGEN
 10
1690.0000
 20
 144.1400
 11
1690.0000
 21
 135.8600
  0
LINE
  8
200
  6
AUSGEZOGEN
 10
1675.8600
 20
 150.0000
 11
1684.1400
 21
 150.0000
  0
LINE
  8
200
  6
AUSGEZOGEN
 10
1670.0000
 20
 135.8600
 11
1670.0000
 21
 144.1400
  0
LINE
  8
200
  6
AUSGEZOGEN
 10
1645.8600
 20
 130.0000
 11
1654.1400
 21
 130.0000
  0
LINE
  8
200
  6
AUSGEZOGEN
 10
1660.0000
 20
 144.1400
 11
1660.0000
 21
 135.8600
  0
LINE
  8
200
  6
AUSGEZOGEN
 10
1645.8600
 20
 150.0000
 11
1654.1400
 21
 150.0000
  0
LINE
  8
200
  6
AUSGEZOGEN
 10
1640.0000
 20
 135.8600
 11
1640.0000
 21
 144.1400
  0
LINE
  8
200
  6
AUSGEZOGEN
 10
1615.8600
 20
 130.0000
 11
1624.1400
 21
 130.0000
  0
LINE
  8
200
  6
AUSGEZOGEN
 10
1630.0000
 20
 144.1400
 11
1630.0000
 21
 135.8600
  0
LINE
  8
200
  6
AUSGEZOGEN
 10
1615.8600
 20
 150.0000
 11
1624.1400
 21
 150.0000
  0
LINE
  8
200
  6
AUSGEZOGEN
 10
1610.0000
 20
 135.8600
 11
1610.0000
 21
 144.1400
  0
LINE
  8
200
  6
AUSGEZOGEN
 10
1585.8600
 20
 130.0000
 11
1594.1400
 21
 130.0000
  0
LINE
  8
200
  6
AUSGEZOGEN
 10
1600.0000
 20
 144.1400
 11
1600.0000
 21
 135.8600
  0
LINE
  8
200
  6
AUSGEZOGEN
 10
1585.8600
 20
 150.0000
 11
1594.1400
 21
 150.0000
  0
LINE
  8
200
  6
AUSGEZOGEN
 10
1580.0000
 20
 135.8600
 11
1580.0000
 21
 144.1400
  0
LINE
  8
200
  6
AUSGEZOGEN
 10
1555.8600
 20
 130.0000
 11
1564.1400
 21
 130.0000
  0
LINE
  8
200
  6
AUSGEZOGEN
 10
1570.0000
 20
 144.1400
 11
1570.0000
 21
 135.8600
  0
LINE
  8
200
  6
AUSGEZOGEN
 10
1555.8600
 20
 150.0000
 11
1564.1400
 21
 150.0000
  0
LINE
  8
200
  6
AUSGEZOGEN
 10
1550.0000
 20
 135.8600
 11
1550.0000
 21
 144.1400
  0
LINE
  8
200
  6
AUSGEZOGEN
 10
1525.8600
 20
 130.0000
 11
1534.1400
 21
 130.0000
  0
LINE
  8
200
  6
AUSGEZOGEN
 10
1540.0000
 20
 144.1400
 11
1540.0000
 21
 135.8600
  0
LINE
  8
200
  6
AUSGEZOGEN
 10
1525.8600
 20
 150.0000
 11
1534.1400
 21
 150.0000
  0
LINE
  8
200
  6
AUSGEZOGEN
 10
1520.0000
 20
 135.8600
 11
1520.0000
 21
 144.1400
  0
LINE
  8
200
  6
AUSGEZOGEN
 10
1495.8600
 20
 130.0000
 11
1504.1400
 21
 130.0000
  0
LINE
  8
200
  6
AUSGEZOGEN
 10
1510.0000
 20
 144.1400
 11
1510.0000
 21
 135.8600
  0
LINE
  8
200
  6
AUSGEZOGEN
 10
1495.8600
 20
 150.0000
 11
1504.1400
 21
 150.0000
  0
LINE
  8
200
  6
AUSGEZOGEN
 10
1490.0000
 20
 135.8600
 11
1490.0000
 21
 144.1400
  0
LINE
  8
200
  6
AUSGEZOGEN
 10
1954.1400
 20
 100.0000
 11
1945.8600
 21
 100.0000
  0
LINE
  8
200
  6
AUSGEZOGEN
 10
1960.0000
 20
 114.1400
 11
1960.0000
 21
 105.8600
  0
LINE
  8
200
  6
AUSGEZOGEN
 10
1945.8600
 20
 120.0000
 11
1954.1400
 21
 120.0000
  0
LINE
  8
200
  6
AUSGEZOGEN
 10
1940.0000
 20
 105.8600
 11
1940.0000
 21
 114.1400
  0
LINE
  8
200
  6
AUSGEZOGEN
 10
1915.8600
 20
 100.0000
 11
1924.1400
 21
 100.0000
  0
LINE
  8
200
  6
AUSGEZOGEN
 10
1930.0000
 20
 114.1400
 11
1930.0000
 21
 105.8600
  0
LINE
  8
200
  6
AUSGEZOGEN
 10
1915.8600
 20
 120.0000
 11
1924.1400
 21
 120.0000
  0
LINE
  8
200
  6
AUSGEZOGEN
 10
1910.0000
 20
 105.8600
 11
1910.0000
 21
 114.1400
  0
LINE
  8
200
  6
AUSGEZOGEN
 10
1885.8600
 20
 100.0000
 11
1894.1400
 21
 100.0000
  0
LINE
  8
200
  6
AUSGEZOGEN
 10
1900.0000
 20
 114.1400
 11
1900.0000
 21
 105.8600
  0
LINE
  8
200
  6
AUSGEZOGEN
 10
1885.8600
 20
 120.0000
 11
1894.1400
 21
 120.0000
  0
LINE
  8
200
  6
AUSGEZOGEN
 10
1880.0000
 20
 105.8600
 11
1880.0000
 21
 114.1400
  0
LINE
  8
200
  6
AUSGEZOGEN
 10
1855.8600
 20
 100.0000
 11
1864.1400
 21
 100.0000
  0
LINE
  8
200
  6
AUSGEZOGEN
 10
1870.0000
 20
 114.1400
 11
1870.0000
 21
 105.8600
  0
LINE
  8
200
  6
AUSGEZOGEN
 10
1855.8600
 20
 120.0000
 11
1864.1400
 21
 120.0000
  0
LINE
  8
200
  6
AUSGEZOGEN
 10
1850.0000
 20
 105.8600
 11
1850.0000
 21
 114.1400
  0
LINE
  8
200
  6
AUSGEZOGEN
 10
1825.8600
 20
 100.0000
 11
1834.1400
 21
 100.0000
  0
LINE
  8
200
  6
AUSGEZOGEN
 10
1840.0000
 20
 114.1400
 11
1840.0000
 21
 105.8600
  0
LINE
  8
200
  6
AUSGEZOGEN
 10
1825.8600
 20
 120.0000
 11
1834.1400
 21
 120.0000
  0
LINE
  8
200
  6
AUSGEZOGEN
 10
1820.0000
 20
 105.8600
 11
1820.0000
 21
 114.1400
  0
LINE
  8
200
  6
AUSGEZOGEN
 10
1795.8600
 20
 100.0000
 11
1804.1400
 21
 100.0000
  0
LINE
  8
200
  6
AUSGEZOGEN
 10
1810.0000
 20
 114.1400
 11
1810.0000
 21
 105.8600
  0
LINE
  8
200
  6
AUSGEZOGEN
 10
1795.8600
 20
 120.0000
 11
1804.1400
 21
 120.0000
  0
LINE
  8
200
  6
AUSGEZOGEN
 10
1790.0000
 20
 105.8600
 11
1790.0000
 21
 114.1400
  0
LINE
  8
200
  6
AUSGEZOGEN
 10
1765.8600
 20
 100.0000
 11
1774.1400
 21
 100.0000
  0
LINE
  8
200
  6
AUSGEZOGEN
 10
1780.0000
 20
 114.1400
 11
1780.0000
 21
 105.8600
  0
LINE
  8
200
  6
AUSGEZOGEN
 10
1765.8600
 20
 120.0000
 11
1774.1400
 21
 120.0000
  0
LINE
  8
200
  6
AUSGEZOGEN
 10
1760.0000
 20
 105.8600
 11
1760.0000
 21
 114.1400
  0
LINE
  8
200
  6
AUSGEZOGEN
 10
1735.8600
 20
 100.0000
 11
1744.1400
 21
 100.0000
  0
LINE
  8
200
  6
AUSGEZOGEN
 10
1750.0000
 20
 114.1400
 11
1750.0000
 21
 105.8600
  0
LINE
  8
200
  6
AUSGEZOGEN
 10
1735.8600
 20
 120.0000
 11
1744.1400
 21
 120.0000
  0
LINE
  8
200
  6
AUSGEZOGEN
 10
1730.0000
 20
 105.8600
 11
1730.0000
 21
 114.1400
  0
LINE
  8
200
  6
AUSGEZOGEN
 10
1705.8600
 20
 100.0000
 11
1714.1400
 21
 100.0000
  0
LINE
  8
200
  6
AUSGEZOGEN
 10
1720.0000
 20
 114.1400
 11
1720.0000
 21
 105.8600
  0
LINE
  8
200
  6
AUSGEZOGEN
 10
1705.8600
 20
 120.0000
 11
1714.1400
 21
 120.0000
  0
LINE
  8
200
  6
AUSGEZOGEN
 10
1700.0000
 20
 105.8600
 11
1700.0000
 21
 114.1400
  0
LINE
  8
200
  6
AUSGEZOGEN
 10
1675.8600
 20
 100.0000
 11
1684.1400
 21
 100.0000
  0
LINE
  8
200
  6
AUSGEZOGEN
 10
1690.0000
 20
 114.1400
 11
1690.0000
 21
 105.8600
  0
LINE
  8
200
  6
AUSGEZOGEN
 10
1675.8600
 20
 120.0000
 11
1684.1400
 21
 120.0000
  0
LINE
  8
200
  6
AUSGEZOGEN
 10
1670.0000
 20
 105.8600
 11
1670.0000
 21
 114.1400
  0
LINE
  8
200
  6
AUSGEZOGEN
 10
1645.8600
 20
 100.0000
 11
1654.1400
 21
 100.0000
  0
LINE
  8
200
  6
AUSGEZOGEN
 10
1660.0000
 20
 114.1400
 11
1660.0000
 21
 105.8600
  0
LINE
  8
200
  6
AUSGEZOGEN
 10
1645.8600
 20
 120.0000
 11
1654.1400
 21
 120.0000
  0
LINE
  8
200
  6
AUSGEZOGEN
 10
1640.0000
 20
 105.8600
 11
1640.0000
 21
 114.1400
  0
LINE
  8
200
  6
AUSGEZOGEN
 10
1615.8600
 20
 100.0000
 11
1624.1400
 21
 100.0000
  0
LINE
  8
200
  6
AUSGEZOGEN
 10
1630.0000
 20
 114.1400
 11
1630.0000
 21
 105.8600
  0
LINE
  8
200
  6
AUSGEZOGEN
 10
1615.8600
 20
 120.0000
 11
1624.1400
 21
 120.0000
  0
LINE
  8
200
  6
AUSGEZOGEN
 10
1610.0000
 20
 105.8600
 11
1610.0000
 21
 114.1400
  0
LINE
  8
200
  6
AUSGEZOGEN
 10
1585.8600
 20
 100.0000
 11
1594.1400
 21
 100.0000
  0
LINE
  8
200
  6
AUSGEZOGEN
 10
1600.0000
 20
 114.1400
 11
1600.0000
 21
 105.8600
  0
LINE
  8
200
  6
AUSGEZOGEN
 10
1585.8600
 20
 120.0000
 11
1594.1400
 21
 120.0000
  0
LINE
  8
200
  6
AUSGEZOGEN
 10
1580.0000
 20
 105.8600
 11
1580.0000
 21
 114.1400
  0
LINE
  8
200
  6
AUSGEZOGEN
 10
1555.8600
 20
 100.0000
 11
1564.1400
 21
 100.0000
  0
LINE
  8
200
  6
AUSGEZOGEN
 10
1570.0000
 20
 114.1400
 11
1570.0000
 21
 105.8600
  0
LINE
  8
200
  6
AUSGEZOGEN
 10
1555.8600
 20
 120.0000
 11
1564.1400
 21
 120.0000
  0
LINE
  8
200
  6
AUSGEZOGEN
 10
1550.0000
 20
 105.8600
 11
1550.0000
 21
 114.1400
  0
LINE
  8
200
  6
AUSGEZOGEN
 10
1525.8600
 20
 100.0000
 11
1534.1400
 21
 100.0000
  0
LINE
  8
200
  6
AUSGEZOGEN
 10
1540.0000
 20
 114.1400
 11
1540.0000
 21
 105.8600
  0
LINE
  8
200
  6
AUSGEZOGEN
 10
1525.8600
 20
 120.0000
 11
1534.1400
 21
 120.0000
  0
LINE
  8
200
  6
AUSGEZOGEN
 10
1520.0000
 20
 105.8600
 11
1520.0000
 21
 114.1400
  0
LINE
  8
200
  6
AUSGEZOGEN
 10
1495.8600
 20
 100.0000
 11
1504.1400
 21
 100.0000
  0
LINE
  8
200
  6
AUSGEZOGEN
 10
1510.0000
 20
 114.1400
 11
1510.0000
 21
 105.8600
  0
LINE
  8
200
  6
AUSGEZOGEN
 10
1495.8600
 20
 120.0000
 11
1504.1400
 21
 120.0000
  0
LINE
  8
200
  6
AUSGEZOGEN
 10
1490.0000
 20
 105.8600
 11
1490.0000
 21
 114.1400
  0
LINE
  8
200
  6
AUSGEZOGEN
 10
1954.1400
 20
 280.0000
 11
1945.8600
 21
 280.0000
  0
LINE
  8
200
  6
AUSGEZOGEN
 10
1960.0000
 20
 294.1400
 11
1960.0000
 21
 285.8600
  0
LINE
  8
200
  6
AUSGEZOGEN
 10
1945.8600
 20
 300.0000
 11
1954.1400
 21
 300.0000
  0
LINE
  8
200
  6
AUSGEZOGEN
 10
1940.0000
 20
 285.8600
 11
1940.0000
 21
 294.1400
  0
LINE
  8
200
  6
AUSGEZOGEN
 10
1915.8600
 20
 280.0000
 11
1924.1400
 21
 280.0000
  0
LINE
  8
200
  6
AUSGEZOGEN
 10
1930.0000
 20
 294.1400
 11
1930.0000
 21
 285.8600
  0
LINE
  8
200
  6
AUSGEZOGEN
 10
1915.8600
 20
 300.0000
 11
1924.1400
 21
 300.0000
  0
LINE
  8
200
  6
AUSGEZOGEN
 10
1910.0000
 20
 285.8600
 11
1910.0000
 21
 294.1400
  0
LINE
  8
200
  6
AUSGEZOGEN
 10
1885.8600
 20
 280.0000
 11
1894.1400
 21
 280.0000
  0
LINE
  8
200
  6
AUSGEZOGEN
 10
1900.0000
 20
 294.1400
 11
1900.0000
 21
 285.8600
  0
LINE
  8
200
  6
AUSGEZOGEN
 10
1885.8600
 20
 300.0000
 11
1894.1400
 21
 300.0000
  0
LINE
  8
200
  6
AUSGEZOGEN
 10
1880.0000
 20
 285.8600
 11
1880.0000
 21
 294.1400
  0
LINE
  8
200
  6
AUSGEZOGEN
 10
1855.8600
 20
 280.0000
 11
1864.1400
 21
 280.0000
  0
LINE
  8
200
  6
AUSGEZOGEN
 10
1870.0000
 20
 294.1400
 11
1870.0000
 21
 285.8600
  0
LINE
  8
200
  6
AUSGEZOGEN
 10
1855.8600
 20
 300.0000
 11
1864.1400
 21
 300.0000
  0
LINE
  8
200
  6
AUSGEZOGEN
 10
1850.0000
 20
 285.8600
 11
1850.0000
 21
 294.1400
  0
LINE
  8
200
  6
AUSGEZOGEN
 10
1825.8600
 20
 280.0000
 11
1834.1400
 21
 280.0000
  0
LINE
  8
200
  6
AUSGEZOGEN
 10
1840.0000
 20
 294.1400
 11
1840.0000
 21
 285.8600
  0
LINE
  8
200
  6
AUSGEZOGEN
 10
1825.8600
 20
 300.0000
 11
1834.1400
 21
 300.0000
  0
LINE
  8
200
  6
AUSGEZOGEN
 10
1820.0000
 20
 285.8600
 11
1820.0000
 21
 294.1400
  0
LINE
  8
200
  6
AUSGEZOGEN
 10
1795.8600
 20
 280.0000
 11
1804.1400
 21
 280.0000
  0
LINE
  8
200
  6
AUSGEZOGEN
 10
1810.0000
 20
 294.1400
 11
1810.0000
 21
 285.8600
  0
LINE
  8
200
  6
AUSGEZOGEN
 10
1795.8600
 20
 300.0000
 11
1804.1400
 21
 300.0000
  0
LINE
  8
200
  6
AUSGEZOGEN
 10
1790.0000
 20
 285.8600
 11
1790.0000
 21
 294.1400
  0
LINE
  8
200
  6
AUSGEZOGEN
 10
1765.8600
 20
 280.0000
 11
1774.1400
 21
 280.0000
  0
LINE
  8
200
  6
AUSGEZOGEN
 10
1780.0000
 20
 294.1400
 11
1780.0000
 21
 285.8600
  0
LINE
  8
200
  6
AUSGEZOGEN
 10
1765.8600
 20
 300.0000
 11
1774.1400
 21
 300.0000
  0
LINE
  8
200
  6
AUSGEZOGEN
 10
1760.0000
 20
 285.8600
 11
1760.0000
 21
 294.1400
  0
LINE
  8
200
  6
AUSGEZOGEN
 10
1735.8600
 20
 280.0000
 11
1744.1400
 21
 280.0000
  0
LINE
  8
200
  6
AUSGEZOGEN
 10
1750.0000
 20
 294.1400
 11
1750.0000
 21
 285.8600
  0
LINE
  8
200
  6
AUSGEZOGEN
 10
1735.8600
 20
 300.0000
 11
1744.1400
 21
 300.0000
  0
LINE
  8
200
  6
AUSGEZOGEN
 10
1730.0000
 20
 285.8600
 11
1730.0000
 21
 294.1400
  0
LINE
  8
200
  6
AUSGEZOGEN
 10
1705.8600
 20
 280.0000
 11
1714.1400
 21
 280.0000
  0
LINE
  8
200
  6
AUSGEZOGEN
 10
1720.0000
 20
 294.1400
 11
1720.0000
 21
 285.8600
  0
LINE
  8
200
  6
AUSGEZOGEN
 10
1705.8600
 20
 300.0000
 11
1714.1400
 21
 300.0000
  0
LINE
  8
200
  6
AUSGEZOGEN
 10
1700.0000
 20
 285.8600
 11
1700.0000
 21
 294.1400
  0
LINE
  8
200
  6
AUSGEZOGEN
 10
1675.8600
 20
 280.0000
 11
1684.1400
 21
 280.0000
  0
LINE
  8
200
  6
AUSGEZOGEN
 10
1690.0000
 20
 294.1400
 11
1690.0000
 21
 285.8600
  0
LINE
  8
200
  6
AUSGEZOGEN
 10
1675.8600
 20
 300.0000
 11
1684.1400
 21
 300.0000
  0
LINE
  8
200
  6
AUSGEZOGEN
 10
1670.0000
 20
 285.8600
 11
1670.0000
 21
 294.1400
  0
LINE
  8
200
  6
AUSGEZOGEN
 10
1645.8600
 20
 280.0000
 11
1654.1400
 21
 280.0000
  0
LINE
  8
200
  6
AUSGEZOGEN
 10
1660.0000
 20
 294.1400
 11
1660.0000
 21
 285.8600
  0
LINE
  8
200
  6
AUSGEZOGEN
 10
1645.8600
 20
 300.0000
 11
1654.1400
 21
 300.0000
  0
LINE
  8
200
  6
AUSGEZOGEN
 10
1640.0000
 20
 285.8600
 11
1640.0000
 21
 294.1400
  0
LINE
  8
200
  6
AUSGEZOGEN
 10
1615.8600
 20
 280.0000
 11
1624.1400
 21
 280.0000
  0
LINE
  8
200
  6
AUSGEZOGEN
 10
1630.0000
 20
 294.1400
 11
1630.0000
 21
 285.8600
  0
LINE
  8
200
  6
AUSGEZOGEN
 10
1615.8600
 20
 300.0000
 11
1624.1400
 21
 300.0000
  0
LINE
  8
200
  6
AUSGEZOGEN
 10
1610.0000
 20
 285.8600
 11
1610.0000
 21
 294.1400
  0
LINE
  8
200
  6
AUSGEZOGEN
 10
1585.8600
 20
 280.0000
 11
1594.1400
 21
 280.0000
  0
LINE
  8
200
  6
AUSGEZOGEN
 10
1600.0000
 20
 294.1400
 11
1600.0000
 21
 285.8600
  0
LINE
  8
200
  6
AUSGEZOGEN
 10
1585.8600
 20
 300.0000
 11
1594.1400
 21
 300.0000
  0
LINE
  8
200
  6
AUSGEZOGEN
 10
1580.0000
 20
 285.8600
 11
1580.0000
 21
 294.1400
  0
LINE
  8
200
  6
AUSGEZOGEN
 10
1555.8600
 20
 280.0000
 11
1564.1400
 21
 280.0000
  0
LINE
  8
200
  6
AUSGEZOGEN
 10
1570.0000
 20
 294.1400
 11
1570.0000
 21
 285.8600
  0
LINE
  8
200
  6
AUSGEZOGEN
 10
1555.8600
 20
 300.0000
 11
1564.1400
 21
 300.0000
  0
LINE
  8
200
  6
AUSGEZOGEN
 10
1550.0000
 20
 285.8600
 11
1550.0000
 21
 294.1400
  0
LINE
  8
200
  6
AUSGEZOGEN
 10
1525.8600
 20
 280.0000
 11
1534.1400
 21
 280.0000
  0
LINE
  8
200
  6
AUSGEZOGEN
 10
1540.0000
 20
 294.1400
 11
1540.0000
 21
 285.8600
  0
LINE
  8
200
  6
AUSGEZOGEN
 10
1525.8600
 20
 300.0000
 11
1534.1400
 21
 300.0000
  0
LINE
  8
200
  6
AUSGEZOGEN
 10
1520.0000
 20
 285.8600
 11
1520.0000
 21
 294.1400
  0
LINE
  8
200
  6
AUSGEZOGEN
 10
1495.8600
 20
 280.0000
 11
1504.1400
 21
 280.0000
  0
LINE
  8
200
  6
AUSGEZOGEN
 10
1510.0000
 20
 294.1400
 11
1510.0000
 21
 285.8600
  0
LINE
  8
200
  6
AUSGEZOGEN
 10
1495.8600
 20
 300.0000
 11
1504.1400
 21
 300.0000
  0
LINE
  8
200
  6
AUSGEZOGEN
 10
1490.0000
 20
 285.8600
 11
1490.0000
 21
 294.1400
  0
LINE
  8
200
  6
AUSGEZOGEN
 10
1954.1400
 20
 310.0000
 11
1945.8600
 21
 310.0000
  0
LINE
  8
200
  6
AUSGEZOGEN
 10
1960.0000
 20
 324.1400
 11
1960.0000
 21
 315.8600
  0
LINE
  8
200
  6
AUSGEZOGEN
 10
1945.8600
 20
 330.0000
 11
1954.1400
 21
 330.0000
  0
LINE
  8
200
  6
AUSGEZOGEN
 10
1940.0000
 20
 315.8600
 11
1940.0000
 21
 324.1400
  0
LINE
  8
200
  6
AUSGEZOGEN
 10
1915.8600
 20
 310.0000
 11
1924.1400
 21
 310.0000
  0
LINE
  8
200
  6
AUSGEZOGEN
 10
1930.0000
 20
 324.1400
 11
1930.0000
 21
 315.8600
  0
LINE
  8
200
  6
AUSGEZOGEN
 10
1915.8600
 20
 330.0000
 11
1924.1400
 21
 330.0000
  0
LINE
  8
200
  6
AUSGEZOGEN
 10
1910.0000
 20
 315.8600
 11
1910.0000
 21
 324.1400
  0
LINE
  8
200
  6
AUSGEZOGEN
 10
1885.8600
 20
 310.0000
 11
1894.1400
 21
 310.0000
  0
LINE
  8
200
  6
AUSGEZOGEN
 10
1900.0000
 20
 324.1400
 11
1900.0000
 21
 315.8600
  0
LINE
  8
200
  6
AUSGEZOGEN
 10
1885.8600
 20
 330.0000
 11
1894.1400
 21
 330.0000
  0
LINE
  8
200
  6
AUSGEZOGEN
 10
1880.0000
 20
 315.8600
 11
1880.0000
 21
 324.1400
  0
LINE
  8
200
  6
AUSGEZOGEN
 10
1855.8600
 20
 310.0000
 11
1864.1400
 21
 310.0000
  0
LINE
  8
200
  6
AUSGEZOGEN
 10
1870.0000
 20
 324.1400
 11
1870.0000
 21
 315.8600
  0
LINE
  8
200
  6
AUSGEZOGEN
 10
1855.8600
 20
 330.0000
 11
1864.1400
 21
 330.0000
  0
LINE
  8
200
  6
AUSGEZOGEN
 10
1850.0000
 20
 315.8600
 11
1850.0000
 21
 324.1400
  0
LINE
  8
200
  6
AUSGEZOGEN
 10
1825.8600
 20
 310.0000
 11
1834.1400
 21
 310.0000
  0
LINE
  8
200
  6
AUSGEZOGEN
 10
1840.0000
 20
 324.1400
 11
1840.0000
 21
 315.8600
  0
LINE
  8
200
  6
AUSGEZOGEN
 10
1825.8600
 20
 330.0000
 11
1834.1400
 21
 330.0000
  0
LINE
  8
200
  6
AUSGEZOGEN
 10
1820.0000
 20
 315.8600
 11
1820.0000
 21
 324.1400
  0
LINE
  8
200
  6
AUSGEZOGEN
 10
1795.8600
 20
 310.0000
 11
1804.1400
 21
 310.0000
  0
LINE
  8
200
  6
AUSGEZOGEN
 10
1810.0000
 20
 324.1400
 11
1810.0000
 21
 315.8600
  0
LINE
  8
200
  6
AUSGEZOGEN
 10
1795.8600
 20
 330.0000
 11
1804.1400
 21
 330.0000
  0
LINE
  8
200
  6
AUSGEZOGEN
 10
1790.0000
 20
 315.8600
 11
1790.0000
 21
 324.1400
  0
LINE
  8
200
  6
AUSGEZOGEN
 10
1765.8600
 20
 310.0000
 11
1774.1400
 21
 310.0000
  0
LINE
  8
200
  6
AUSGEZOGEN
 10
1780.0000
 20
 324.1400
 11
1780.0000
 21
 315.8600
  0
LINE
  8
200
  6
AUSGEZOGEN
 10
1765.8600
 20
 330.0000
 11
1774.1400
 21
 330.0000
  0
LINE
  8
200
  6
AUSGEZOGEN
 10
1760.0000
 20
 315.8600
 11
1760.0000
 21
 324.1400
  0
LINE
  8
200
  6
AUSGEZOGEN
 10
1735.8600
 20
 310.0000
 11
1744.1400
 21
 310.0000
  0
LINE
  8
200
  6
AUSGEZOGEN
 10
1750.0000
 20
 324.1400
 11
1750.0000
 21
 315.8600
  0
LINE
  8
200
  6
AUSGEZOGEN
 10
1735.8600
 20
 330.0000
 11
1744.1400
 21
 330.0000
  0
LINE
  8
200
  6
AUSGEZOGEN
 10
1730.0000
 20
 315.8600
 11
1730.0000
 21
 324.1400
  0
LINE
  8
200
  6
AUSGEZOGEN
 10
1705.8600
 20
 310.0000
 11
1714.1400
 21
 310.0000
  0
LINE
  8
200
  6
AUSGEZOGEN
 10
1720.0000
 20
 324.1400
 11
1720.0000
 21
 315.8600
  0
LINE
  8
200
  6
AUSGEZOGEN
 10
1705.8600
 20
 330.0000
 11
1714.1400
 21
 330.0000
  0
LINE
  8
200
  6
AUSGEZOGEN
 10
1700.0000
 20
 315.8600
 11
1700.0000
 21
 324.1400
  0
LINE
  8
200
  6
AUSGEZOGEN
 10
1675.8600
 20
 310.0000
 11
1684.1400
 21
 310.0000
  0
LINE
  8
200
  6
AUSGEZOGEN
 10
1690.0000
 20
 324.1400
 11
1690.0000
 21
 315.8600
  0
LINE
  8
200
  6
AUSGEZOGEN
 10
1675.8600
 20
 330.0000
 11
1684.1400
 21
 330.0000
  0
LINE
  8
200
  6
AUSGEZOGEN
 10
1670.0000
 20
 315.8600
 11
1670.0000
 21
 324.1400
  0
LINE
  8
200
  6
AUSGEZOGEN
 10
1645.8600
 20
 310.0000
 11
1654.1400
 21
 310.0000
  0
LINE
  8
200
  6
AUSGEZOGEN
 10
1660.0000
 20
 324.1400
 11
1660.0000
 21
 315.8600
  0
LINE
  8
200
  6
AUSGEZOGEN
 10
1645.8600
 20
 330.0000
 11
1654.1400
 21
 330.0000
  0
LINE
  8
200
  6
AUSGEZOGEN
 10
1640.0000
 20
 315.8600
 11
1640.0000
 21
 324.1400
  0
LINE
  8
200
  6
AUSGEZOGEN
 10
1615.8600
 20
 310.0000
 11
1624.1400
 21
 310.0000
  0
LINE
  8
200
  6
AUSGEZOGEN
 10
1630.0000
 20
 324.1400
 11
1630.0000
 21
 315.8600
  0
LINE
  8
200
  6
AUSGEZOGEN
 10
1615.8600
 20
 330.0000
 11
1624.1400
 21
 330.0000
  0
LINE
  8
200
  6
AUSGEZOGEN
 10
1610.0000
 20
 315.8600
 11
1610.0000
 21
 324.1400
  0
LINE
  8
200
  6
AUSGEZOGEN
 10
1585.8600
 20
 310.0000
 11
1594.1400
 21
 310.0000
  0
LINE
  8
200
  6
AUSGEZOGEN
 10
1600.0000
 20
 324.1400
 11
1600.0000
 21
 315.8600
  0
LINE
  8
200
  6
AUSGEZOGEN
 10
1585.8600
 20
 330.0000
 11
1594.1400
 21
 330.0000
  0
LINE
  8
200
  6
AUSGEZOGEN
 10
1580.0000
 20
 315.8600
 11
1580.0000
 21
 324.1400
  0
LINE
  8
200
  6
AUSGEZOGEN
 10
1555.8600
 20
 310.0000
 11
1564.1400
 21
 310.0000
  0
LINE
  8
200
  6
AUSGEZOGEN
 10
1570.0000
 20
 324.1400
 11
1570.0000
 21
 315.8600
  0
LINE
  8
200
  6
AUSGEZOGEN
 10
1555.8600
 20
 330.0000
 11
1564.1400
 21
 330.0000
  0
LINE
  8
200
  6
AUSGEZOGEN
 10
1550.0000
 20
 315.8600
 11
1550.0000
 21
 324.1400
  0
LINE
  8
200
  6
AUSGEZOGEN
 10
1525.8600
 20
 310.0000
 11
1534.1400
 21
 310.0000
  0
LINE
  8
200
  6
AUSGEZOGEN
 10
1540.0000
 20
 324.1400
 11
1540.0000
 21
 315.8600
  0
LINE
  8
200
  6
AUSGEZOGEN
 10
1525.8600
 20
 330.0000
 11
1534.1400
 21
 330.0000
  0
LINE
  8
200
  6
AUSGEZOGEN
 10
1520.0000
 20
 315.8600
 11
1520.0000
 21
 324.1400
  0
LINE
  8
200
  6
AUSGEZOGEN
 10
1495.8600
 20
 310.0000
 11
1504.1400
 21
 310.0000
  0
LINE
  8
200
  6
AUSGEZOGEN
 10
1510.0000
 20
 324.1400
 11
1510.0000
 21
 315.8600
  0
LINE
  8
200
  6
AUSGEZOGEN
 10
1495.8600
 20
 330.0000
 11
1504.1400
 21
 330.0000
  0
LINE
  8
200
  6
AUSGEZOGEN
 10
1490.0000
 20
 315.8600
 11
1490.0000
 21
 324.1400
  0
LINE
  8
200
  6
AUSGEZOGEN
 10
1954.1400
 20
 340.0000
 11
1945.8600
 21
 340.0000
  0
LINE
  8
200
  6
AUSGEZOGEN
 10
1960.0000
 20
 354.1400
 11
1960.0000
 21
 345.8600
  0
LINE
  8
200
  6
AUSGEZOGEN
 10
1945.8600
 20
 360.0000
 11
1954.1400
 21
 360.0000
  0
LINE
  8
200
  6
AUSGEZOGEN
 10
1940.0000
 20
 345.8600
 11
1940.0000
 21
 354.1400
  0
LINE
  8
200
  6
AUSGEZOGEN
 10
1915.8600
 20
 340.0000
 11
1924.1400
 21
 340.0000
  0
LINE
  8
200
  6
AUSGEZOGEN
 10
1930.0000
 20
 354.1400
 11
1930.0000
 21
 345.8600
  0
LINE
  8
200
  6
AUSGEZOGEN
 10
1915.8600
 20
 360.0000
 11
1924.1400
 21
 360.0000
  0
LINE
  8
200
  6
AUSGEZOGEN
 10
1910.0000
 20
 345.8600
 11
1910.0000
 21
 354.1400
  0
LINE
  8
200
  6
AUSGEZOGEN
 10
1885.8600
 20
 340.0000
 11
1894.1400
 21
 340.0000
  0
LINE
  8
200
  6
AUSGEZOGEN
 10
1900.0000
 20
 354.1400
 11
1900.0000
 21
 345.8600
  0
LINE
  8
200
  6
AUSGEZOGEN
 10
1885.8600
 20
 360.0000
 11
1894.1400
 21
 360.0000
  0
LINE
  8
200
  6
AUSGEZOGEN
 10
1880.0000
 20
 345.8600
 11
1880.0000
 21
 354.1400
  0
LINE
  8
200
  6
AUSGEZOGEN
 10
1855.8600
 20
 340.0000
 11
1864.1400
 21
 340.0000
  0
LINE
  8
200
  6
AUSGEZOGEN
 10
1870.0000
 20
 354.1400
 11
1870.0000
 21
 345.8600
  0
LINE
  8
200
  6
AUSGEZOGEN
 10
1855.8600
 20
 360.0000
 11
1864.1400
 21
 360.0000
  0
LINE
  8
200
  6
AUSGEZOGEN
 10
1850.0000
 20
 345.8600
 11
1850.0000
 21
 354.1400
  0
LINE
  8
200
  6
AUSGEZOGEN
 10
1825.8600
 20
 340.0000
 11
1834.1400
 21
 340.0000
  0
LINE
  8
200
  6
AUSGEZOGEN
 10
1840.0000
 20
 354.1400
 11
1840.0000
 21
 345.8600
  0
LINE
  8
200
  6
AUSGEZOGEN
 10
1825.8600
 20
 360.0000
 11
1834.1400
 21
 360.0000
  0
LINE
  8
200
  6
AUSGEZOGEN
 10
1820.0000
 20
 345.8600
 11
1820.0000
 21
 354.1400
  0
LINE
  8
200
  6
AUSGEZOGEN
 10
1795.8600
 20
 340.0000
 11
1804.1400
 21
 340.0000
  0
LINE
  8
200
  6
AUSGEZOGEN
 10
1810.0000
 20
 354.1400
 11
1810.0000
 21
 345.8600
  0
LINE
  8
200
  6
AUSGEZOGEN
 10
1795.8600
 20
 360.0000
 11
1804.1400
 21
 360.0000
  0
LINE
  8
200
  6
AUSGEZOGEN
 10
1790.0000
 20
 345.8600
 11
1790.0000
 21
 354.1400
  0
LINE
  8
200
  6
AUSGEZOGEN
 10
1765.8600
 20
 340.0000
 11
1774.1400
 21
 340.0000
  0
LINE
  8
200
  6
AUSGEZOGEN
 10
1780.0000
 20
 354.1400
 11
1780.0000
 21
 345.8600
  0
LINE
  8
200
  6
AUSGEZOGEN
 10
1765.8600
 20
 360.0000
 11
1774.1400
 21
 360.0000
  0
LINE
  8
200
  6
AUSGEZOGEN
 10
1760.0000
 20
 345.8600
 11
1760.0000
 21
 354.1400
  0
LINE
  8
200
  6
AUSGEZOGEN
 10
1735.8600
 20
 340.0000
 11
1744.1400
 21
 340.0000
  0
LINE
  8
200
  6
AUSGEZOGEN
 10
1750.0000
 20
 354.1400
 11
1750.0000
 21
 345.8600
  0
LINE
  8
200
  6
AUSGEZOGEN
 10
1735.8600
 20
 360.0000
 11
1744.1400
 21
 360.0000
  0
LINE
  8
200
  6
AUSGEZOGEN
 10
1730.0000
 20
 345.8600
 11
1730.0000
 21
 354.1400
  0
LINE
  8
200
  6
AUSGEZOGEN
 10
1705.8600
 20
 340.0000
 11
1714.1400
 21
 340.0000
  0
LINE
  8
200
  6
AUSGEZOGEN
 10
1720.0000
 20
 354.1400
 11
1720.0000
 21
 345.8600
  0
LINE
  8
200
  6
AUSGEZOGEN
 10
1705.8600
 20
 360.0000
 11
1714.1400
 21
 360.0000
  0
LINE
  8
200
  6
AUSGEZOGEN
 10
1700.0000
 20
 345.8600
 11
1700.0000
 21
 354.1400
  0
LINE
  8
200
  6
AUSGEZOGEN
 10
1675.8600
 20
 340.0000
 11
1684.1400
 21
 340.0000
  0
LINE
  8
200
  6
AUSGEZOGEN
 10
1690.0000
 20
 354.1400
 11
1690.0000
 21
 345.8600
  0
LINE
  8
200
  6
AUSGEZOGEN
 10
1675.8600
 20
 360.0000
 11
1684.1400
 21
 360.0000
  0
LINE
  8
200
  6
AUSGEZOGEN
 10
1670.0000
 20
 345.8600
 11
1670.0000
 21
 354.1400
  0
LINE
  8
200
  6
AUSGEZOGEN
 10
1645.8600
 20
 340.0000
 11
1654.1400
 21
 340.0000
  0
LINE
  8
200
  6
AUSGEZOGEN
 10
1660.0000
 20
 354.1400
 11
1660.0000
 21
 345.8600
  0
LINE
  8
200
  6
AUSGEZOGEN
 10
1645.8600
 20
 360.0000
 11
1654.1400
 21
 360.0000
  0
LINE
  8
200
  6
AUSGEZOGEN
 10
1640.0000
 20
 345.8600
 11
1640.0000
 21
 354.1400
  0
LINE
  8
200
  6
AUSGEZOGEN
 10
1615.8600
 20
 340.0000
 11
1624.1400
 21
 340.0000
  0
LINE
  8
200
  6
AUSGEZOGEN
 10
1630.0000
 20
 354.1400
 11
1630.0000
 21
 345.8600
  0
LINE
  8
200
  6
AUSGEZOGEN
 10
1615.8600
 20
 360.0000
 11
1624.1400
 21
 360.0000
  0
LINE
  8
200
  6
AUSGEZOGEN
 10
1610.0000
 20
 345.8600
 11
1610.0000
 21
 354.1400
  0
LINE
  8
200
  6
AUSGEZOGEN
 10
1585.8600
 20
 340.0000
 11
1594.1400
 21
 340.0000
  0
LINE
  8
200
  6
AUSGEZOGEN
 10
1600.0000
 20
 354.1400
 11
1600.0000
 21
 345.8600
  0
LINE
  8
200
  6
AUSGEZOGEN
 10
1585.8600
 20
 360.0000
 11
1594.1400
 21
 360.0000
  0
LINE
  8
200
  6
AUSGEZOGEN
 10
1580.0000
 20
 345.8600
 11
1580.0000
 21
 354.1400
  0
LINE
  8
200
  6
AUSGEZOGEN
 10
1555.8600
 20
 340.0000
 11
1564.1400
 21
 340.0000
  0
LINE
  8
200
  6
AUSGEZOGEN
 10
1570.0000
 20
 354.1400
 11
1570.0000
 21
 345.8600
  0
LINE
  8
200
  6
AUSGEZOGEN
 10
1555.8600
 20
 360.0000
 11
1564.1400
 21
 360.0000
  0
LINE
  8
200
  6
AUSGEZOGEN
 10
1550.0000
 20
 345.8600
 11
1550.0000
 21
 354.1400
  0
LINE
  8
200
  6
AUSGEZOGEN
 10
1525.8600
 20
 340.0000
 11
1534.1400
 21
 340.0000
  0
LINE
  8
200
  6
AUSGEZOGEN
 10
1540.0000
 20
 354.1400
 11
1540.0000
 21
 345.8600
  0
LINE
  8
200
  6
AUSGEZOGEN
 10
1525.8600
 20
 360.0000
 11
1534.1400
 21
 360.0000
  0
LINE
  8
200
  6
AUSGEZOGEN
 10
1520.0000
 20
 345.8600
 11
1520.0000
 21
 354.1400
  0
LINE
  8
200
  6
AUSGEZOGEN
 10
1495.8600
 20
 340.0000
 11
1504.1400
 21
 340.0000
  0
LINE
  8
200
  6
AUSGEZOGEN
 10
1510.0000
 20
 354.1400
 11
1510.0000
 21
 345.8600
  0
LINE
  8
200
  6
AUSGEZOGEN
 10
1495.8600
 20
 360.0000
 11
1504.1400
 21
 360.0000
  0
LINE
  8
200
  6
AUSGEZOGEN
 10
1490.0000
 20
 345.8600
 11
1490.0000
 21
 354.1400
  0
LINE
  8
200
  6
AUSGEZOGEN
 10
1435.8600
 20
 250.0000
 11
1444.1400
 21
 250.0000
  0
LINE
  8
200
  6
AUSGEZOGEN
 10
1450.0000
 20
 264.1400
 11
1450.0000
 21
 255.8600
  0
LINE
  8
200
  6
AUSGEZOGEN
 10
1435.8600
 20
 270.0000
 11
1444.1400
 21
 270.0000
  0
LINE
  8
200
  6
AUSGEZOGEN
 10
1430.0000
 20
 255.8600
 11
1430.0000
 21
 264.1400
  0
LINE
  8
200
  6
AUSGEZOGEN
 10
1444.1400
 20
 220.0000
 11
1435.8600
 21
 220.0000
  0
LINE
  8
200
  6
AUSGEZOGEN
 10
1450.0000
 20
 234.1400
 11
1450.0000
 21
 225.8600
  0
LINE
  8
200
  6
AUSGEZOGEN
 10
1435.8600
 20
 240.0000
 11
1444.1400
 21
 240.0000
  0
LINE
  8
200
  6
AUSGEZOGEN
 10
1430.0000
 20
 225.8600
 11
1430.0000
 21
 234.1400
  0
LINE
  8
200
  6
AUSGEZOGEN
 10
1444.1400
 20
 190.0000
 11
1435.8600
 21
 190.0000
  0
LINE
  8
200
  6
AUSGEZOGEN
 10
1450.0000
 20
 204.1400
 11
1450.0000
 21
 195.8600
  0
LINE
  8
200
  6
AUSGEZOGEN
 10
1435.8600
 20
 210.0000
 11
1444.1400
 21
 210.0000
  0
LINE
  8
200
  6
AUSGEZOGEN
 10
1430.0000
 20
 195.8600
 11
1430.0000
 21
 204.1400
  0
LINE
  8
200
  6
AUSGEZOGEN
 10
1444.1400
 20
 160.0000
 11
1435.8600
 21
 160.0000
  0
LINE
  8
200
  6
AUSGEZOGEN
 10
1450.0000
 20
 174.1400
 11
1450.0000
 21
 165.8600
  0
LINE
  8
200
  6
AUSGEZOGEN
 10
1435.8600
 20
 180.0000
 11
1444.1400
 21
 180.0000
  0
LINE
  8
200
  6
AUSGEZOGEN
 10
1430.0000
 20
 165.8600
 11
1430.0000
 21
 174.1400
  0
LINE
  8
200
  6
AUSGEZOGEN
 10
1444.1400
 20
 130.0000
 11
1435.8600
 21
 130.0000
  0
LINE
  8
200
  6
AUSGEZOGEN
 10
1450.0000
 20
 144.1400
 11
1450.0000
 21
 135.8600
  0
LINE
  8
200
  6
AUSGEZOGEN
 10
1435.8600
 20
 150.0000
 11
1444.1400
 21
 150.0000
  0
LINE
  8
200
  6
AUSGEZOGEN
 10
1430.0000
 20
 135.8600
 11
1430.0000
 21
 144.1400
  0
LINE
  8
200
  6
AUSGEZOGEN
 10
1444.1400
 20
 100.0000
 11
1435.8600
 21
 100.0000
  0
LINE
  8
200
  6
AUSGEZOGEN
 10
1450.0000
 20
 114.1400
 11
1450.0000
 21
 105.8600
  0
LINE
  8
200
  6
AUSGEZOGEN
 10
1435.8600
 20
 120.0000
 11
1444.1400
 21
 120.0000
  0
LINE
  8
200
  6
AUSGEZOGEN
 10
1430.0000
 20
 105.8600
 11
1430.0000
 21
 114.1400
  0
LINE
  8
200
  6
AUSGEZOGEN
 10
1444.1400
 20
 280.0000
 11
1435.8600
 21
 280.0000
  0
LINE
  8
200
  6
AUSGEZOGEN
 10
1450.0000
 20
 294.1400
 11
1450.0000
 21
 285.8600
  0
LINE
  8
200
  6
AUSGEZOGEN
 10
1435.8600
 20
 300.0000
 11
1444.1400
 21
 300.0000
  0
LINE
  8
200
  6
AUSGEZOGEN
 10
1430.0000
 20
 285.8600
 11
1430.0000
 21
 294.1400
  0
LINE
  8
200
  6
AUSGEZOGEN
 10
1444.1400
 20
 310.0000
 11
1435.8600
 21
 310.0000
  0
LINE
  8
200
  6
AUSGEZOGEN
 10
1450.0000
 20
 324.1400
 11
1450.0000
 21
 315.8600
  0
LINE
  8
200
  6
AUSGEZOGEN
 10
1435.8600
 20
 330.0000
 11
1444.1400
 21
 330.0000
  0
LINE
  8
200
  6
AUSGEZOGEN
 10
1430.0000
 20
 315.8600
 11
1430.0000
 21
 324.1400
  0
LINE
  8
200
  6
AUSGEZOGEN
 10
1444.1400
 20
 340.0000
 11
1435.8600
 21
 340.0000
  0
LINE
  8
200
  6
AUSGEZOGEN
 10
1450.0000
 20
 354.1400
 11
1450.0000
 21
 345.8600
  0
LINE
  8
200
  6
AUSGEZOGEN
 10
1435.8600
 20
 360.0000
 11
1444.1400
 21
 360.0000
  0
LINE
  8
200
  6
AUSGEZOGEN
 10
1430.0000
 20
 345.8600
 11
1430.0000
 21
 354.1400
  0
LINE
  8
200
  6
AUSGEZOGEN
 10
1405.8600
 20
 250.0000
 11
1414.1400
 21
 250.0000
  0
LINE
  8
200
  6
AUSGEZOGEN
 10
1420.0000
 20
 264.1400
 11
1420.0000
 21
 255.8600
  0
LINE
  8
200
  6
AUSGEZOGEN
 10
1405.8600
 20
 270.0000
 11
1414.1400
 21
 270.0000
  0
LINE
  8
200
  6
AUSGEZOGEN
 10
1400.0000
 20
 255.8600
 11
1400.0000
 21
 264.1400
  0
LINE
  8
200
  6
AUSGEZOGEN
 10
1375.8600
 20
 250.0000
 11
1384.1400
 21
 250.0000
  0
LINE
  8
200
  6
AUSGEZOGEN
 10
1390.0000
 20
 264.1400
 11
1390.0000
 21
 255.8600
  0
LINE
  8
200
  6
AUSGEZOGEN
 10
1375.8600
 20
 270.0000
 11
1384.1400
 21
 270.0000
  0
LINE
  8
200
  6
AUSGEZOGEN
 10
1370.0000
 20
 255.8600
 11
1370.0000
 21
 264.1400
  0
LINE
  8
200
  6
AUSGEZOGEN
 10
1345.8600
 20
 250.0000
 11
1354.1400
 21
 250.0000
  0
LINE
  8
200
  6
AUSGEZOGEN
 10
1360.0000
 20
 264.1400
 11
1360.0000
 21
 255.8600
  0
LINE
  8
200
  6
AUSGEZOGEN
 10
1345.8600
 20
 270.0000
 11
1354.1400
 21
 270.0000
  0
LINE
  8
200
  6
AUSGEZOGEN
 10
1340.0000
 20
 255.8600
 11
1340.0000
 21
 264.1400
  0
LINE
  8
200
  6
AUSGEZOGEN
 10
1315.8600
 20
 250.0000
 11
1324.1400
 21
 250.0000
  0
LINE
  8
200
  6
AUSGEZOGEN
 10
1330.0000
 20
 264.1400
 11
1330.0000
 21
 255.8600
  0
LINE
  8
200
  6
AUSGEZOGEN
 10
1315.8600
 20
 270.0000
 11
1324.1400
 21
 270.0000
  0
LINE
  8
200
  6
AUSGEZOGEN
 10
1310.0000
 20
 255.8600
 11
1310.0000
 21
 264.1400
  0
LINE
  8
200
  6
AUSGEZOGEN
 10
1285.8600
 20
 250.0000
 11
1294.1400
 21
 250.0000
  0
LINE
  8
200
  6
AUSGEZOGEN
 10
1300.0000
 20
 264.1400
 11
1300.0000
 21
 255.8600
  0
LINE
  8
200
  6
AUSGEZOGEN
 10
1285.8600
 20
 270.0000
 11
1294.1400
 21
 270.0000
  0
LINE
  8
200
  6
AUSGEZOGEN
 10
1280.0000
 20
 255.8600
 11
1280.0000
 21
 264.1400
  0
LINE
  8
200
  6
AUSGEZOGEN
 10
1255.8600
 20
 250.0000
 11
1264.1400
 21
 250.0000
  0
LINE
  8
200
  6
AUSGEZOGEN
 10
1270.0000
 20
 264.1400
 11
1270.0000
 21
 255.8600
  0
LINE
  8
200
  6
AUSGEZOGEN
 10
1255.8600
 20
 270.0000
 11
1264.1400
 21
 270.0000
  0
LINE
  8
200
  6
AUSGEZOGEN
 10
1250.0000
 20
 255.8600
 11
1250.0000
 21
 264.1400
  0
LINE
  8
200
  6
AUSGEZOGEN
 10
1225.8600
 20
 250.0000
 11
1234.1400
 21
 250.0000
  0
LINE
  8
200
  6
AUSGEZOGEN
 10
1240.0000
 20
 264.1400
 11
1240.0000
 21
 255.8600
  0
LINE
  8
200
  6
AUSGEZOGEN
 10
1225.8600
 20
 270.0000
 11
1234.1400
 21
 270.0000
  0
LINE
  8
200
  6
AUSGEZOGEN
 10
1220.0000
 20
 255.8600
 11
1220.0000
 21
 264.1400
  0
LINE
  8
200
  6
AUSGEZOGEN
 10
1195.8600
 20
 250.0000
 11
1204.1400
 21
 250.0000
  0
LINE
  8
200
  6
AUSGEZOGEN
 10
1210.0000
 20
 264.1400
 11
1210.0000
 21
 255.8600
  0
LINE
  8
200
  6
AUSGEZOGEN
 10
1195.8600
 20
 270.0000
 11
1204.1400
 21
 270.0000
  0
LINE
  8
200
  6
AUSGEZOGEN
 10
1190.0000
 20
 255.8600
 11
1190.0000
 21
 264.1400
  0
LINE
  8
200
  6
AUSGEZOGEN
 10
1165.8600
 20
 250.0000
 11
1174.1400
 21
 250.0000
  0
LINE
  8
200
  6
AUSGEZOGEN
 10
1180.0000
 20
 264.1400
 11
1180.0000
 21
 255.8600
  0
LINE
  8
200
  6
AUSGEZOGEN
 10
1165.8600
 20
 270.0000
 11
1174.1400
 21
 270.0000
  0
LINE
  8
200
  6
AUSGEZOGEN
 10
1160.0000
 20
 255.8600
 11
1160.0000
 21
 264.1400
  0
LINE
  8
200
  6
AUSGEZOGEN
 10
1135.8600
 20
 250.0000
 11
1144.1400
 21
 250.0000
  0
LINE
  8
200
  6
AUSGEZOGEN
 10
1150.0000
 20
 264.1400
 11
1150.0000
 21
 255.8600
  0
LINE
  8
200
  6
AUSGEZOGEN
 10
1135.8600
 20
 270.0000
 11
1144.1400
 21
 270.0000
  0
LINE
  8
200
  6
AUSGEZOGEN
 10
1130.0000
 20
 255.8600
 11
1130.0000
 21
 264.1400
  0
LINE
  8
200
  6
AUSGEZOGEN
 10
1105.8600
 20
 250.0000
 11
1114.1400
 21
 250.0000
  0
LINE
  8
200
  6
AUSGEZOGEN
 10
1120.0000
 20
 264.1400
 11
1120.0000
 21
 255.8600
  0
LINE
  8
200
  6
AUSGEZOGEN
 10
1105.8600
 20
 270.0000
 11
1114.1400
 21
 270.0000
  0
LINE
  8
200
  6
AUSGEZOGEN
 10
1100.0000
 20
 255.8600
 11
1100.0000
 21
 264.1400
  0
LINE
  8
200
  6
AUSGEZOGEN
 10
1075.8600
 20
 250.0000
 11
1084.1400
 21
 250.0000
  0
LINE
  8
200
  6
AUSGEZOGEN
 10
1090.0000
 20
 264.1400
 11
1090.0000
 21
 255.8600
  0
LINE
  8
200
  6
AUSGEZOGEN
 10
1075.8600
 20
 270.0000
 11
1084.1400
 21
 270.0000
  0
LINE
  8
200
  6
AUSGEZOGEN
 10
1070.0000
 20
 255.8600
 11
1070.0000
 21
 264.1400
  0
LINE
  8
200
  6
AUSGEZOGEN
 10
1045.8600
 20
 250.0000
 11
1054.1400
 21
 250.0000
  0
LINE
  8
200
  6
AUSGEZOGEN
 10
1060.0000
 20
 264.1400
 11
1060.0000
 21
 255.8600
  0
LINE
  8
200
  6
AUSGEZOGEN
 10
1045.8600
 20
 270.0000
 11
1054.1400
 21
 270.0000
  0
LINE
  8
200
  6
AUSGEZOGEN
 10
1040.0000
 20
 255.8600
 11
1040.0000
 21
 264.1400
  0
LINE
  8
200
  6
AUSGEZOGEN
 10
1015.8600
 20
 250.0000
 11
1024.1400
 21
 250.0000
  0
LINE
  8
200
  6
AUSGEZOGEN
 10
1030.0000
 20
 264.1400
 11
1030.0000
 21
 255.8600
  0
LINE
  8
200
  6
AUSGEZOGEN
 10
1015.8600
 20
 270.0000
 11
1024.1400
 21
 270.0000
  0
LINE
  8
200
  6
AUSGEZOGEN
 10
1010.0000
 20
 255.8600
 11
1010.0000
 21
 264.1400
  0
LINE
  8
200
  6
AUSGEZOGEN
 10
 985.8600
 20
 250.0000
 11
 994.1400
 21
 250.0000
  0
LINE
  8
200
  6
AUSGEZOGEN
 10
1000.0000
 20
 264.1400
 11
1000.0000
 21
 255.8600
  0
LINE
  8
200
  6
AUSGEZOGEN
 10
 985.8600
 20
 270.0000
 11
 994.1400
 21
 270.0000
  0
LINE
  8
200
  6
AUSGEZOGEN
 10
 980.0000
 20
 255.8600
 11
 980.0000
 21
 264.1400
  0
LINE
  8
200
  6
AUSGEZOGEN
 10
 955.8600
 20
 250.0000
 11
 964.1400
 21
 250.0000
  0
LINE
  8
200
  6
AUSGEZOGEN
 10
 970.0000
 20
 264.1400
 11
 970.0000
 21
 255.8600
  0
LINE
  8
200
  6
AUSGEZOGEN
 10
 955.8600
 20
 270.0000
 11
 964.1400
 21
 270.0000
  0
LINE
  8
200
  6
AUSGEZOGEN
 10
 950.0000
 20
 255.8600
 11
 950.0000
 21
 264.1400
  0
LINE
  8
200
  6
AUSGEZOGEN
 10
1414.1400
 20
 220.0000
 11
1405.8600
 21
 220.0000
  0
LINE
  8
200
  6
AUSGEZOGEN
 10
1420.0000
 20
 234.1400
 11
1420.0000
 21
 225.8600
  0
LINE
  8
200
  6
AUSGEZOGEN
 10
1405.8600
 20
 240.0000
 11
1414.1400
 21
 240.0000
  0
LINE
  8
200
  6
AUSGEZOGEN
 10
1400.0000
 20
 225.8600
 11
1400.0000
 21
 234.1400
  0
LINE
  8
200
  6
AUSGEZOGEN
 10
1375.8600
 20
 220.0000
 11
1384.1400
 21
 220.0000
  0
LINE
  8
200
  6
AUSGEZOGEN
 10
1390.0000
 20
 234.1400
 11
1390.0000
 21
 225.8600
  0
LINE
  8
200
  6
AUSGEZOGEN
 10
1375.8600
 20
 240.0000
 11
1384.1400
 21
 240.0000
  0
LINE
  8
200
  6
AUSGEZOGEN
 10
1370.0000
 20
 225.8600
 11
1370.0000
 21
 234.1400
  0
LINE
  8
200
  6
AUSGEZOGEN
 10
1345.8600
 20
 220.0000
 11
1354.1400
 21
 220.0000
  0
LINE
  8
200
  6
AUSGEZOGEN
 10
1360.0000
 20
 234.1400
 11
1360.0000
 21
 225.8600
  0
LINE
  8
200
  6
AUSGEZOGEN
 10
1345.8600
 20
 240.0000
 11
1354.1400
 21
 240.0000
  0
LINE
  8
200
  6
AUSGEZOGEN
 10
1340.0000
 20
 225.8600
 11
1340.0000
 21
 234.1400
  0
LINE
  8
200
  6
AUSGEZOGEN
 10
1315.8600
 20
 220.0000
 11
1324.1400
 21
 220.0000
  0
LINE
  8
200
  6
AUSGEZOGEN
 10
1330.0000
 20
 234.1400
 11
1330.0000
 21
 225.8600
  0
LINE
  8
200
  6
AUSGEZOGEN
 10
1315.8600
 20
 240.0000
 11
1324.1400
 21
 240.0000
  0
LINE
  8
200
  6
AUSGEZOGEN
 10
1310.0000
 20
 225.8600
 11
1310.0000
 21
 234.1400
  0
LINE
  8
200
  6
AUSGEZOGEN
 10
1285.8600
 20
 220.0000
 11
1294.1400
 21
 220.0000
  0
LINE
  8
200
  6
AUSGEZOGEN
 10
1300.0000
 20
 234.1400
 11
1300.0000
 21
 225.8600
  0
LINE
  8
200
  6
AUSGEZOGEN
 10
1285.8600
 20
 240.0000
 11
1294.1400
 21
 240.0000
  0
LINE
  8
200
  6
AUSGEZOGEN
 10
1280.0000
 20
 225.8600
 11
1280.0000
 21
 234.1400
  0
LINE
  8
200
  6
AUSGEZOGEN
 10
1255.8600
 20
 220.0000
 11
1264.1400
 21
 220.0000
  0
LINE
  8
200
  6
AUSGEZOGEN
 10
1270.0000
 20
 234.1400
 11
1270.0000
 21
 225.8600
  0
LINE
  8
200
  6
AUSGEZOGEN
 10
1255.8600
 20
 240.0000
 11
1264.1400
 21
 240.0000
  0
LINE
  8
200
  6
AUSGEZOGEN
 10
1250.0000
 20
 225.8600
 11
1250.0000
 21
 234.1400
  0
LINE
  8
200
  6
AUSGEZOGEN
 10
1225.8600
 20
 220.0000
 11
1234.1400
 21
 220.0000
  0
LINE
  8
200
  6
AUSGEZOGEN
 10
1240.0000
 20
 234.1400
 11
1240.0000
 21
 225.8600
  0
LINE
  8
200
  6
AUSGEZOGEN
 10
1225.8600
 20
 240.0000
 11
1234.1400
 21
 240.0000
  0
LINE
  8
200
  6
AUSGEZOGEN
 10
1220.0000
 20
 225.8600
 11
1220.0000
 21
 234.1400
  0
LINE
  8
200
  6
AUSGEZOGEN
 10
1195.8600
 20
 220.0000
 11
1204.1400
 21
 220.0000
  0
LINE
  8
200
  6
AUSGEZOGEN
 10
1210.0000
 20
 234.1400
 11
1210.0000
 21
 225.8600
  0
LINE
  8
200
  6
AUSGEZOGEN
 10
1195.8600
 20
 240.0000
 11
1204.1400
 21
 240.0000
  0
LINE
  8
200
  6
AUSGEZOGEN
 10
1190.0000
 20
 225.8600
 11
1190.0000
 21
 234.1400
  0
LINE
  8
200
  6
AUSGEZOGEN
 10
1165.8600
 20
 220.0000
 11
1174.1400
 21
 220.0000
  0
LINE
  8
200
  6
AUSGEZOGEN
 10
1180.0000
 20
 234.1400
 11
1180.0000
 21
 225.8600
  0
LINE
  8
200
  6
AUSGEZOGEN
 10
1165.8600
 20
 240.0000
 11
1174.1400
 21
 240.0000
  0
LINE
  8
200
  6
AUSGEZOGEN
 10
1160.0000
 20
 225.8600
 11
1160.0000
 21
 234.1400
  0
LINE
  8
200
  6
AUSGEZOGEN
 10
1135.8600
 20
 220.0000
 11
1144.1400
 21
 220.0000
  0
LINE
  8
200
  6
AUSGEZOGEN
 10
1150.0000
 20
 234.1400
 11
1150.0000
 21
 225.8600
  0
LINE
  8
200
  6
AUSGEZOGEN
 10
1135.8600
 20
 240.0000
 11
1144.1400
 21
 240.0000
  0
LINE
  8
200
  6
AUSGEZOGEN
 10
1130.0000
 20
 225.8600
 11
1130.0000
 21
 234.1400
  0
LINE
  8
200
  6
AUSGEZOGEN
 10
1105.8600
 20
 220.0000
 11
1114.1400
 21
 220.0000
  0
LINE
  8
200
  6
AUSGEZOGEN
 10
1120.0000
 20
 234.1400
 11
1120.0000
 21
 225.8600
  0
LINE
  8
200
  6
AUSGEZOGEN
 10
1105.8600
 20
 240.0000
 11
1114.1400
 21
 240.0000
  0
LINE
  8
200
  6
AUSGEZOGEN
 10
1100.0000
 20
 225.8600
 11
1100.0000
 21
 234.1400
  0
LINE
  8
200
  6
AUSGEZOGEN
 10
1075.8600
 20
 220.0000
 11
1084.1400
 21
 220.0000
  0
LINE
  8
200
  6
AUSGEZOGEN
 10
1090.0000
 20
 234.1400
 11
1090.0000
 21
 225.8600
  0
LINE
  8
200
  6
AUSGEZOGEN
 10
1075.8600
 20
 240.0000
 11
1084.1400
 21
 240.0000
  0
LINE
  8
200
  6
AUSGEZOGEN
 10
1070.0000
 20
 225.8600
 11
1070.0000
 21
 234.1400
  0
LINE
  8
200
  6
AUSGEZOGEN
 10
1045.8600
 20
 220.0000
 11
1054.1400
 21
 220.0000
  0
LINE
  8
200
  6
AUSGEZOGEN
 10
1060.0000
 20
 234.1400
 11
1060.0000
 21
 225.8600
  0
LINE
  8
200
  6
AUSGEZOGEN
 10
1045.8600
 20
 240.0000
 11
1054.1400
 21
 240.0000
  0
LINE
  8
200
  6
AUSGEZOGEN
 10
1040.0000
 20
 225.8600
 11
1040.0000
 21
 234.1400
  0
LINE
  8
200
  6
AUSGEZOGEN
 10
1015.8600
 20
 220.0000
 11
1024.1400
 21
 220.0000
  0
LINE
  8
200
  6
AUSGEZOGEN
 10
1030.0000
 20
 234.1400
 11
1030.0000
 21
 225.8600
  0
LINE
  8
200
  6
AUSGEZOGEN
 10
1015.8600
 20
 240.0000
 11
1024.1400
 21
 240.0000
  0
LINE
  8
200
  6
AUSGEZOGEN
 10
1010.0000
 20
 225.8600
 11
1010.0000
 21
 234.1400
  0
LINE
  8
200
  6
AUSGEZOGEN
 10
 985.8600
 20
 220.0000
 11
 994.1400
 21
 220.0000
  0
LINE
  8
200
  6
AUSGEZOGEN
 10
1000.0000
 20
 234.1400
 11
1000.0000
 21
 225.8600
  0
LINE
  8
200
  6
AUSGEZOGEN
 10
 985.8600
 20
 240.0000
 11
 994.1400
 21
 240.0000
  0
LINE
  8
200
  6
AUSGEZOGEN
 10
 980.0000
 20
 225.8600
 11
 980.0000
 21
 234.1400
  0
LINE
  8
200
  6
AUSGEZOGEN
 10
 955.8600
 20
 220.0000
 11
 964.1400
 21
 220.0000
  0
LINE
  8
200
  6
AUSGEZOGEN
 10
 970.0000
 20
 234.1400
 11
 970.0000
 21
 225.8600
  0
LINE
  8
200
  6
AUSGEZOGEN
 10
 955.8600
 20
 240.0000
 11
 964.1400
 21
 240.0000
  0
LINE
  8
200
  6
AUSGEZOGEN
 10
 950.0000
 20
 225.8600
 11
 950.0000
 21
 234.1400
  0
LINE
  8
200
  6
AUSGEZOGEN
 10
1414.1400
 20
 190.0000
 11
1405.8600
 21
 190.0000
  0
LINE
  8
200
  6
AUSGEZOGEN
 10
1420.0000
 20
 204.1400
 11
1420.0000
 21
 195.8600
  0
LINE
  8
200
  6
AUSGEZOGEN
 10
1405.8600
 20
 210.0000
 11
1414.1400
 21
 210.0000
  0
LINE
  8
200
  6
AUSGEZOGEN
 10
1400.0000
 20
 195.8600
 11
1400.0000
 21
 204.1400
  0
LINE
  8
200
  6
AUSGEZOGEN
 10
1375.8600
 20
 190.0000
 11
1384.1400
 21
 190.0000
  0
LINE
  8
200
  6
AUSGEZOGEN
 10
1390.0000
 20
 204.1400
 11
1390.0000
 21
 195.8600
  0
LINE
  8
200
  6
AUSGEZOGEN
 10
1375.8600
 20
 210.0000
 11
1384.1400
 21
 210.0000
  0
LINE
  8
200
  6
AUSGEZOGEN
 10
1370.0000
 20
 195.8600
 11
1370.0000
 21
 204.1400
  0
LINE
  8
200
  6
AUSGEZOGEN
 10
1345.8600
 20
 190.0000
 11
1354.1400
 21
 190.0000
  0
LINE
  8
200
  6
AUSGEZOGEN
 10
1360.0000
 20
 204.1400
 11
1360.0000
 21
 195.8600
  0
LINE
  8
200
  6
AUSGEZOGEN
 10
1345.8600
 20
 210.0000
 11
1354.1400
 21
 210.0000
  0
LINE
  8
200
  6
AUSGEZOGEN
 10
1340.0000
 20
 195.8600
 11
1340.0000
 21
 204.1400
  0
LINE
  8
200
  6
AUSGEZOGEN
 10
1315.8600
 20
 190.0000
 11
1324.1400
 21
 190.0000
  0
LINE
  8
200
  6
AUSGEZOGEN
 10
1330.0000
 20
 204.1400
 11
1330.0000
 21
 195.8600
  0
LINE
  8
200
  6
AUSGEZOGEN
 10
1315.8600
 20
 210.0000
 11
1324.1400
 21
 210.0000
  0
LINE
  8
200
  6
AUSGEZOGEN
 10
1310.0000
 20
 195.8600
 11
1310.0000
 21
 204.1400
  0
LINE
  8
200
  6
AUSGEZOGEN
 10
1285.8600
 20
 190.0000
 11
1294.1400
 21
 190.0000
  0
LINE
  8
200
  6
AUSGEZOGEN
 10
1300.0000
 20
 204.1400
 11
1300.0000
 21
 195.8600
  0
LINE
  8
200
  6
AUSGEZOGEN
 10
1285.8600
 20
 210.0000
 11
1294.1400
 21
 210.0000
  0
LINE
  8
200
  6
AUSGEZOGEN
 10
1280.0000
 20
 195.8600
 11
1280.0000
 21
 204.1400
  0
LINE
  8
200
  6
AUSGEZOGEN
 10
1255.8600
 20
 190.0000
 11
1264.1400
 21
 190.0000
  0
LINE
  8
200
  6
AUSGEZOGEN
 10
1270.0000
 20
 204.1400
 11
1270.0000
 21
 195.8600
  0
LINE
  8
200
  6
AUSGEZOGEN
 10
1255.8600
 20
 210.0000
 11
1264.1400
 21
 210.0000
  0
LINE
  8
200
  6
AUSGEZOGEN
 10
1250.0000
 20
 195.8600
 11
1250.0000
 21
 204.1400
  0
LINE
  8
200
  6
AUSGEZOGEN
 10
1225.8600
 20
 190.0000
 11
1234.1400
 21
 190.0000
  0
LINE
  8
200
  6
AUSGEZOGEN
 10
1240.0000
 20
 204.1400
 11
1240.0000
 21
 195.8600
  0
LINE
  8
200
  6
AUSGEZOGEN
 10
1225.8600
 20
 210.0000
 11
1234.1400
 21
 210.0000
  0
LINE
  8
200
  6
AUSGEZOGEN
 10
1220.0000
 20
 195.8600
 11
1220.0000
 21
 204.1400
  0
LINE
  8
200
  6
AUSGEZOGEN
 10
1195.8600
 20
 190.0000
 11
1204.1400
 21
 190.0000
  0
LINE
  8
200
  6
AUSGEZOGEN
 10
1210.0000
 20
 204.1400
 11
1210.0000
 21
 195.8600
  0
LINE
  8
200
  6
AUSGEZOGEN
 10
1195.8600
 20
 210.0000
 11
1204.1400
 21
 210.0000
  0
LINE
  8
200
  6
AUSGEZOGEN
 10
1190.0000
 20
 195.8600
 11
1190.0000
 21
 204.1400
  0
LINE
  8
200
  6
AUSGEZOGEN
 10
1165.8600
 20
 190.0000
 11
1174.1400
 21
 190.0000
  0
LINE
  8
200
  6
AUSGEZOGEN
 10
1180.0000
 20
 204.1400
 11
1180.0000
 21
 195.8600
  0
LINE
  8
200
  6
AUSGEZOGEN
 10
1165.8600
 20
 210.0000
 11
1174.1400
 21
 210.0000
  0
LINE
  8
200
  6
AUSGEZOGEN
 10
1160.0000
 20
 195.8600
 11
1160.0000
 21
 204.1400
  0
LINE
  8
200
  6
AUSGEZOGEN
 10
1135.8600
 20
 190.0000
 11
1144.1400
 21
 190.0000
  0
LINE
  8
200
  6
AUSGEZOGEN
 10
1150.0000
 20
 204.1400
 11
1150.0000
 21
 195.8600
  0
LINE
  8
200
  6
AUSGEZOGEN
 10
1135.8600
 20
 210.0000
 11
1144.1400
 21
 210.0000
  0
LINE
  8
200
  6
AUSGEZOGEN
 10
1130.0000
 20
 195.8600
 11
1130.0000
 21
 204.1400
  0
LINE
  8
200
  6
AUSGEZOGEN
 10
1105.8600
 20
 190.0000
 11
1114.1400
 21
 190.0000
  0
LINE
  8
200
  6
AUSGEZOGEN
 10
1120.0000
 20
 204.1400
 11
1120.0000
 21
 195.8600
  0
LINE
  8
200
  6
AUSGEZOGEN
 10
1105.8600
 20
 210.0000
 11
1114.1400
 21
 210.0000
  0
LINE
  8
200
  6
AUSGEZOGEN
 10
1100.0000
 20
 195.8600
 11
1100.0000
 21
 204.1400
  0
LINE
  8
200
  6
AUSGEZOGEN
 10
1075.8600
 20
 190.0000
 11
1084.1400
 21
 190.0000
  0
LINE
  8
200
  6
AUSGEZOGEN
 10
1090.0000
 20
 204.1400
 11
1090.0000
 21
 195.8600
  0
LINE
  8
200
  6
AUSGEZOGEN
 10
1075.8600
 20
 210.0000
 11
1084.1400
 21
 210.0000
  0
LINE
  8
200
  6
AUSGEZOGEN
 10
1070.0000
 20
 195.8600
 11
1070.0000
 21
 204.1400
  0
LINE
  8
200
  6
AUSGEZOGEN
 10
1045.8600
 20
 190.0000
 11
1054.1400
 21
 190.0000
  0
LINE
  8
200
  6
AUSGEZOGEN
 10
1060.0000
 20
 204.1400
 11
1060.0000
 21
 195.8600
  0
LINE
  8
200
  6
AUSGEZOGEN
 10
1045.8600
 20
 210.0000
 11
1054.1400
 21
 210.0000
  0
LINE
  8
200
  6
AUSGEZOGEN
 10
1040.0000
 20
 195.8600
 11
1040.0000
 21
 204.1400
  0
LINE
  8
200
  6
AUSGEZOGEN
 10
1015.8600
 20
 190.0000
 11
1024.1400
 21
 190.0000
  0
LINE
  8
200
  6
AUSGEZOGEN
 10
1030.0000
 20
 204.1400
 11
1030.0000
 21
 195.8600
  0
LINE
  8
200
  6
AUSGEZOGEN
 10
1015.8600
 20
 210.0000
 11
1024.1400
 21
 210.0000
  0
LINE
  8
200
  6
AUSGEZOGEN
 10
1010.0000
 20
 195.8600
 11
1010.0000
 21
 204.1400
  0
LINE
  8
200
  6
AUSGEZOGEN
 10
 985.8600
 20
 190.0000
 11
 994.1400
 21
 190.0000
  0
LINE
  8
200
  6
AUSGEZOGEN
 10
1000.0000
 20
 204.1400
 11
1000.0000
 21
 195.8600
  0
LINE
  8
200
  6
AUSGEZOGEN
 10
 985.8600
 20
 210.0000
 11
 994.1400
 21
 210.0000
  0
LINE
  8
200
  6
AUSGEZOGEN
 10
 980.0000
 20
 195.8600
 11
 980.0000
 21
 204.1400
  0
LINE
  8
200
  6
AUSGEZOGEN
 10
 955.8600
 20
 190.0000
 11
 964.1400
 21
 190.0000
  0
LINE
  8
200
  6
AUSGEZOGEN
 10
 970.0000
 20
 204.1400
 11
 970.0000
 21
 195.8600
  0
LINE
  8
200
  6
AUSGEZOGEN
 10
 955.8600
 20
 210.0000
 11
 964.1400
 21
 210.0000
  0
LINE
  8
200
  6
AUSGEZOGEN
 10
 950.0000
 20
 195.8600
 11
 950.0000
 21
 204.1400
  0
LINE
  8
200
  6
AUSGEZOGEN
 10
1414.1400
 20
 160.0000
 11
1405.8600
 21
 160.0000
  0
LINE
  8
200
  6
AUSGEZOGEN
 10
1420.0000
 20
 174.1400
 11
1420.0000
 21
 165.8600
  0
LINE
  8
200
  6
AUSGEZOGEN
 10
1405.8600
 20
 180.0000
 11
1414.1400
 21
 180.0000
  0
LINE
  8
200
  6
AUSGEZOGEN
 10
1400.0000
 20
 165.8600
 11
1400.0000
 21
 174.1400
  0
LINE
  8
200
  6
AUSGEZOGEN
 10
1375.8600
 20
 160.0000
 11
1384.1400
 21
 160.0000
  0
LINE
  8
200
  6
AUSGEZOGEN
 10
1390.0000
 20
 174.1400
 11
1390.0000
 21
 165.8600
  0
LINE
  8
200
  6
AUSGEZOGEN
 10
1375.8600
 20
 180.0000
 11
1384.1400
 21
 180.0000
  0
LINE
  8
200
  6
AUSGEZOGEN
 10
1370.0000
 20
 165.8600
 11
1370.0000
 21
 174.1400
  0
LINE
  8
200
  6
AUSGEZOGEN
 10
1345.8600
 20
 160.0000
 11
1354.1400
 21
 160.0000
  0
LINE
  8
200
  6
AUSGEZOGEN
 10
1360.0000
 20
 174.1400
 11
1360.0000
 21
 165.8600
  0
LINE
  8
200
  6
AUSGEZOGEN
 10
1345.8600
 20
 180.0000
 11
1354.1400
 21
 180.0000
  0
LINE
  8
200
  6
AUSGEZOGEN
 10
1340.0000
 20
 165.8600
 11
1340.0000
 21
 174.1400
  0
LINE
  8
200
  6
AUSGEZOGEN
 10
1315.8600
 20
 160.0000
 11
1324.1400
 21
 160.0000
  0
LINE
  8
200
  6
AUSGEZOGEN
 10
1330.0000
 20
 174.1400
 11
1330.0000
 21
 165.8600
  0
LINE
  8
200
  6
AUSGEZOGEN
 10
1315.8600
 20
 180.0000
 11
1324.1400
 21
 180.0000
  0
LINE
  8
200
  6
AUSGEZOGEN
 10
1310.0000
 20
 165.8600
 11
1310.0000
 21
 174.1400
  0
LINE
  8
200
  6
AUSGEZOGEN
 10
1285.8600
 20
 160.0000
 11
1294.1400
 21
 160.0000
  0
LINE
  8
200
  6
AUSGEZOGEN
 10
1300.0000
 20
 174.1400
 11
1300.0000
 21
 165.8600
  0
LINE
  8
200
  6
AUSGEZOGEN
 10
1285.8600
 20
 180.0000
 11
1294.1400
 21
 180.0000
  0
LINE
  8
200
  6
AUSGEZOGEN
 10
1280.0000
 20
 165.8600
 11
1280.0000
 21
 174.1400
  0
LINE
  8
200
  6
AUSGEZOGEN
 10
1255.8600
 20
 160.0000
 11
1264.1400
 21
 160.0000
  0
LINE
  8
200
  6
AUSGEZOGEN
 10
1270.0000
 20
 174.1400
 11
1270.0000
 21
 165.8600
  0
LINE
  8
200
  6
AUSGEZOGEN
 10
1255.8600
 20
 180.0000
 11
1264.1400
 21
 180.0000
  0
LINE
  8
200
  6
AUSGEZOGEN
 10
1250.0000
 20
 165.8600
 11
1250.0000
 21
 174.1400
  0
LINE
  8
200
  6
AUSGEZOGEN
 10
1225.8600
 20
 160.0000
 11
1234.1400
 21
 160.0000
  0
LINE
  8
200
  6
AUSGEZOGEN
 10
1240.0000
 20
 174.1400
 11
1240.0000
 21
 165.8600
  0
LINE
  8
200
  6
AUSGEZOGEN
 10
1225.8600
 20
 180.0000
 11
1234.1400
 21
 180.0000
  0
LINE
  8
200
  6
AUSGEZOGEN
 10
1220.0000
 20
 165.8600
 11
1220.0000
 21
 174.1400
  0
LINE
  8
200
  6
AUSGEZOGEN
 10
1195.8600
 20
 160.0000
 11
1204.1400
 21
 160.0000
  0
LINE
  8
200
  6
AUSGEZOGEN
 10
1210.0000
 20
 174.1400
 11
1210.0000
 21
 165.8600
  0
LINE
  8
200
  6
AUSGEZOGEN
 10
1195.8600
 20
 180.0000
 11
1204.1400
 21
 180.0000
  0
LINE
  8
200
  6
AUSGEZOGEN
 10
1190.0000
 20
 165.8600
 11
1190.0000
 21
 174.1400
  0
LINE
  8
200
  6
AUSGEZOGEN
 10
1165.8600
 20
 160.0000
 11
1174.1400
 21
 160.0000
  0
LINE
  8
200
  6
AUSGEZOGEN
 10
1180.0000
 20
 174.1400
 11
1180.0000
 21
 165.8600
  0
LINE
  8
200
  6
AUSGEZOGEN
 10
1165.8600
 20
 180.0000
 11
1174.1400
 21
 180.0000
  0
LINE
  8
200
  6
AUSGEZOGEN
 10
1160.0000
 20
 165.8600
 11
1160.0000
 21
 174.1400
  0
LINE
  8
200
  6
AUSGEZOGEN
 10
1135.8600
 20
 160.0000
 11
1144.1400
 21
 160.0000
  0
LINE
  8
200
  6
AUSGEZOGEN
 10
1150.0000
 20
 174.1400
 11
1150.0000
 21
 165.8600
  0
LINE
  8
200
  6
AUSGEZOGEN
 10
1135.8600
 20
 180.0000
 11
1144.1400
 21
 180.0000
  0
LINE
  8
200
  6
AUSGEZOGEN
 10
1130.0000
 20
 165.8600
 11
1130.0000
 21
 174.1400
  0
LINE
  8
200
  6
AUSGEZOGEN
 10
1105.8600
 20
 160.0000
 11
1114.1400
 21
 160.0000
  0
LINE
  8
200
  6
AUSGEZOGEN
 10
1120.0000
 20
 174.1400
 11
1120.0000
 21
 165.8600
  0
LINE
  8
200
  6
AUSGEZOGEN
 10
1105.8600
 20
 180.0000
 11
1114.1400
 21
 180.0000
  0
LINE
  8
200
  6
AUSGEZOGEN
 10
1100.0000
 20
 165.8600
 11
1100.0000
 21
 174.1400
  0
LINE
  8
200
  6
AUSGEZOGEN
 10
1075.8600
 20
 160.0000
 11
1084.1400
 21
 160.0000
  0
LINE
  8
200
  6
AUSGEZOGEN
 10
1090.0000
 20
 174.1400
 11
1090.0000
 21
 165.8600
  0
LINE
  8
200
  6
AUSGEZOGEN
 10
1075.8600
 20
 180.0000
 11
1084.1400
 21
 180.0000
  0
LINE
  8
200
  6
AUSGEZOGEN
 10
1070.0000
 20
 165.8600
 11
1070.0000
 21
 174.1400
  0
LINE
  8
200
  6
AUSGEZOGEN
 10
1045.8600
 20
 160.0000
 11
1054.1400
 21
 160.0000
  0
LINE
  8
200
  6
AUSGEZOGEN
 10
1060.0000
 20
 174.1400
 11
1060.0000
 21
 165.8600
  0
LINE
  8
200
  6
AUSGEZOGEN
 10
1045.8600
 20
 180.0000
 11
1054.1400
 21
 180.0000
  0
LINE
  8
200
  6
AUSGEZOGEN
 10
1040.0000
 20
 165.8600
 11
1040.0000
 21
 174.1400
  0
LINE
  8
200
  6
AUSGEZOGEN
 10
1015.8600
 20
 160.0000
 11
1024.1400
 21
 160.0000
  0
LINE
  8
200
  6
AUSGEZOGEN
 10
1030.0000
 20
 174.1400
 11
1030.0000
 21
 165.8600
  0
LINE
  8
200
  6
AUSGEZOGEN
 10
1015.8600
 20
 180.0000
 11
1024.1400
 21
 180.0000
  0
LINE
  8
200
  6
AUSGEZOGEN
 10
1010.0000
 20
 165.8600
 11
1010.0000
 21
 174.1400
  0
LINE
  8
200
  6
AUSGEZOGEN
 10
 985.8600
 20
 160.0000
 11
 994.1400
 21
 160.0000
  0
LINE
  8
200
  6
AUSGEZOGEN
 10
1000.0000
 20
 174.1400
 11
1000.0000
 21
 165.8600
  0
LINE
  8
200
  6
AUSGEZOGEN
 10
 985.8600
 20
 180.0000
 11
 994.1400
 21
 180.0000
  0
LINE
  8
200
  6
AUSGEZOGEN
 10
 980.0000
 20
 165.8600
 11
 980.0000
 21
 174.1400
  0
LINE
  8
200
  6
AUSGEZOGEN
 10
 955.8600
 20
 160.0000
 11
 964.1400
 21
 160.0000
  0
LINE
  8
200
  6
AUSGEZOGEN
 10
 970.0000
 20
 174.1400
 11
 970.0000
 21
 165.8600
  0
LINE
  8
200
  6
AUSGEZOGEN
 10
 955.8600
 20
 180.0000
 11
 964.1400
 21
 180.0000
  0
LINE
  8
200
  6
AUSGEZOGEN
 10
 950.0000
 20
 165.8600
 11
 950.0000
 21
 174.1400
  0
LINE
  8
200
  6
AUSGEZOGEN
 10
1414.1400
 20
 130.0000
 11
1405.8600
 21
 130.0000
  0
LINE
  8
200
  6
AUSGEZOGEN
 10
1420.0000
 20
 144.1400
 11
1420.0000
 21
 135.8600
  0
LINE
  8
200
  6
AUSGEZOGEN
 10
1405.8600
 20
 150.0000
 11
1414.1400
 21
 150.0000
  0
LINE
  8
200
  6
AUSGEZOGEN
 10
1400.0000
 20
 135.8600
 11
1400.0000
 21
 144.1400
  0
LINE
  8
200
  6
AUSGEZOGEN
 10
1375.8600
 20
 130.0000
 11
1384.1400
 21
 130.0000
  0
LINE
  8
200
  6
AUSGEZOGEN
 10
1390.0000
 20
 144.1400
 11
1390.0000
 21
 135.8600
  0
LINE
  8
200
  6
AUSGEZOGEN
 10
1375.8600
 20
 150.0000
 11
1384.1400
 21
 150.0000
  0
LINE
  8
200
  6
AUSGEZOGEN
 10
1370.0000
 20
 135.8600
 11
1370.0000
 21
 144.1400
  0
LINE
  8
200
  6
AUSGEZOGEN
 10
1345.8600
 20
 130.0000
 11
1354.1400
 21
 130.0000
  0
LINE
  8
200
  6
AUSGEZOGEN
 10
1360.0000
 20
 144.1400
 11
1360.0000
 21
 135.8600
  0
LINE
  8
200
  6
AUSGEZOGEN
 10
1345.8600
 20
 150.0000
 11
1354.1400
 21
 150.0000
  0
LINE
  8
200
  6
AUSGEZOGEN
 10
1340.0000
 20
 135.8600
 11
1340.0000
 21
 144.1400
  0
LINE
  8
200
  6
AUSGEZOGEN
 10
1315.8600
 20
 130.0000
 11
1324.1400
 21
 130.0000
  0
LINE
  8
200
  6
AUSGEZOGEN
 10
1330.0000
 20
 144.1400
 11
1330.0000
 21
 135.8600
  0
LINE
  8
200
  6
AUSGEZOGEN
 10
1315.8600
 20
 150.0000
 11
1324.1400
 21
 150.0000
  0
LINE
  8
200
  6
AUSGEZOGEN
 10
1310.0000
 20
 135.8600
 11
1310.0000
 21
 144.1400
  0
LINE
  8
200
  6
AUSGEZOGEN
 10
1285.8600
 20
 130.0000
 11
1294.1400
 21
 130.0000
  0
LINE
  8
200
  6
AUSGEZOGEN
 10
1300.0000
 20
 144.1400
 11
1300.0000
 21
 135.8600
  0
LINE
  8
200
  6
AUSGEZOGEN
 10
1285.8600
 20
 150.0000
 11
1294.1400
 21
 150.0000
  0
LINE
  8
200
  6
AUSGEZOGEN
 10
1280.0000
 20
 135.8600
 11
1280.0000
 21
 144.1400
  0
LINE
  8
200
  6
AUSGEZOGEN
 10
1255.8600
 20
 130.0000
 11
1264.1400
 21
 130.0000
  0
LINE
  8
200
  6
AUSGEZOGEN
 10
1270.0000
 20
 144.1400
 11
1270.0000
 21
 135.8600
  0
LINE
  8
200
  6
AUSGEZOGEN
 10
1255.8600
 20
 150.0000
 11
1264.1400
 21
 150.0000
  0
LINE
  8
200
  6
AUSGEZOGEN
 10
1250.0000
 20
 135.8600
 11
1250.0000
 21
 144.1400
  0
LINE
  8
200
  6
AUSGEZOGEN
 10
1225.8600
 20
 130.0000
 11
1234.1400
 21
 130.0000
  0
LINE
  8
200
  6
AUSGEZOGEN
 10
1240.0000
 20
 144.1400
 11
1240.0000
 21
 135.8600
  0
LINE
  8
200
  6
AUSGEZOGEN
 10
1225.8600
 20
 150.0000
 11
1234.1400
 21
 150.0000
  0
LINE
  8
200
  6
AUSGEZOGEN
 10
1220.0000
 20
 135.8600
 11
1220.0000
 21
 144.1400
  0
LINE
  8
200
  6
AUSGEZOGEN
 10
1195.8600
 20
 130.0000
 11
1204.1400
 21
 130.0000
  0
LINE
  8
200
  6
AUSGEZOGEN
 10
1210.0000
 20
 144.1400
 11
1210.0000
 21
 135.8600
  0
LINE
  8
200
  6
AUSGEZOGEN
 10
1195.8600
 20
 150.0000
 11
1204.1400
 21
 150.0000
  0
LINE
  8
200
  6
AUSGEZOGEN
 10
1190.0000
 20
 135.8600
 11
1190.0000
 21
 144.1400
  0
LINE
  8
200
  6
AUSGEZOGEN
 10
1165.8600
 20
 130.0000
 11
1174.1400
 21
 130.0000
  0
LINE
  8
200
  6
AUSGEZOGEN
 10
1180.0000
 20
 144.1400
 11
1180.0000
 21
 135.8600
  0
LINE
  8
200
  6
AUSGEZOGEN
 10
1165.8600
 20
 150.0000
 11
1174.1400
 21
 150.0000
  0
LINE
  8
200
  6
AUSGEZOGEN
 10
1160.0000
 20
 135.8600
 11
1160.0000
 21
 144.1400
  0
LINE
  8
200
  6
AUSGEZOGEN
 10
1135.8600
 20
 130.0000
 11
1144.1400
 21
 130.0000
  0
LINE
  8
200
  6
AUSGEZOGEN
 10
1150.0000
 20
 144.1400
 11
1150.0000
 21
 135.8600
  0
LINE
  8
200
  6
AUSGEZOGEN
 10
1135.8600
 20
 150.0000
 11
1144.1400
 21
 150.0000
  0
LINE
  8
200
  6
AUSGEZOGEN
 10
1130.0000
 20
 135.8600
 11
1130.0000
 21
 144.1400
  0
LINE
  8
200
  6
AUSGEZOGEN
 10
1105.8600
 20
 130.0000
 11
1114.1400
 21
 130.0000
  0
LINE
  8
200
  6
AUSGEZOGEN
 10
1120.0000
 20
 144.1400
 11
1120.0000
 21
 135.8600
  0
LINE
  8
200
  6
AUSGEZOGEN
 10
1105.8600
 20
 150.0000
 11
1114.1400
 21
 150.0000
  0
LINE
  8
200
  6
AUSGEZOGEN
 10
1100.0000
 20
 135.8600
 11
1100.0000
 21
 144.1400
  0
LINE
  8
200
  6
AUSGEZOGEN
 10
1075.8600
 20
 130.0000
 11
1084.1400
 21
 130.0000
  0
LINE
  8
200
  6
AUSGEZOGEN
 10
1090.0000
 20
 144.1400
 11
1090.0000
 21
 135.8600
  0
LINE
  8
200
  6
AUSGEZOGEN
 10
1075.8600
 20
 150.0000
 11
1084.1400
 21
 150.0000
  0
LINE
  8
200
  6
AUSGEZOGEN
 10
1070.0000
 20
 135.8600
 11
1070.0000
 21
 144.1400
  0
LINE
  8
200
  6
AUSGEZOGEN
 10
1045.8600
 20
 130.0000
 11
1054.1400
 21
 130.0000
  0
LINE
  8
200
  6
AUSGEZOGEN
 10
1060.0000
 20
 144.1400
 11
1060.0000
 21
 135.8600
  0
LINE
  8
200
  6
AUSGEZOGEN
 10
1045.8600
 20
 150.0000
 11
1054.1400
 21
 150.0000
  0
LINE
  8
200
  6
AUSGEZOGEN
 10
1040.0000
 20
 135.8600
 11
1040.0000
 21
 144.1400
  0
LINE
  8
200
  6
AUSGEZOGEN
 10
1015.8600
 20
 130.0000
 11
1024.1400
 21
 130.0000
  0
LINE
  8
200
  6
AUSGEZOGEN
 10
1030.0000
 20
 144.1400
 11
1030.0000
 21
 135.8600
  0
LINE
  8
200
  6
AUSGEZOGEN
 10
1015.8600
 20
 150.0000
 11
1024.1400
 21
 150.0000
  0
LINE
  8
200
  6
AUSGEZOGEN
 10
1010.0000
 20
 135.8600
 11
1010.0000
 21
 144.1400
  0
LINE
  8
200
  6
AUSGEZOGEN
 10
 985.8600
 20
 130.0000
 11
 994.1400
 21
 130.0000
  0
LINE
  8
200
  6
AUSGEZOGEN
 10
1000.0000
 20
 144.1400
 11
1000.0000
 21
 135.8600
  0
LINE
  8
200
  6
AUSGEZOGEN
 10
 985.8600
 20
 150.0000
 11
 994.1400
 21
 150.0000
  0
LINE
  8
200
  6
AUSGEZOGEN
 10
 980.0000
 20
 135.8600
 11
 980.0000
 21
 144.1400
  0
LINE
  8
200
  6
AUSGEZOGEN
 10
 955.8600
 20
 130.0000
 11
 964.1400
 21
 130.0000
  0
LINE
  8
200
  6
AUSGEZOGEN
 10
 970.0000
 20
 144.1400
 11
 970.0000
 21
 135.8600
  0
LINE
  8
200
  6
AUSGEZOGEN
 10
 955.8600
 20
 150.0000
 11
 964.1400
 21
 150.0000
  0
LINE
  8
200
  6
AUSGEZOGEN
 10
 950.0000
 20
 135.8600
 11
 950.0000
 21
 144.1400
  0
LINE
  8
200
  6
AUSGEZOGEN
 10
1414.1400
 20
 100.0000
 11
1405.8600
 21
 100.0000
  0
LINE
  8
200
  6
AUSGEZOGEN
 10
1420.0000
 20
 114.1400
 11
1420.0000
 21
 105.8600
  0
LINE
  8
200
  6
AUSGEZOGEN
 10
1405.8600
 20
 120.0000
 11
1414.1400
 21
 120.0000
  0
LINE
  8
200
  6
AUSGEZOGEN
 10
1400.0000
 20
 105.8600
 11
1400.0000
 21
 114.1400
  0
LINE
  8
200
  6
AUSGEZOGEN
 10
1375.8600
 20
 100.0000
 11
1384.1400
 21
 100.0000
  0
LINE
  8
200
  6
AUSGEZOGEN
 10
1390.0000
 20
 114.1400
 11
1390.0000
 21
 105.8600
  0
LINE
  8
200
  6
AUSGEZOGEN
 10
1375.8600
 20
 120.0000
 11
1384.1400
 21
 120.0000
  0
LINE
  8
200
  6
AUSGEZOGEN
 10
1370.0000
 20
 105.8600
 11
1370.0000
 21
 114.1400
  0
LINE
  8
200
  6
AUSGEZOGEN
 10
1345.8600
 20
 100.0000
 11
1354.1400
 21
 100.0000
  0
LINE
  8
200
  6
AUSGEZOGEN
 10
1360.0000
 20
 114.1400
 11
1360.0000
 21
 105.8600
  0
LINE
  8
200
  6
AUSGEZOGEN
 10
1345.8600
 20
 120.0000
 11
1354.1400
 21
 120.0000
  0
LINE
  8
200
  6
AUSGEZOGEN
 10
1340.0000
 20
 105.8600
 11
1340.0000
 21
 114.1400
  0
LINE
  8
200
  6
AUSGEZOGEN
 10
1315.8600
 20
 100.0000
 11
1324.1400
 21
 100.0000
  0
LINE
  8
200
  6
AUSGEZOGEN
 10
1330.0000
 20
 114.1400
 11
1330.0000
 21
 105.8600
  0
LINE
  8
200
  6
AUSGEZOGEN
 10
1315.8600
 20
 120.0000
 11
1324.1400
 21
 120.0000
  0
LINE
  8
200
  6
AUSGEZOGEN
 10
1310.0000
 20
 105.8600
 11
1310.0000
 21
 114.1400
  0
LINE
  8
200
  6
AUSGEZOGEN
 10
1285.8600
 20
 100.0000
 11
1294.1400
 21
 100.0000
  0
LINE
  8
200
  6
AUSGEZOGEN
 10
1300.0000
 20
 114.1400
 11
1300.0000
 21
 105.8600
  0
LINE
  8
200
  6
AUSGEZOGEN
 10
1285.8600
 20
 120.0000
 11
1294.1400
 21
 120.0000
  0
LINE
  8
200
  6
AUSGEZOGEN
 10
1280.0000
 20
 105.8600
 11
1280.0000
 21
 114.1400
  0
LINE
  8
200
  6
AUSGEZOGEN
 10
1255.8600
 20
 100.0000
 11
1264.1400
 21
 100.0000
  0
LINE
  8
200
  6
AUSGEZOGEN
 10
1270.0000
 20
 114.1400
 11
1270.0000
 21
 105.8600
  0
LINE
  8
200
  6
AUSGEZOGEN
 10
1255.8600
 20
 120.0000
 11
1264.1400
 21
 120.0000
  0
LINE
  8
200
  6
AUSGEZOGEN
 10
1250.0000
 20
 105.8600
 11
1250.0000
 21
 114.1400
  0
LINE
  8
200
  6
AUSGEZOGEN
 10
1225.8600
 20
 100.0000
 11
1234.1400
 21
 100.0000
  0
LINE
  8
200
  6
AUSGEZOGEN
 10
1240.0000
 20
 114.1400
 11
1240.0000
 21
 105.8600
  0
LINE
  8
200
  6
AUSGEZOGEN
 10
1225.8600
 20
 120.0000
 11
1234.1400
 21
 120.0000
  0
LINE
  8
200
  6
AUSGEZOGEN
 10
1220.0000
 20
 105.8600
 11
1220.0000
 21
 114.1400
  0
LINE
  8
200
  6
AUSGEZOGEN
 10
1195.8600
 20
 100.0000
 11
1204.1400
 21
 100.0000
  0
LINE
  8
200
  6
AUSGEZOGEN
 10
1210.0000
 20
 114.1400
 11
1210.0000
 21
 105.8600
  0
LINE
  8
200
  6
AUSGEZOGEN
 10
1195.8600
 20
 120.0000
 11
1204.1400
 21
 120.0000
  0
LINE
  8
200
  6
AUSGEZOGEN
 10
1190.0000
 20
 105.8600
 11
1190.0000
 21
 114.1400
  0
LINE
  8
200
  6
AUSGEZOGEN
 10
1165.8600
 20
 100.0000
 11
1174.1400
 21
 100.0000
  0
LINE
  8
200
  6
AUSGEZOGEN
 10
1180.0000
 20
 114.1400
 11
1180.0000
 21
 105.8600
  0
LINE
  8
200
  6
AUSGEZOGEN
 10
1165.8600
 20
 120.0000
 11
1174.1400
 21
 120.0000
  0
LINE
  8
200
  6
AUSGEZOGEN
 10
1160.0000
 20
 105.8600
 11
1160.0000
 21
 114.1400
  0
LINE
  8
200
  6
AUSGEZOGEN
 10
1135.8600
 20
 100.0000
 11
1144.1400
 21
 100.0000
  0
LINE
  8
200
  6
AUSGEZOGEN
 10
1150.0000
 20
 114.1400
 11
1150.0000
 21
 105.8600
  0
LINE
  8
200
  6
AUSGEZOGEN
 10
1135.8600
 20
 120.0000
 11
1144.1400
 21
 120.0000
  0
LINE
  8
200
  6
AUSGEZOGEN
 10
1130.0000
 20
 105.8600
 11
1130.0000
 21
 114.1400
  0
LINE
  8
200
  6
AUSGEZOGEN
 10
1105.8600
 20
 100.0000
 11
1114.1400
 21
 100.0000
  0
LINE
  8
200
  6
AUSGEZOGEN
 10
1120.0000
 20
 114.1400
 11
1120.0000
 21
 105.8600
  0
LINE
  8
200
  6
AUSGEZOGEN
 10
1105.8600
 20
 120.0000
 11
1114.1400
 21
 120.0000
  0
LINE
  8
200
  6
AUSGEZOGEN
 10
1100.0000
 20
 105.8600
 11
1100.0000
 21
 114.1400
  0
LINE
  8
200
  6
AUSGEZOGEN
 10
1075.8600
 20
 100.0000
 11
1084.1400
 21
 100.0000
  0
LINE
  8
200
  6
AUSGEZOGEN
 10
1090.0000
 20
 114.1400
 11
1090.0000
 21
 105.8600
  0
LINE
  8
200
  6
AUSGEZOGEN
 10
1075.8600
 20
 120.0000
 11
1084.1400
 21
 120.0000
  0
LINE
  8
200
  6
AUSGEZOGEN
 10
1070.0000
 20
 105.8600
 11
1070.0000
 21
 114.1400
  0
LINE
  8
200
  6
AUSGEZOGEN
 10
1045.8600
 20
 100.0000
 11
1054.1400
 21
 100.0000
  0
LINE
  8
200
  6
AUSGEZOGEN
 10
1060.0000
 20
 114.1400
 11
1060.0000
 21
 105.8600
  0
LINE
  8
200
  6
AUSGEZOGEN
 10
1045.8600
 20
 120.0000
 11
1054.1400
 21
 120.0000
  0
LINE
  8
200
  6
AUSGEZOGEN
 10
1040.0000
 20
 105.8600
 11
1040.0000
 21
 114.1400
  0
LINE
  8
200
  6
AUSGEZOGEN
 10
1015.8600
 20
 100.0000
 11
1024.1400
 21
 100.0000
  0
LINE
  8
200
  6
AUSGEZOGEN
 10
1030.0000
 20
 114.1400
 11
1030.0000
 21
 105.8600
  0
LINE
  8
200
  6
AUSGEZOGEN
 10
1015.8600
 20
 120.0000
 11
1024.1400
 21
 120.0000
  0
LINE
  8
200
  6
AUSGEZOGEN
 10
1010.0000
 20
 105.8600
 11
1010.0000
 21
 114.1400
  0
LINE
  8
200
  6
AUSGEZOGEN
 10
 985.8600
 20
 100.0000
 11
 994.1400
 21
 100.0000
  0
LINE
  8
200
  6
AUSGEZOGEN
 10
1000.0000
 20
 114.1400
 11
1000.0000
 21
 105.8600
  0
LINE
  8
200
  6
AUSGEZOGEN
 10
 985.8600
 20
 120.0000
 11
 994.1400
 21
 120.0000
  0
LINE
  8
200
  6
AUSGEZOGEN
 10
 980.0000
 20
 105.8600
 11
 980.0000
 21
 114.1400
  0
LINE
  8
200
  6
AUSGEZOGEN
 10
 955.8600
 20
 100.0000
 11
 964.1400
 21
 100.0000
  0
LINE
  8
200
  6
AUSGEZOGEN
 10
 970.0000
 20
 114.1400
 11
 970.0000
 21
 105.8600
  0
LINE
  8
200
  6
AUSGEZOGEN
 10
 955.8600
 20
 120.0000
 11
 964.1400
 21
 120.0000
  0
LINE
  8
200
  6
AUSGEZOGEN
 10
 950.0000
 20
 105.8600
 11
 950.0000
 21
 114.1400
  0
LINE
  8
200
  6
AUSGEZOGEN
 10
1414.1400
 20
 280.0000
 11
1405.8600
 21
 280.0000
  0
LINE
  8
200
  6
AUSGEZOGEN
 10
1420.0000
 20
 294.1400
 11
1420.0000
 21
 285.8600
  0
LINE
  8
200
  6
AUSGEZOGEN
 10
1405.8600
 20
 300.0000
 11
1414.1400
 21
 300.0000
  0
LINE
  8
200
  6
AUSGEZOGEN
 10
1400.0000
 20
 285.8600
 11
1400.0000
 21
 294.1400
  0
LINE
  8
200
  6
AUSGEZOGEN
 10
1375.8600
 20
 280.0000
 11
1384.1400
 21
 280.0000
  0
LINE
  8
200
  6
AUSGEZOGEN
 10
1390.0000
 20
 294.1400
 11
1390.0000
 21
 285.8600
  0
LINE
  8
200
  6
AUSGEZOGEN
 10
1375.8600
 20
 300.0000
 11
1384.1400
 21
 300.0000
  0
LINE
  8
200
  6
AUSGEZOGEN
 10
1370.0000
 20
 285.8600
 11
1370.0000
 21
 294.1400
  0
LINE
  8
200
  6
AUSGEZOGEN
 10
1345.8600
 20
 280.0000
 11
1354.1400
 21
 280.0000
  0
LINE
  8
200
  6
AUSGEZOGEN
 10
1360.0000
 20
 294.1400
 11
1360.0000
 21
 285.8600
  0
LINE
  8
200
  6
AUSGEZOGEN
 10
1345.8600
 20
 300.0000
 11
1354.1400
 21
 300.0000
  0
LINE
  8
200
  6
AUSGEZOGEN
 10
1340.0000
 20
 285.8600
 11
1340.0000
 21
 294.1400
  0
LINE
  8
200
  6
AUSGEZOGEN
 10
1315.8600
 20
 280.0000
 11
1324.1400
 21
 280.0000
  0
LINE
  8
200
  6
AUSGEZOGEN
 10
1330.0000
 20
 294.1400
 11
1330.0000
 21
 285.8600
  0
LINE
  8
200
  6
AUSGEZOGEN
 10
1315.8600
 20
 300.0000
 11
1324.1400
 21
 300.0000
  0
LINE
  8
200
  6
AUSGEZOGEN
 10
1310.0000
 20
 285.8600
 11
1310.0000
 21
 294.1400
  0
LINE
  8
200
  6
AUSGEZOGEN
 10
1285.8600
 20
 280.0000
 11
1294.1400
 21
 280.0000
  0
LINE
  8
200
  6
AUSGEZOGEN
 10
1300.0000
 20
 294.1400
 11
1300.0000
 21
 285.8600
  0
LINE
  8
200
  6
AUSGEZOGEN
 10
1285.8600
 20
 300.0000
 11
1294.1400
 21
 300.0000
  0
LINE
  8
200
  6
AUSGEZOGEN
 10
1280.0000
 20
 285.8600
 11
1280.0000
 21
 294.1400
  0
LINE
  8
200
  6
AUSGEZOGEN
 10
1255.8600
 20
 280.0000
 11
1264.1400
 21
 280.0000
  0
LINE
  8
200
  6
AUSGEZOGEN
 10
1270.0000
 20
 294.1400
 11
1270.0000
 21
 285.8600
  0
LINE
  8
200
  6
AUSGEZOGEN
 10
1255.8600
 20
 300.0000
 11
1264.1400
 21
 300.0000
  0
LINE
  8
200
  6
AUSGEZOGEN
 10
1250.0000
 20
 285.8600
 11
1250.0000
 21
 294.1400
  0
LINE
  8
200
  6
AUSGEZOGEN
 10
1225.8600
 20
 280.0000
 11
1234.1400
 21
 280.0000
  0
LINE
  8
200
  6
AUSGEZOGEN
 10
1240.0000
 20
 294.1400
 11
1240.0000
 21
 285.8600
  0
LINE
  8
200
  6
AUSGEZOGEN
 10
1225.8600
 20
 300.0000
 11
1234.1400
 21
 300.0000
  0
LINE
  8
200
  6
AUSGEZOGEN
 10
1220.0000
 20
 285.8600
 11
1220.0000
 21
 294.1400
  0
LINE
  8
200
  6
AUSGEZOGEN
 10
1195.8600
 20
 280.0000
 11
1204.1400
 21
 280.0000
  0
LINE
  8
200
  6
AUSGEZOGEN
 10
1210.0000
 20
 294.1400
 11
1210.0000
 21
 285.8600
  0
LINE
  8
200
  6
AUSGEZOGEN
 10
1195.8600
 20
 300.0000
 11
1204.1400
 21
 300.0000
  0
LINE
  8
200
  6
AUSGEZOGEN
 10
1190.0000
 20
 285.8600
 11
1190.0000
 21
 294.1400
  0
LINE
  8
200
  6
AUSGEZOGEN
 10
1165.8600
 20
 280.0000
 11
1174.1400
 21
 280.0000
  0
LINE
  8
200
  6
AUSGEZOGEN
 10
1180.0000
 20
 294.1400
 11
1180.0000
 21
 285.8600
  0
LINE
  8
200
  6
AUSGEZOGEN
 10
1165.8600
 20
 300.0000
 11
1174.1400
 21
 300.0000
  0
LINE
  8
200
  6
AUSGEZOGEN
 10
1160.0000
 20
 285.8600
 11
1160.0000
 21
 294.1400
  0
LINE
  8
200
  6
AUSGEZOGEN
 10
1135.8600
 20
 280.0000
 11
1144.1400
 21
 280.0000
  0
LINE
  8
200
  6
AUSGEZOGEN
 10
1150.0000
 20
 294.1400
 11
1150.0000
 21
 285.8600
  0
LINE
  8
200
  6
AUSGEZOGEN
 10
1135.8600
 20
 300.0000
 11
1144.1400
 21
 300.0000
  0
LINE
  8
200
  6
AUSGEZOGEN
 10
1130.0000
 20
 285.8600
 11
1130.0000
 21
 294.1400
  0
LINE
  8
200
  6
AUSGEZOGEN
 10
1105.8600
 20
 280.0000
 11
1114.1400
 21
 280.0000
  0
LINE
  8
200
  6
AUSGEZOGEN
 10
1120.0000
 20
 294.1400
 11
1120.0000
 21
 285.8600
  0
LINE
  8
200
  6
AUSGEZOGEN
 10
1105.8600
 20
 300.0000
 11
1114.1400
 21
 300.0000
  0
LINE
  8
200
  6
AUSGEZOGEN
 10
1100.0000
 20
 285.8600
 11
1100.0000
 21
 294.1400
  0
LINE
  8
200
  6
AUSGEZOGEN
 10
1075.8600
 20
 280.0000
 11
1084.1400
 21
 280.0000
  0
LINE
  8
200
  6
AUSGEZOGEN
 10
1090.0000
 20
 294.1400
 11
1090.0000
 21
 285.8600
  0
LINE
  8
200
  6
AUSGEZOGEN
 10
1075.8600
 20
 300.0000
 11
1084.1400
 21
 300.0000
  0
LINE
  8
200
  6
AUSGEZOGEN
 10
1070.0000
 20
 285.8600
 11
1070.0000
 21
 294.1400
  0
LINE
  8
200
  6
AUSGEZOGEN
 10
1045.8600
 20
 280.0000
 11
1054.1400
 21
 280.0000
  0
LINE
  8
200
  6
AUSGEZOGEN
 10
1060.0000
 20
 294.1400
 11
1060.0000
 21
 285.8600
  0
LINE
  8
200
  6
AUSGEZOGEN
 10
1045.8600
 20
 300.0000
 11
1054.1400
 21
 300.0000
  0
LINE
  8
200
  6
AUSGEZOGEN
 10
1040.0000
 20
 285.8600
 11
1040.0000
 21
 294.1400
  0
LINE
  8
200
  6
AUSGEZOGEN
 10
1015.8600
 20
 280.0000
 11
1024.1400
 21
 280.0000
  0
LINE
  8
200
  6
AUSGEZOGEN
 10
1030.0000
 20
 294.1400
 11
1030.0000
 21
 285.8600
  0
LINE
  8
200
  6
AUSGEZOGEN
 10
1015.8600
 20
 300.0000
 11
1024.1400
 21
 300.0000
  0
LINE
  8
200
  6
AUSGEZOGEN
 10
1010.0000
 20
 285.8600
 11
1010.0000
 21
 294.1400
  0
LINE
  8
200
  6
AUSGEZOGEN
 10
 985.8600
 20
 280.0000
 11
 994.1400
 21
 280.0000
  0
LINE
  8
200
  6
AUSGEZOGEN
 10
1000.0000
 20
 294.1400
 11
1000.0000
 21
 285.8600
  0
LINE
  8
200
  6
AUSGEZOGEN
 10
 985.8600
 20
 300.0000
 11
 994.1400
 21
 300.0000
  0
LINE
  8
200
  6
AUSGEZOGEN
 10
 980.0000
 20
 285.8600
 11
 980.0000
 21
 294.1400
  0
LINE
  8
200
  6
AUSGEZOGEN
 10
 955.8600
 20
 280.0000
 11
 964.1400
 21
 280.0000
  0
LINE
  8
200
  6
AUSGEZOGEN
 10
 970.0000
 20
 294.1400
 11
 970.0000
 21
 285.8600
  0
LINE
  8
200
  6
AUSGEZOGEN
 10
 955.8600
 20
 300.0000
 11
 964.1400
 21
 300.0000
  0
LINE
  8
200
  6
AUSGEZOGEN
 10
 950.0000
 20
 285.8600
 11
 950.0000
 21
 294.1400
  0
LINE
  8
200
  6
AUSGEZOGEN
 10
1414.1400
 20
 310.0000
 11
1405.8600
 21
 310.0000
  0
LINE
  8
200
  6
AUSGEZOGEN
 10
1420.0000
 20
 324.1400
 11
1420.0000
 21
 315.8600
  0
LINE
  8
200
  6
AUSGEZOGEN
 10
1405.8600
 20
 330.0000
 11
1414.1400
 21
 330.0000
  0
LINE
  8
200
  6
AUSGEZOGEN
 10
1400.0000
 20
 315.8600
 11
1400.0000
 21
 324.1400
  0
LINE
  8
200
  6
AUSGEZOGEN
 10
1375.8600
 20
 310.0000
 11
1384.1400
 21
 310.0000
  0
LINE
  8
200
  6
AUSGEZOGEN
 10
1390.0000
 20
 324.1400
 11
1390.0000
 21
 315.8600
  0
LINE
  8
200
  6
AUSGEZOGEN
 10
1375.8600
 20
 330.0000
 11
1384.1400
 21
 330.0000
  0
LINE
  8
200
  6
AUSGEZOGEN
 10
1370.0000
 20
 315.8600
 11
1370.0000
 21
 324.1400
  0
LINE
  8
200
  6
AUSGEZOGEN
 10
1345.8600
 20
 310.0000
 11
1354.1400
 21
 310.0000
  0
LINE
  8
200
  6
AUSGEZOGEN
 10
1360.0000
 20
 324.1400
 11
1360.0000
 21
 315.8600
  0
LINE
  8
200
  6
AUSGEZOGEN
 10
1345.8600
 20
 330.0000
 11
1354.1400
 21
 330.0000
  0
LINE
  8
200
  6
AUSGEZOGEN
 10
1340.0000
 20
 315.8600
 11
1340.0000
 21
 324.1400
  0
LINE
  8
200
  6
AUSGEZOGEN
 10
1315.8600
 20
 310.0000
 11
1324.1400
 21
 310.0000
  0
LINE
  8
200
  6
AUSGEZOGEN
 10
1330.0000
 20
 324.1400
 11
1330.0000
 21
 315.8600
  0
LINE
  8
200
  6
AUSGEZOGEN
 10
1315.8600
 20
 330.0000
 11
1324.1400
 21
 330.0000
  0
LINE
  8
200
  6
AUSGEZOGEN
 10
1310.0000
 20
 315.8600
 11
1310.0000
 21
 324.1400
  0
LINE
  8
200
  6
AUSGEZOGEN
 10
1285.8600
 20
 310.0000
 11
1294.1400
 21
 310.0000
  0
LINE
  8
200
  6
AUSGEZOGEN
 10
1300.0000
 20
 324.1400
 11
1300.0000
 21
 315.8600
  0
LINE
  8
200
  6
AUSGEZOGEN
 10
1285.8600
 20
 330.0000
 11
1294.1400
 21
 330.0000
  0
LINE
  8
200
  6
AUSGEZOGEN
 10
1280.0000
 20
 315.8600
 11
1280.0000
 21
 324.1400
  0
LINE
  8
200
  6
AUSGEZOGEN
 10
1255.8600
 20
 310.0000
 11
1264.1400
 21
 310.0000
  0
LINE
  8
200
  6
AUSGEZOGEN
 10
1270.0000
 20
 324.1400
 11
1270.0000
 21
 315.8600
  0
LINE
  8
200
  6
AUSGEZOGEN
 10
1255.8600
 20
 330.0000
 11
1264.1400
 21
 330.0000
  0
LINE
  8
200
  6
AUSGEZOGEN
 10
1250.0000
 20
 315.8600
 11
1250.0000
 21
 324.1400
  0
LINE
  8
200
  6
AUSGEZOGEN
 10
1225.8600
 20
 310.0000
 11
1234.1400
 21
 310.0000
  0
LINE
  8
200
  6
AUSGEZOGEN
 10
1240.0000
 20
 324.1400
 11
1240.0000
 21
 315.8600
  0
LINE
  8
200
  6
AUSGEZOGEN
 10
1225.8600
 20
 330.0000
 11
1234.1400
 21
 330.0000
  0
LINE
  8
200
  6
AUSGEZOGEN
 10
1220.0000
 20
 315.8600
 11
1220.0000
 21
 324.1400
  0
LINE
  8
200
  6
AUSGEZOGEN
 10
1195.8600
 20
 310.0000
 11
1204.1400
 21
 310.0000
  0
LINE
  8
200
  6
AUSGEZOGEN
 10
1210.0000
 20
 324.1400
 11
1210.0000
 21
 315.8600
  0
LINE
  8
200
  6
AUSGEZOGEN
 10
1195.8600
 20
 330.0000
 11
1204.1400
 21
 330.0000
  0
LINE
  8
200
  6
AUSGEZOGEN
 10
1190.0000
 20
 315.8600
 11
1190.0000
 21
 324.1400
  0
LINE
  8
200
  6
AUSGEZOGEN
 10
1165.8600
 20
 310.0000
 11
1174.1400
 21
 310.0000
  0
LINE
  8
200
  6
AUSGEZOGEN
 10
1180.0000
 20
 324.1400
 11
1180.0000
 21
 315.8600
  0
LINE
  8
200
  6
AUSGEZOGEN
 10
1165.8600
 20
 330.0000
 11
1174.1400
 21
 330.0000
  0
LINE
  8
200
  6
AUSGEZOGEN
 10
1160.0000
 20
 315.8600
 11
1160.0000
 21
 324.1400
  0
LINE
  8
200
  6
AUSGEZOGEN
 10
1135.8600
 20
 310.0000
 11
1144.1400
 21
 310.0000
  0
LINE
  8
200
  6
AUSGEZOGEN
 10
1150.0000
 20
 324.1400
 11
1150.0000
 21
 315.8600
  0
LINE
  8
200
  6
AUSGEZOGEN
 10
1135.8600
 20
 330.0000
 11
1144.1400
 21
 330.0000
  0
LINE
  8
200
  6
AUSGEZOGEN
 10
1130.0000
 20
 315.8600
 11
1130.0000
 21
 324.1400
  0
LINE
  8
200
  6
AUSGEZOGEN
 10
1105.8600
 20
 310.0000
 11
1114.1400
 21
 310.0000
  0
LINE
  8
200
  6
AUSGEZOGEN
 10
1120.0000
 20
 324.1400
 11
1120.0000
 21
 315.8600
  0
LINE
  8
200
  6
AUSGEZOGEN
 10
1105.8600
 20
 330.0000
 11
1114.1400
 21
 330.0000
  0
LINE
  8
200
  6
AUSGEZOGEN
 10
1100.0000
 20
 315.8600
 11
1100.0000
 21
 324.1400
  0
LINE
  8
200
  6
AUSGEZOGEN
 10
1075.8600
 20
 310.0000
 11
1084.1400
 21
 310.0000
  0
LINE
  8
200
  6
AUSGEZOGEN
 10
1090.0000
 20
 324.1400
 11
1090.0000
 21
 315.8600
  0
LINE
  8
200
  6
AUSGEZOGEN
 10
1075.8600
 20
 330.0000
 11
1084.1400
 21
 330.0000
  0
LINE
  8
200
  6
AUSGEZOGEN
 10
1070.0000
 20
 315.8600
 11
1070.0000
 21
 324.1400
  0
LINE
  8
200
  6
AUSGEZOGEN
 10
1045.8600
 20
 310.0000
 11
1054.1400
 21
 310.0000
  0
LINE
  8
200
  6
AUSGEZOGEN
 10
1060.0000
 20
 324.1400
 11
1060.0000
 21
 315.8600
  0
LINE
  8
200
  6
AUSGEZOGEN
 10
1045.8600
 20
 330.0000
 11
1054.1400
 21
 330.0000
  0
LINE
  8
200
  6
AUSGEZOGEN
 10
1040.0000
 20
 315.8600
 11
1040.0000
 21
 324.1400
  0
LINE
  8
200
  6
AUSGEZOGEN
 10
1015.8600
 20
 310.0000
 11
1024.1400
 21
 310.0000
  0
LINE
  8
200
  6
AUSGEZOGEN
 10
1030.0000
 20
 324.1400
 11
1030.0000
 21
 315.8600
  0
LINE
  8
200
  6
AUSGEZOGEN
 10
1015.8600
 20
 330.0000
 11
1024.1400
 21
 330.0000
  0
LINE
  8
200
  6
AUSGEZOGEN
 10
1010.0000
 20
 315.8600
 11
1010.0000
 21
 324.1400
  0
LINE
  8
200
  6
AUSGEZOGEN
 10
 985.8600
 20
 310.0000
 11
 994.1400
 21
 310.0000
  0
LINE
  8
200
  6
AUSGEZOGEN
 10
1000.0000
 20
 324.1400
 11
1000.0000
 21
 315.8600
  0
LINE
  8
200
  6
AUSGEZOGEN
 10
 985.8600
 20
 330.0000
 11
 994.1400
 21
 330.0000
  0
LINE
  8
200
  6
AUSGEZOGEN
 10
 980.0000
 20
 315.8600
 11
 980.0000
 21
 324.1400
  0
LINE
  8
200
  6
AUSGEZOGEN
 10
 955.8600
 20
 310.0000
 11
 964.1400
 21
 310.0000
  0
LINE
  8
200
  6
AUSGEZOGEN
 10
 970.0000
 20
 324.1400
 11
 970.0000
 21
 315.8600
  0
LINE
  8
200
  6
AUSGEZOGEN
 10
 955.8600
 20
 330.0000
 11
 964.1400
 21
 330.0000
  0
LINE
  8
200
  6
AUSGEZOGEN
 10
 950.0000
 20
 315.8600
 11
 950.0000
 21
 324.1400
  0
LINE
  8
200
  6
AUSGEZOGEN
 10
1414.1400
 20
 340.0000
 11
1405.8600
 21
 340.0000
  0
LINE
  8
200
  6
AUSGEZOGEN
 10
1420.0000
 20
 354.1400
 11
1420.0000
 21
 345.8600
  0
LINE
  8
200
  6
AUSGEZOGEN
 10
1405.8600
 20
 360.0000
 11
1414.1400
 21
 360.0000
  0
LINE
  8
200
  6
AUSGEZOGEN
 10
1400.0000
 20
 345.8600
 11
1400.0000
 21
 354.1400
  0
LINE
  8
200
  6
AUSGEZOGEN
 10
1375.8600
 20
 340.0000
 11
1384.1400
 21
 340.0000
  0
LINE
  8
200
  6
AUSGEZOGEN
 10
1390.0000
 20
 354.1400
 11
1390.0000
 21
 345.8600
  0
LINE
  8
200
  6
AUSGEZOGEN
 10
1375.8600
 20
 360.0000
 11
1384.1400
 21
 360.0000
  0
LINE
  8
200
  6
AUSGEZOGEN
 10
1370.0000
 20
 345.8600
 11
1370.0000
 21
 354.1400
  0
LINE
  8
200
  6
AUSGEZOGEN
 10
1345.8600
 20
 340.0000
 11
1354.1400
 21
 340.0000
  0
LINE
  8
200
  6
AUSGEZOGEN
 10
1360.0000
 20
 354.1400
 11
1360.0000
 21
 345.8600
  0
LINE
  8
200
  6
AUSGEZOGEN
 10
1345.8600
 20
 360.0000
 11
1354.1400
 21
 360.0000
  0
LINE
  8
200
  6
AUSGEZOGEN
 10
1340.0000
 20
 345.8600
 11
1340.0000
 21
 354.1400
  0
LINE
  8
200
  6
AUSGEZOGEN
 10
1315.8600
 20
 340.0000
 11
1324.1400
 21
 340.0000
  0
LINE
  8
200
  6
AUSGEZOGEN
 10
1330.0000
 20
 354.1400
 11
1330.0000
 21
 345.8600
  0
LINE
  8
200
  6
AUSGEZOGEN
 10
1315.8600
 20
 360.0000
 11
1324.1400
 21
 360.0000
  0
LINE
  8
200
  6
AUSGEZOGEN
 10
1310.0000
 20
 345.8600
 11
1310.0000
 21
 354.1400
  0
LINE
  8
200
  6
AUSGEZOGEN
 10
1285.8600
 20
 340.0000
 11
1294.1400
 21
 340.0000
  0
LINE
  8
200
  6
AUSGEZOGEN
 10
1300.0000
 20
 354.1400
 11
1300.0000
 21
 345.8600
  0
LINE
  8
200
  6
AUSGEZOGEN
 10
1285.8600
 20
 360.0000
 11
1294.1400
 21
 360.0000
  0
LINE
  8
200
  6
AUSGEZOGEN
 10
1280.0000
 20
 345.8600
 11
1280.0000
 21
 354.1400
  0
LINE
  8
200
  6
AUSGEZOGEN
 10
1255.8600
 20
 340.0000
 11
1264.1400
 21
 340.0000
  0
LINE
  8
200
  6
AUSGEZOGEN
 10
1270.0000
 20
 354.1400
 11
1270.0000
 21
 345.8600
  0
LINE
  8
200
  6
AUSGEZOGEN
 10
1255.8600
 20
 360.0000
 11
1264.1400
 21
 360.0000
  0
LINE
  8
200
  6
AUSGEZOGEN
 10
1250.0000
 20
 345.8600
 11
1250.0000
 21
 354.1400
  0
LINE
  8
200
  6
AUSGEZOGEN
 10
1225.8600
 20
 340.0000
 11
1234.1400
 21
 340.0000
  0
LINE
  8
200
  6
AUSGEZOGEN
 10
1240.0000
 20
 354.1400
 11
1240.0000
 21
 345.8600
  0
LINE
  8
200
  6
AUSGEZOGEN
 10
1225.8600
 20
 360.0000
 11
1234.1400
 21
 360.0000
  0
LINE
  8
200
  6
AUSGEZOGEN
 10
1220.0000
 20
 345.8600
 11
1220.0000
 21
 354.1400
  0
LINE
  8
200
  6
AUSGEZOGEN
 10
1195.8600
 20
 340.0000
 11
1204.1400
 21
 340.0000
  0
LINE
  8
200
  6
AUSGEZOGEN
 10
1210.0000
 20
 354.1400
 11
1210.0000
 21
 345.8600
  0
LINE
  8
200
  6
AUSGEZOGEN
 10
1195.8600
 20
 360.0000
 11
1204.1400
 21
 360.0000
  0
LINE
  8
200
  6
AUSGEZOGEN
 10
1190.0000
 20
 345.8600
 11
1190.0000
 21
 354.1400
  0
LINE
  8
200
  6
AUSGEZOGEN
 10
1165.8600
 20
 340.0000
 11
1174.1400
 21
 340.0000
  0
LINE
  8
200
  6
AUSGEZOGEN
 10
1180.0000
 20
 354.1400
 11
1180.0000
 21
 345.8600
  0
LINE
  8
200
  6
AUSGEZOGEN
 10
1165.8600
 20
 360.0000
 11
1174.1400
 21
 360.0000
  0
LINE
  8
200
  6
AUSGEZOGEN
 10
1160.0000
 20
 345.8600
 11
1160.0000
 21
 354.1400
  0
LINE
  8
200
  6
AUSGEZOGEN
 10
1135.8600
 20
 340.0000
 11
1144.1400
 21
 340.0000
  0
LINE
  8
200
  6
AUSGEZOGEN
 10
1150.0000
 20
 354.1400
 11
1150.0000
 21
 345.8600
  0
LINE
  8
200
  6
AUSGEZOGEN
 10
1135.8600
 20
 360.0000
 11
1144.1400
 21
 360.0000
  0
LINE
  8
200
  6
AUSGEZOGEN
 10
1130.0000
 20
 345.8600
 11
1130.0000
 21
 354.1400
  0
LINE
  8
200
  6
AUSGEZOGEN
 10
1105.8600
 20
 340.0000
 11
1114.1400
 21
 340.0000
  0
LINE
  8
200
  6
AUSGEZOGEN
 10
1120.0000
 20
 354.1400
 11
1120.0000
 21
 345.8600
  0
LINE
  8
200
  6
AUSGEZOGEN
 10
1105.8600
 20
 360.0000
 11
1114.1400
 21
 360.0000
  0
LINE
  8
200
  6
AUSGEZOGEN
 10
1100.0000
 20
 345.8600
 11
1100.0000
 21
 354.1400
  0
LINE
  8
200
  6
AUSGEZOGEN
 10
1075.8600
 20
 340.0000
 11
1084.1400
 21
 340.0000
  0
LINE
  8
200
  6
AUSGEZOGEN
 10
1090.0000
 20
 354.1400
 11
1090.0000
 21
 345.8600
  0
LINE
  8
200
  6
AUSGEZOGEN
 10
1075.8600
 20
 360.0000
 11
1084.1400
 21
 360.0000
  0
LINE
  8
200
  6
AUSGEZOGEN
 10
1070.0000
 20
 345.8600
 11
1070.0000
 21
 354.1400
  0
LINE
  8
200
  6
AUSGEZOGEN
 10
1045.8600
 20
 340.0000
 11
1054.1400
 21
 340.0000
  0
LINE
  8
200
  6
AUSGEZOGEN
 10
1060.0000
 20
 354.1400
 11
1060.0000
 21
 345.8600
  0
LINE
  8
200
  6
AUSGEZOGEN
 10
1045.8600
 20
 360.0000
 11
1054.1400
 21
 360.0000
  0
LINE
  8
200
  6
AUSGEZOGEN
 10
1040.0000
 20
 345.8600
 11
1040.0000
 21
 354.1400
  0
LINE
  8
200
  6
AUSGEZOGEN
 10
1015.8600
 20
 340.0000
 11
1024.1400
 21
 340.0000
  0
LINE
  8
200
  6
AUSGEZOGEN
 10
1030.0000
 20
 354.1400
 11
1030.0000
 21
 345.8600
  0
LINE
  8
200
  6
AUSGEZOGEN
 10
1015.8600
 20
 360.0000
 11
1024.1400
 21
 360.0000
  0
LINE
  8
200
  6
AUSGEZOGEN
 10
1010.0000
 20
 345.8600
 11
1010.0000
 21
 354.1400
  0
LINE
  8
200
  6
AUSGEZOGEN
 10
 985.8600
 20
 340.0000
 11
 994.1400
 21
 340.0000
  0
LINE
  8
200
  6
AUSGEZOGEN
 10
1000.0000
 20
 354.1400
 11
1000.0000
 21
 345.8600
  0
LINE
  8
200
  6
AUSGEZOGEN
 10
 985.8600
 20
 360.0000
 11
 994.1400
 21
 360.0000
  0
LINE
  8
200
  6
AUSGEZOGEN
 10
 980.0000
 20
 345.8600
 11
 980.0000
 21
 354.1400
  0
LINE
  8
200
  6
AUSGEZOGEN
 10
 955.8600
 20
 340.0000
 11
 964.1400
 21
 340.0000
  0
LINE
  8
200
  6
AUSGEZOGEN
 10
 970.0000
 20
 354.1400
 11
 970.0000
 21
 345.8600
  0
LINE
  8
200
  6
AUSGEZOGEN
 10
 955.8600
 20
 360.0000
 11
 964.1400
 21
 360.0000
  0
LINE
  8
200
  6
AUSGEZOGEN
 10
 950.0000
 20
 345.8600
 11
 950.0000
 21
 354.1400
  0
LINE
  8
200
  6
AUSGEZOGEN
 10
2001.5000
 20
 380.0000
 11
 938.5000
 21
 380.0000
  0
LINE
  8
200
  6
AUSGEZOGEN
 10
 920.0000
 20
  98.5000
 11
 920.0000
 21
 361.5000
  0
LINE
  8
200
  6
AUSGEZOGEN
 10
2075.0000
 20
  25.0000
 11
  25.0000
 21
  25.0000
  0
LINE
  8
200
  6
AUSGEZOGEN
 10
  25.0000
 20
 675.0000
 11
  25.0000
 21
  25.0000
  0
TEXT
  8
400
 10
3125.0000
 20
 580.0000
 40
  45.0000
  1
EZ: 230V 50Hz, Kabellänge 2,5m mit Schukostecker 0,44kW
 50
   0.0000
 41
   0.6000
  7
STANDARD
  0
TEXT
  8
410
 10
3125.0000
 20
 460.0000
 40
  45.0000
  1
TWk: DN15
 50
   0.0000
 41
   0.6000
  7
STANDARD
  0
TEXT
  8
420
 10
3125.0000
 20
 340.0000
 40
  45.0000
  1
A: DN50 Trichterablauf, unter Boden baus. syphoniert
 50
   0.0000
 41
   0.6000
  7
STANDARD
  0
ATTDEF
  8
550
 10
10.0
 20
100.0
 30
0.0
 40
30
  1
CCO-GTM732L81-MS
  2
CCO-GTM732L81-MSD
  3
HKI-Nummer
 70
1
  0
TEXT
  8
510
 10
10.0
 20
-45.0
 30
0.0
 40
30
  1
CCO-GTM732L81-MS
 50
0.0
 41
1.0
  7
STANDARD
  0
ENDSEC
  0
EOF
