  0
SECTION
  2
HEADER
  9
$ACADVER
  1
AC1009
  9
$INSBASE
 10
   0.0000
 20
   0.0000
 30
    0.0
  9
$EXTMIN
 10
-195.0000
 20
-147.5000
 30
   0.0000
  9
$EXTMAX
 10
4011.2130
 20
1013.0000
 30
   0.0000
  9
$LTSCALE
 40
1.00
  9
$PSLTSCALE
 70
1
  0
ENDSEC
  0
SECTION
  2
TABLES
  0
TABLE
  2
LTYPE
 70
  5
  0
LTYPE
  2
AUSGEZOGEN
 70
 64
  3
AUSGEZOGEN
 72
 65
 73
  0
 40
0.0
  0
LTYPE
  2
PUNKTIERT
 70
 64
  3
Gepunktet
 72
 65
 73
  2
 40
30.0000
 49
0.0
 49
-30.0000
  0
LTYPE
  2
STRICHLIERT
 70
 64
  3
Strichliert
 72
 65
 73
  2
 40
80.0000
 49
50.0000
 49
-30.0000
  0
LTYPE
  2
STRICHPUNKT
 70
 64
  3
Strichpunktet
 72
 65
 73
  4
 40
160.0000
 49
100.0000
 49
-30.0000
 49
0.0
 49
-30.0000
  0
LTYPE
  2
STRICHPUNKTPUNKT
 70
 64
  3
Strichpunktpunktet
 72
 65
 73
  6
 40
190.0000
 49
100.0000
 49
-30.0000
 49
0.0
 49
-30.0000
 49
0.0
 49
-30.0000
  0
ENDTAB
  0
TABLE
  2
LAYER
 70
7
  0
LAYER
  2
550
 70
  0
 62
  2
  6
AUSGEZOGEN
  0
LAYER
  2
510
 70
  0
 62
  2
  6
AUSGEZOGEN
  0
LAYER
  2
0
 70
  0
 62
  1
  6
AUSGEZOGEN
  0
LAYER
  2
200
 70
  0
 62
  7
  6
AUSGEZOGEN
999
SWS-Layer-Line-Width
999
0.20
  0
LAYER
  2
400
 70
  0
 62
  4
  6
AUSGEZOGEN
999
SWS-Layer-Line-Width
999
0.30
  0
LAYER
  2
410
 70
  0
 62
  6
  6
AUSGEZOGEN
  0
LAYER
  2
420
 70
  0
 62
  2
  6
AUSGEZOGEN
  0
ENDTAB
  0
TABLE
  2
STYLE
 70
  1
  0
STYLE
  2
STANDARD
 70
 64
 40
0.0
 41
1.0
 50
0.0
 71
  0
 42
30.0
  3
TXT.SHX
  4

  0
ENDTAB
  0
ENDSEC
  0
SECTION
  2
ENTITIES
  0
LINE
  8
400
  6
AUSGEZOGEN
 10
 600.0000
 20
   0.0000
 11
2424.0000
 21
 846.5000
  0
LINE
  8
400
  6
AUSGEZOGEN
 10
3823.8300
 20
 846.5000
 11
2424.0000
 21
 846.5000
  0
LINE
  8
400
  6
AUSGEZOGEN
 10
 600.0000
 20
   0.0000
 11
 600.0000
 21
  75.0000
  0
LINE
  8
400
  6
AUSGEZOGEN
 10
 600.0000
 20
 -75.0000
 11
 600.0000
 21
   0.0000
  0
LINE
  8
400
  6
AUSGEZOGEN
 10
 675.0000
 20
   0.0000
 11
 600.0000
 21
   0.0000
  0
LINE
  8
400
  6
AUSGEZOGEN
 10
 525.0000
 20
   0.0000
 11
 600.0000
 21
   0.0000
  0
CIRCLE
  8
400
  6
AUSGEZOGEN
 10
 600.0000
 20
   0.0000
 40
  50.0000
  0
LINE
  8
410
  6
AUSGEZOGEN
 10
 600.0000
 20
   0.0000
 11
2424.0000
 21
 726.5000
  0
LINE
  8
410
  6
AUSGEZOGEN
 10
2667.2600
 20
 726.5000
 11
2424.0000
 21
 726.5000
  0
LINE
  8
410
  6
AUSGEZOGEN
 10
 600.0000
 20
   0.0000
 11
 600.0000
 21
  75.0000
  0
LINE
  8
410
  6
AUSGEZOGEN
 10
 600.0000
 20
 -75.0000
 11
 600.0000
 21
   0.0000
  0
LINE
  8
410
  6
AUSGEZOGEN
 10
 675.0000
 20
   0.0000
 11
 600.0000
 21
   0.0000
  0
LINE
  8
410
  6
AUSGEZOGEN
 10
 525.0000
 20
   0.0000
 11
 600.0000
 21
   0.0000
  0
CIRCLE
  8
410
  6
AUSGEZOGEN
 10
 600.0000
 20
   0.0000
 40
  50.0000
  0
LINE
  8
420
  6
AUSGEZOGEN
 10
 600.0000
 20
   0.0000
 11
2424.0000
 21
 606.5000
  0
LINE
  8
420
  6
AUSGEZOGEN
 10
3728.9300
 20
 606.5000
 11
2424.0000
 21
 606.5000
  0
LINE
  8
420
  6
AUSGEZOGEN
 10
 600.0000
 20
   0.0000
 11
 600.0000
 21
  75.0000
  0
LINE
  8
420
  6
AUSGEZOGEN
 10
 600.0000
 20
 -75.0000
 11
 600.0000
 21
   0.0000
  0
LINE
  8
420
  6
AUSGEZOGEN
 10
 675.0000
 20
   0.0000
 11
 600.0000
 21
   0.0000
  0
LINE
  8
420
  6
AUSGEZOGEN
 10
 525.0000
 20
   0.0000
 11
 600.0000
 21
   0.0000
  0
CIRCLE
  8
420
  6
AUSGEZOGEN
 10
 600.0000
 20
   0.0000
 40
  50.0000
  0
LINE
  8
200
  6
AUSGEZOGEN
 10
 780.0000
 20
 503.6600
 11
 765.5000
 21
 474.6200
  0
LINE
  8
200
  6
AUSGEZOGEN
 10
 762.2200
 20
 481.2000
 11
 776.7200
 21
 510.0000
  0
LINE
  8
200
  6
AUSGEZOGEN
 10
 744.4500
 20
 503.6600
 11
 729.9500
 21
 474.6200
  0
LINE
  8
200
  6
AUSGEZOGEN
 10
 726.6600
 20
 481.2000
 11
 741.1600
 21
 510.0000
  0
LINE
  8
200
  6
AUSGEZOGEN
 10
 708.8900
 20
 503.6600
 11
 694.3900
 21
 474.6200
  0
LINE
  8
200
  6
AUSGEZOGEN
 10
 691.1100
 20
 481.2000
 11
 705.6100
 21
 510.0000
  0
LINE
  8
200
  6
AUSGEZOGEN
 10
 687.8300
 20
 510.0000
 11
 673.3300
 21
 481.2000
  0
LINE
  8
200
  6
AUSGEZOGEN
 10
 655.5500
 20
 481.2000
 11
 670.0500
 21
 510.0000
  0
LINE
  8
200
  6
AUSGEZOGEN
 10
 637.7800
 20
 503.6600
 11
 623.2800
 21
 474.6200
  0
LINE
  8
200
  6
AUSGEZOGEN
 10
 620.0000
 20
 481.2000
 11
 634.5000
 21
 510.0000
  0
LINE
  8
200
  6
AUSGEZOGEN
 10
 765.5000
 20
 428.8500
 11
 780.0000
 21
 457.8900
  0
LINE
  8
200
  6
AUSGEZOGEN
 10
 744.4500
 20
 457.8900
 11
 729.9500
 21
 428.8500
  0
LINE
  8
200
  6
AUSGEZOGEN
 10
 694.3900
 20
 428.8500
 11
 708.8900
 21
 457.8900
  0
LINE
  8
200
  6
AUSGEZOGEN
 10
 637.7800
 20
 457.8900
 11
 623.2800
 21
 428.8500
  0
LINE
  8
200
  6
AUSGEZOGEN
 10
 765.5000
 20
 383.0800
 11
 780.0000
 21
 412.1200
  0
LINE
  8
200
  6
AUSGEZOGEN
 10
 744.4500
 20
 412.1200
 11
 729.9500
 21
 383.0800
  0
LINE
  8
200
  6
AUSGEZOGEN
 10
 694.3900
 20
 383.0800
 11
 708.8900
 21
 412.1200
  0
LINE
  8
200
  6
AUSGEZOGEN
 10
 637.7800
 20
 412.1200
 11
 623.2800
 21
 383.0800
  0
LINE
  8
200
  6
AUSGEZOGEN
 10
 765.5000
 20
 337.3100
 11
 780.0000
 21
 366.3500
  0
LINE
  8
200
  6
AUSGEZOGEN
 10
 744.4500
 20
 366.3500
 11
 729.9500
 21
 337.3100
  0
LINE
  8
200
  6
AUSGEZOGEN
 10
 694.3900
 20
 337.3100
 11
 708.8900
 21
 366.3500
  0
LINE
  8
200
  6
AUSGEZOGEN
 10
 637.7800
 20
 366.3500
 11
 623.2800
 21
 337.3100
  0
LINE
  8
200
  6
AUSGEZOGEN
 10
 765.5000
 20
 291.5400
 11
 780.0000
 21
 320.5800
  0
LINE
  8
200
  6
AUSGEZOGEN
 10
 744.4500
 20
 320.5800
 11
 729.9500
 21
 291.5400
  0
LINE
  8
200
  6
AUSGEZOGEN
 10
 694.3900
 20
 291.5400
 11
 708.8900
 21
 320.5800
  0
LINE
  8
200
  6
AUSGEZOGEN
 10
 637.7800
 20
 320.5800
 11
 623.2800
 21
 291.5400
  0
LINE
  8
200
  6
AUSGEZOGEN
 10
 765.5000
 20
 245.7700
 11
 780.0000
 21
 274.8100
  0
LINE
  8
200
  6
AUSGEZOGEN
 10
 776.7200
 20
 281.3800
 11
 762.2200
 21
 252.3400
  0
LINE
  8
200
  6
AUSGEZOGEN
 10
 729.9500
 20
 245.7700
 11
 744.4500
 21
 274.8100
  0
LINE
  8
200
  6
AUSGEZOGEN
 10
 741.1600
 20
 281.3800
 11
 726.6600
 21
 252.3400
  0
LINE
  8
200
  6
AUSGEZOGEN
 10
 694.3900
 20
 245.7700
 11
 708.8900
 21
 274.8100
  0
LINE
  8
200
  6
AUSGEZOGEN
 10
 705.6100
 20
 281.3800
 11
 691.1100
 21
 252.3400
  0
LINE
  8
200
  6
AUSGEZOGEN
 10
 673.3300
 20
 252.3400
 11
 687.8300
 21
 281.3800
  0
LINE
  8
200
  6
AUSGEZOGEN
 10
 670.0500
 20
 281.3800
 11
 655.5500
 21
 252.3400
  0
LINE
  8
200
  6
AUSGEZOGEN
 10
 623.2800
 20
 245.7700
 11
 637.7800
 21
 274.8100
  0
LINE
  8
200
  6
AUSGEZOGEN
 10
 634.5000
 20
 281.3800
 11
 620.0000
 21
 252.3400
  0
LINE
  8
200
  6
AUSGEZOGEN
 10
 765.5000
 20
 200.0000
 11
 780.0000
 21
 229.0400
  0
LINE
  8
200
  6
AUSGEZOGEN
 10
 776.7200
 20
 235.6100
 11
 762.2200
 21
 206.5700
  0
LINE
  8
200
  6
AUSGEZOGEN
 10
 729.9500
 20
 200.0000
 11
 744.4500
 21
 229.0400
  0
LINE
  8
200
  6
AUSGEZOGEN
 10
 741.1600
 20
 235.6100
 11
 726.6600
 21
 206.5700
  0
LINE
  8
200
  6
AUSGEZOGEN
 10
 694.3900
 20
 200.0000
 11
 708.8900
 21
 229.0400
  0
LINE
  8
200
  6
AUSGEZOGEN
 10
 705.6100
 20
 235.6100
 11
 691.1100
 21
 206.5700
  0
LINE
  8
200
  6
AUSGEZOGEN
 10
 673.3300
 20
 206.5700
 11
 687.8300
 21
 235.6100
  0
LINE
  8
200
  6
AUSGEZOGEN
 10
 670.0500
 20
 235.6100
 11
 655.5500
 21
 206.5700
  0
LINE
  8
200
  6
AUSGEZOGEN
 10
 623.2800
 20
 200.0000
 11
 637.7800
 21
 229.0400
  0
LINE
  8
200
  6
AUSGEZOGEN
 10
 634.5000
 20
 235.6100
 11
 620.0000
 21
 206.5700
  0
LINE
  8
200
  6
AUSGEZOGEN
 10
 620.0000
 20
 503.6600
 11
 605.5000
 21
 474.6200
  0
LINE
  8
200
  6
AUSGEZOGEN
 10
 602.2200
 20
 481.2000
 11
 616.7200
 21
 510.0000
  0
LINE
  8
200
  6
AUSGEZOGEN
 10
 584.4500
 20
 503.6600
 11
 569.9500
 21
 474.6200
  0
LINE
  8
200
  6
AUSGEZOGEN
 10
 566.6600
 20
 481.2000
 11
 581.1600
 21
 510.0000
  0
LINE
  8
200
  6
AUSGEZOGEN
 10
 548.8900
 20
 503.6600
 11
 534.3900
 21
 474.6200
  0
LINE
  8
200
  6
AUSGEZOGEN
 10
 531.1100
 20
 481.2000
 11
 545.6100
 21
 510.0000
  0
LINE
  8
200
  6
AUSGEZOGEN
 10
 527.8300
 20
 510.0000
 11
 513.3300
 21
 481.2000
  0
LINE
  8
200
  6
AUSGEZOGEN
 10
 495.5500
 20
 481.2000
 11
 510.0500
 21
 510.0000
  0
LINE
  8
200
  6
AUSGEZOGEN
 10
 477.7800
 20
 503.6600
 11
 463.2800
 21
 474.6200
  0
LINE
  8
200
  6
AUSGEZOGEN
 10
 460.0000
 20
 481.2000
 11
 474.5000
 21
 510.0000
  0
LINE
  8
200
  6
AUSGEZOGEN
 10
 605.5000
 20
 428.8500
 11
 620.0000
 21
 457.8900
  0
LINE
  8
200
  6
AUSGEZOGEN
 10
 584.4500
 20
 457.8900
 11
 569.9500
 21
 428.8500
  0
LINE
  8
200
  6
AUSGEZOGEN
 10
 534.3900
 20
 428.8500
 11
 548.8900
 21
 457.8900
  0
LINE
  8
200
  6
AUSGEZOGEN
 10
 477.7800
 20
 457.8900
 11
 463.2800
 21
 428.8500
  0
LINE
  8
200
  6
AUSGEZOGEN
 10
 605.5000
 20
 383.0800
 11
 620.0000
 21
 412.1200
  0
LINE
  8
200
  6
AUSGEZOGEN
 10
 584.4500
 20
 412.1200
 11
 569.9500
 21
 383.0800
  0
LINE
  8
200
  6
AUSGEZOGEN
 10
 534.3900
 20
 383.0800
 11
 548.8900
 21
 412.1200
  0
LINE
  8
200
  6
AUSGEZOGEN
 10
 477.7800
 20
 412.1200
 11
 463.2800
 21
 383.0800
  0
LINE
  8
200
  6
AUSGEZOGEN
 10
 605.5000
 20
 337.3100
 11
 620.0000
 21
 366.3500
  0
LINE
  8
200
  6
AUSGEZOGEN
 10
 584.4500
 20
 366.3500
 11
 569.9500
 21
 337.3100
  0
LINE
  8
200
  6
AUSGEZOGEN
 10
 534.3900
 20
 337.3100
 11
 548.8900
 21
 366.3500
  0
LINE
  8
200
  6
AUSGEZOGEN
 10
 477.7800
 20
 366.3500
 11
 463.2800
 21
 337.3100
  0
LINE
  8
200
  6
AUSGEZOGEN
 10
 605.5000
 20
 291.5400
 11
 620.0000
 21
 320.5800
  0
LINE
  8
200
  6
AUSGEZOGEN
 10
 584.4500
 20
 320.5800
 11
 569.9500
 21
 291.5400
  0
LINE
  8
200
  6
AUSGEZOGEN
 10
 534.3900
 20
 291.5400
 11
 548.8900
 21
 320.5800
  0
LINE
  8
200
  6
AUSGEZOGEN
 10
 477.7800
 20
 320.5800
 11
 463.2800
 21
 291.5400
  0
LINE
  8
200
  6
AUSGEZOGEN
 10
 605.5000
 20
 245.7700
 11
 620.0000
 21
 274.8100
  0
LINE
  8
200
  6
AUSGEZOGEN
 10
 616.7200
 20
 281.3800
 11
 602.2200
 21
 252.3400
  0
LINE
  8
200
  6
AUSGEZOGEN
 10
 569.9500
 20
 245.7700
 11
 584.4500
 21
 274.8100
  0
LINE
  8
200
  6
AUSGEZOGEN
 10
 581.1600
 20
 281.3800
 11
 566.6600
 21
 252.3400
  0
LINE
  8
200
  6
AUSGEZOGEN
 10
 534.3900
 20
 245.7700
 11
 548.8900
 21
 274.8100
  0
LINE
  8
200
  6
AUSGEZOGEN
 10
 545.6100
 20
 281.3800
 11
 531.1100
 21
 252.3400
  0
LINE
  8
200
  6
AUSGEZOGEN
 10
 513.3300
 20
 252.3400
 11
 527.8300
 21
 281.3800
  0
LINE
  8
200
  6
AUSGEZOGEN
 10
 510.0500
 20
 281.3800
 11
 495.5500
 21
 252.3400
  0
LINE
  8
200
  6
AUSGEZOGEN
 10
 463.2800
 20
 245.7700
 11
 477.7800
 21
 274.8100
  0
LINE
  8
200
  6
AUSGEZOGEN
 10
 474.5000
 20
 281.3800
 11
 460.0000
 21
 252.3400
  0
LINE
  8
200
  6
AUSGEZOGEN
 10
 605.5000
 20
 200.0000
 11
 620.0000
 21
 229.0400
  0
LINE
  8
200
  6
AUSGEZOGEN
 10
 616.7200
 20
 235.6100
 11
 602.2200
 21
 206.5700
  0
LINE
  8
200
  6
AUSGEZOGEN
 10
 569.9500
 20
 200.0000
 11
 584.4500
 21
 229.0400
  0
LINE
  8
200
  6
AUSGEZOGEN
 10
 581.1600
 20
 235.6100
 11
 566.6600
 21
 206.5700
  0
LINE
  8
200
  6
AUSGEZOGEN
 10
 534.3900
 20
 200.0000
 11
 548.8900
 21
 229.0400
  0
LINE
  8
200
  6
AUSGEZOGEN
 10
 545.6100
 20
 235.6100
 11
 531.1100
 21
 206.5700
  0
LINE
  8
200
  6
AUSGEZOGEN
 10
 513.3300
 20
 206.5700
 11
 527.8300
 21
 235.6100
  0
LINE
  8
200
  6
AUSGEZOGEN
 10
 510.0500
 20
 235.6100
 11
 495.5500
 21
 206.5700
  0
LINE
  8
200
  6
AUSGEZOGEN
 10
 463.2800
 20
 200.0000
 11
 477.7800
 21
 229.0400
  0
LINE
  8
200
  6
AUSGEZOGEN
 10
 474.5000
 20
 235.6100
 11
 460.0000
 21
 206.5700
  0
LINE
  8
200
  6
AUSGEZOGEN
 10
 762.2200
 20
 503.6600
 11
 747.7300
 21
 474.6200
  0
LINE
  8
200
  6
AUSGEZOGEN
 10
 744.4500
 20
 481.2000
 11
 758.9400
 21
 510.0000
  0
LINE
  8
200
  6
AUSGEZOGEN
 10
 726.6600
 20
 503.6600
 11
 712.1700
 21
 474.6200
  0
LINE
  8
200
  6
AUSGEZOGEN
 10
 708.8900
 20
 481.2000
 11
 723.3800
 21
 510.0000
  0
LINE
  8
200
  6
AUSGEZOGEN
 10
 691.1100
 20
 503.6600
 11
 676.6200
 21
 474.6200
  0
LINE
  8
200
  6
AUSGEZOGEN
 10
 658.8400
 20
 474.6200
 11
 673.3300
 21
 503.6600
  0
LINE
  8
200
  6
AUSGEZOGEN
 10
 655.5500
 20
 503.6600
 11
 641.0600
 21
 474.6200
  0
LINE
  8
200
  6
AUSGEZOGEN
 10
 637.7800
 20
 481.2000
 11
 652.2700
 21
 510.0000
  0
LINE
  8
200
  6
AUSGEZOGEN
 10
 762.2200
 20
 435.4300
 11
 776.7200
 21
 464.4600
  0
LINE
  8
200
  6
AUSGEZOGEN
 10
 762.2200
 20
 457.8900
 11
 747.7300
 21
 428.8500
  0
LINE
  8
200
  6
AUSGEZOGEN
 10
 726.6600
 20
 435.4300
 11
 741.1600
 21
 464.4600
  0
LINE
  8
200
  6
AUSGEZOGEN
 10
 726.6600
 20
 457.8900
 11
 712.1700
 21
 428.8500
  0
LINE
  8
200
  6
AUSGEZOGEN
 10
 691.1100
 20
 435.4300
 11
 705.6100
 21
 464.4600
  0
LINE
  8
200
  6
AUSGEZOGEN
 10
 691.1100
 20
 457.8900
 11
 676.6200
 21
 428.8500
  0
LINE
  8
200
  6
AUSGEZOGEN
 10
 673.3300
 20
 435.4300
 11
 687.8300
 21
 464.4600
  0
LINE
  8
200
  6
AUSGEZOGEN
 10
 673.3300
 20
 457.8900
 11
 658.8400
 21
 428.8500
  0
LINE
  8
200
  6
AUSGEZOGEN
 10
 655.5500
 20
 435.4300
 11
 670.0500
 21
 464.4600
  0
LINE
  8
200
  6
AUSGEZOGEN
 10
 655.5500
 20
 457.8900
 11
 641.0600
 21
 428.8500
  0
LINE
  8
200
  6
AUSGEZOGEN
 10
 620.0000
 20
 435.4300
 11
 634.5000
 21
 464.4600
  0
LINE
  8
200
  6
AUSGEZOGEN
 10
 762.2200
 20
 389.6600
 11
 776.7200
 21
 418.6900
  0
LINE
  8
200
  6
AUSGEZOGEN
 10
 762.2200
 20
 412.1200
 11
 747.7300
 21
 383.0800
  0
LINE
  8
200
  6
AUSGEZOGEN
 10
 726.6600
 20
 389.6600
 11
 741.1600
 21
 418.6900
  0
LINE
  8
200
  6
AUSGEZOGEN
 10
 726.6600
 20
 412.1200
 11
 712.1700
 21
 383.0800
  0
LINE
  8
200
  6
AUSGEZOGEN
 10
 691.1100
 20
 389.6600
 11
 705.6100
 21
 418.6900
  0
LINE
  8
200
  6
AUSGEZOGEN
 10
 691.1100
 20
 412.1200
 11
 676.6200
 21
 383.0800
  0
LINE
  8
200
  6
AUSGEZOGEN
 10
 673.3300
 20
 389.6600
 11
 687.8300
 21
 418.6900
  0
LINE
  8
200
  6
AUSGEZOGEN
 10
 673.3300
 20
 412.1200
 11
 658.8400
 21
 383.0800
  0
LINE
  8
200
  6
AUSGEZOGEN
 10
 655.5500
 20
 389.6600
 11
 670.0500
 21
 418.6900
  0
LINE
  8
200
  6
AUSGEZOGEN
 10
 655.5500
 20
 412.1200
 11
 641.0600
 21
 383.0800
  0
LINE
  8
200
  6
AUSGEZOGEN
 10
 620.0000
 20
 389.6600
 11
 634.5000
 21
 418.6900
  0
LINE
  8
200
  6
AUSGEZOGEN
 10
 762.2200
 20
 343.8900
 11
 776.7200
 21
 372.9200
  0
LINE
  8
200
  6
AUSGEZOGEN
 10
 762.2200
 20
 366.3500
 11
 747.7300
 21
 337.3100
  0
LINE
  8
200
  6
AUSGEZOGEN
 10
 726.6600
 20
 343.8900
 11
 741.1600
 21
 372.9200
  0
LINE
  8
200
  6
AUSGEZOGEN
 10
 726.6600
 20
 366.3500
 11
 712.1700
 21
 337.3100
  0
LINE
  8
200
  6
AUSGEZOGEN
 10
 691.1100
 20
 343.8900
 11
 705.6100
 21
 372.9200
  0
LINE
  8
200
  6
AUSGEZOGEN
 10
 691.1100
 20
 366.3500
 11
 676.6200
 21
 337.3100
  0
LINE
  8
200
  6
AUSGEZOGEN
 10
 673.3300
 20
 343.8900
 11
 687.8300
 21
 372.9200
  0
LINE
  8
200
  6
AUSGEZOGEN
 10
 673.3300
 20
 366.3500
 11
 658.8400
 21
 337.3100
  0
LINE
  8
200
  6
AUSGEZOGEN
 10
 655.5500
 20
 343.8900
 11
 670.0500
 21
 372.9200
  0
LINE
  8
200
  6
AUSGEZOGEN
 10
 655.5500
 20
 366.3500
 11
 641.0600
 21
 337.3100
  0
LINE
  8
200
  6
AUSGEZOGEN
 10
 620.0000
 20
 343.8900
 11
 634.5000
 21
 372.9200
  0
LINE
  8
200
  6
AUSGEZOGEN
 10
 762.2200
 20
 298.1200
 11
 776.7200
 21
 327.1500
  0
LINE
  8
200
  6
AUSGEZOGEN
 10
 762.2200
 20
 320.5800
 11
 747.7300
 21
 291.5400
  0
LINE
  8
200
  6
AUSGEZOGEN
 10
 726.6600
 20
 298.1200
 11
 741.1600
 21
 327.1500
  0
LINE
  8
200
  6
AUSGEZOGEN
 10
 726.6600
 20
 320.5800
 11
 712.1700
 21
 291.5400
  0
LINE
  8
200
  6
AUSGEZOGEN
 10
 691.1100
 20
 298.1200
 11
 705.6100
 21
 327.1500
  0
LINE
  8
200
  6
AUSGEZOGEN
 10
 691.1100
 20
 320.5800
 11
 676.6200
 21
 291.5400
  0
LINE
  8
200
  6
AUSGEZOGEN
 10
 673.3300
 20
 298.1200
 11
 687.8300
 21
 327.1500
  0
LINE
  8
200
  6
AUSGEZOGEN
 10
 673.3300
 20
 320.5800
 11
 658.8400
 21
 291.5400
  0
LINE
  8
200
  6
AUSGEZOGEN
 10
 655.5500
 20
 298.1200
 11
 670.0500
 21
 327.1500
  0
LINE
  8
200
  6
AUSGEZOGEN
 10
 655.5500
 20
 320.5800
 11
 641.0600
 21
 291.5400
  0
LINE
  8
200
  6
AUSGEZOGEN
 10
 620.0000
 20
 298.1200
 11
 634.5000
 21
 327.1500
  0
LINE
  8
200
  6
AUSGEZOGEN
 10
 747.7300
 20
 245.7700
 11
 762.2200
 21
 274.8100
  0
LINE
  8
200
  6
AUSGEZOGEN
 10
 758.9400
 20
 281.3800
 11
 744.4500
 21
 252.3400
  0
LINE
  8
200
  6
AUSGEZOGEN
 10
 712.1700
 20
 245.7700
 11
 726.6600
 21
 274.8100
  0
LINE
  8
200
  6
AUSGEZOGEN
 10
 723.3800
 20
 281.3800
 11
 708.8900
 21
 252.3400
  0
LINE
  8
200
  6
AUSGEZOGEN
 10
 676.6200
 20
 245.7700
 11
 691.1100
 21
 274.8100
  0
LINE
  8
200
  6
AUSGEZOGEN
 10
 673.3300
 20
 274.8100
 11
 658.8400
 21
 245.7700
  0
LINE
  8
200
  6
AUSGEZOGEN
 10
 641.0600
 20
 245.7700
 11
 655.5500
 21
 274.8100
  0
LINE
  8
200
  6
AUSGEZOGEN
 10
 652.2700
 20
 281.3800
 11
 637.7800
 21
 252.3400
  0
LINE
  8
200
  6
AUSGEZOGEN
 10
 747.7300
 20
 200.0000
 11
 762.2200
 21
 229.0400
  0
LINE
  8
200
  6
AUSGEZOGEN
 10
 758.9400
 20
 235.6100
 11
 744.4500
 21
 206.5700
  0
LINE
  8
200
  6
AUSGEZOGEN
 10
 712.1700
 20
 200.0000
 11
 726.6600
 21
 229.0400
  0
LINE
  8
200
  6
AUSGEZOGEN
 10
 723.3800
 20
 235.6100
 11
 708.8900
 21
 206.5700
  0
LINE
  8
200
  6
AUSGEZOGEN
 10
 676.6200
 20
 200.0000
 11
 691.1100
 21
 229.0400
  0
LINE
  8
200
  6
AUSGEZOGEN
 10
 673.3300
 20
 229.0400
 11
 658.8400
 21
 200.0000
  0
LINE
  8
200
  6
AUSGEZOGEN
 10
 641.0600
 20
 200.0000
 11
 655.5500
 21
 229.0400
  0
LINE
  8
200
  6
AUSGEZOGEN
 10
 652.2700
 20
 235.6100
 11
 637.7800
 21
 206.5700
  0
LINE
  8
200
  6
AUSGEZOGEN
 10
 602.2200
 20
 503.6600
 11
 587.7300
 21
 474.6200
  0
LINE
  8
200
  6
AUSGEZOGEN
 10
 584.4500
 20
 481.2000
 11
 598.9400
 21
 510.0000
  0
LINE
  8
200
  6
AUSGEZOGEN
 10
 566.6600
 20
 503.6600
 11
 552.1700
 21
 474.6200
  0
LINE
  8
200
  6
AUSGEZOGEN
 10
 548.8900
 20
 481.2000
 11
 563.3800
 21
 510.0000
  0
LINE
  8
200
  6
AUSGEZOGEN
 10
 531.1100
 20
 503.6600
 11
 516.6200
 21
 474.6200
  0
LINE
  8
200
  6
AUSGEZOGEN
 10
 498.8400
 20
 474.6200
 11
 513.3300
 21
 503.6600
  0
LINE
  8
200
  6
AUSGEZOGEN
 10
 495.5500
 20
 503.6600
 11
 481.0600
 21
 474.6200
  0
LINE
  8
200
  6
AUSGEZOGEN
 10
 477.7800
 20
 481.2000
 11
 492.2700
 21
 510.0000
  0
LINE
  8
200
  6
AUSGEZOGEN
 10
 602.2200
 20
 435.4300
 11
 616.7200
 21
 464.4600
  0
LINE
  8
200
  6
AUSGEZOGEN
 10
 602.2200
 20
 457.8900
 11
 587.7300
 21
 428.8500
  0
LINE
  8
200
  6
AUSGEZOGEN
 10
 566.6600
 20
 435.4300
 11
 581.1600
 21
 464.4600
  0
LINE
  8
200
  6
AUSGEZOGEN
 10
 566.6600
 20
 457.8900
 11
 552.1700
 21
 428.8500
  0
LINE
  8
200
  6
AUSGEZOGEN
 10
 531.1100
 20
 435.4300
 11
 545.6100
 21
 464.4600
  0
LINE
  8
200
  6
AUSGEZOGEN
 10
 531.1100
 20
 457.8900
 11
 516.6200
 21
 428.8500
  0
LINE
  8
200
  6
AUSGEZOGEN
 10
 513.3300
 20
 435.4300
 11
 527.8300
 21
 464.4600
  0
LINE
  8
200
  6
AUSGEZOGEN
 10
 513.3300
 20
 457.8900
 11
 498.8400
 21
 428.8500
  0
LINE
  8
200
  6
AUSGEZOGEN
 10
 495.5500
 20
 435.4300
 11
 510.0500
 21
 464.4600
  0
LINE
  8
200
  6
AUSGEZOGEN
 10
 495.5500
 20
 457.8900
 11
 481.0600
 21
 428.8500
  0
LINE
  8
200
  6
AUSGEZOGEN
 10
 460.0000
 20
 435.4300
 11
 474.5000
 21
 464.4600
  0
LINE
  8
200
  6
AUSGEZOGEN
 10
 602.2200
 20
 389.6600
 11
 616.7200
 21
 418.6900
  0
LINE
  8
200
  6
AUSGEZOGEN
 10
 602.2200
 20
 412.1200
 11
 587.7300
 21
 383.0800
  0
LINE
  8
200
  6
AUSGEZOGEN
 10
 566.6600
 20
 389.6600
 11
 581.1600
 21
 418.6900
  0
LINE
  8
200
  6
AUSGEZOGEN
 10
 566.6600
 20
 412.1200
 11
 552.1700
 21
 383.0800
  0
LINE
  8
200
  6
AUSGEZOGEN
 10
 531.1100
 20
 389.6600
 11
 545.6100
 21
 418.6900
  0
LINE
  8
200
  6
AUSGEZOGEN
 10
 531.1100
 20
 412.1200
 11
 516.6200
 21
 383.0800
  0
LINE
  8
200
  6
AUSGEZOGEN
 10
 513.3300
 20
 389.6600
 11
 527.8300
 21
 418.6900
  0
LINE
  8
200
  6
AUSGEZOGEN
 10
 513.3300
 20
 412.1200
 11
 498.8400
 21
 383.0800
  0
LINE
  8
200
  6
AUSGEZOGEN
 10
 495.5500
 20
 389.6600
 11
 510.0500
 21
 418.6900
  0
LINE
  8
200
  6
AUSGEZOGEN
 10
 495.5500
 20
 412.1200
 11
 481.0600
 21
 383.0800
  0
LINE
  8
200
  6
AUSGEZOGEN
 10
 460.0000
 20
 389.6600
 11
 474.5000
 21
 418.6900
  0
LINE
  8
200
  6
AUSGEZOGEN
 10
 602.2200
 20
 343.8900
 11
 616.7200
 21
 372.9200
  0
LINE
  8
200
  6
AUSGEZOGEN
 10
 602.2200
 20
 366.3500
 11
 587.7300
 21
 337.3100
  0
LINE
  8
200
  6
AUSGEZOGEN
 10
 566.6600
 20
 343.8900
 11
 581.1600
 21
 372.9200
  0
LINE
  8
200
  6
AUSGEZOGEN
 10
 566.6600
 20
 366.3500
 11
 552.1700
 21
 337.3100
  0
LINE
  8
200
  6
AUSGEZOGEN
 10
 531.1100
 20
 343.8900
 11
 545.6100
 21
 372.9200
  0
LINE
  8
200
  6
AUSGEZOGEN
 10
 531.1100
 20
 366.3500
 11
 516.6200
 21
 337.3100
  0
LINE
  8
200
  6
AUSGEZOGEN
 10
 513.3300
 20
 343.8900
 11
 527.8300
 21
 372.9200
  0
LINE
  8
200
  6
AUSGEZOGEN
 10
 513.3300
 20
 366.3500
 11
 498.8400
 21
 337.3100
  0
LINE
  8
200
  6
AUSGEZOGEN
 10
 495.5500
 20
 343.8900
 11
 510.0500
 21
 372.9200
  0
LINE
  8
200
  6
AUSGEZOGEN
 10
 495.5500
 20
 366.3500
 11
 481.0600
 21
 337.3100
  0
LINE
  8
200
  6
AUSGEZOGEN
 10
 460.0000
 20
 343.8900
 11
 474.5000
 21
 372.9200
  0
LINE
  8
200
  6
AUSGEZOGEN
 10
 602.2200
 20
 298.1200
 11
 616.7200
 21
 327.1500
  0
LINE
  8
200
  6
AUSGEZOGEN
 10
 602.2200
 20
 320.5800
 11
 587.7300
 21
 291.5400
  0
LINE
  8
200
  6
AUSGEZOGEN
 10
 566.6600
 20
 298.1200
 11
 581.1600
 21
 327.1500
  0
LINE
  8
200
  6
AUSGEZOGEN
 10
 566.6600
 20
 320.5800
 11
 552.1700
 21
 291.5400
  0
LINE
  8
200
  6
AUSGEZOGEN
 10
 531.1100
 20
 298.1200
 11
 545.6100
 21
 327.1500
  0
LINE
  8
200
  6
AUSGEZOGEN
 10
 531.1100
 20
 320.5800
 11
 516.6200
 21
 291.5400
  0
LINE
  8
200
  6
AUSGEZOGEN
 10
 513.3300
 20
 298.1200
 11
 527.8300
 21
 327.1500
  0
LINE
  8
200
  6
AUSGEZOGEN
 10
 513.3300
 20
 320.5800
 11
 498.8400
 21
 291.5400
  0
LINE
  8
200
  6
AUSGEZOGEN
 10
 495.5500
 20
 298.1200
 11
 510.0500
 21
 327.1500
  0
LINE
  8
200
  6
AUSGEZOGEN
 10
 495.5500
 20
 320.5800
 11
 481.0600
 21
 291.5400
  0
LINE
  8
200
  6
AUSGEZOGEN
 10
 460.0000
 20
 298.1200
 11
 474.5000
 21
 327.1500
  0
LINE
  8
200
  6
AUSGEZOGEN
 10
 587.7300
 20
 245.7700
 11
 602.2200
 21
 274.8100
  0
LINE
  8
200
  6
AUSGEZOGEN
 10
 598.9400
 20
 281.3800
 11
 584.4500
 21
 252.3400
  0
LINE
  8
200
  6
AUSGEZOGEN
 10
 552.1700
 20
 245.7700
 11
 566.6600
 21
 274.8100
  0
LINE
  8
200
  6
AUSGEZOGEN
 10
 563.3800
 20
 281.3800
 11
 548.8900
 21
 252.3400
  0
LINE
  8
200
  6
AUSGEZOGEN
 10
 516.6200
 20
 245.7700
 11
 531.1100
 21
 274.8100
  0
LINE
  8
200
  6
AUSGEZOGEN
 10
 513.3300
 20
 274.8100
 11
 498.8400
 21
 245.7700
  0
LINE
  8
200
  6
AUSGEZOGEN
 10
 481.0600
 20
 245.7700
 11
 495.5500
 21
 274.8100
  0
LINE
  8
200
  6
AUSGEZOGEN
 10
 492.2700
 20
 281.3800
 11
 477.7800
 21
 252.3400
  0
LINE
  8
200
  6
AUSGEZOGEN
 10
 587.7300
 20
 200.0000
 11
 602.2200
 21
 229.0400
  0
LINE
  8
200
  6
AUSGEZOGEN
 10
 598.9400
 20
 235.6100
 11
 584.4500
 21
 206.5700
  0
LINE
  8
200
  6
AUSGEZOGEN
 10
 552.1700
 20
 200.0000
 11
 566.6600
 21
 229.0400
  0
LINE
  8
200
  6
AUSGEZOGEN
 10
 563.3800
 20
 235.6100
 11
 548.8900
 21
 206.5700
  0
LINE
  8
200
  6
AUSGEZOGEN
 10
 516.6200
 20
 200.0000
 11
 531.1100
 21
 229.0400
  0
LINE
  8
200
  6
AUSGEZOGEN
 10
 513.3300
 20
 229.0400
 11
 498.8400
 21
 200.0000
  0
LINE
  8
200
  6
AUSGEZOGEN
 10
 481.0600
 20
 200.0000
 11
 495.5500
 21
 229.0400
  0
LINE
  8
200
  6
AUSGEZOGEN
 10
 492.2700
 20
 235.6100
 11
 477.7800
 21
 206.5700
  0
LINE
  8
200
  6
AUSGEZOGEN
 10
 474.5000
 20
 235.6100
 11
 477.0800
 21
 234.2200
  0
LINE
  8
200
  6
AUSGEZOGEN
 10
 477.7800
 20
 229.0400
 11
 477.0800
 21
 234.2200
  0
LINE
  8
200
  6
AUSGEZOGEN
 10
 460.6900
 20
 201.3900
 11
 463.2800
 21
 200.0000
  0
LINE
  8
200
  6
AUSGEZOGEN
 10
 460.0000
 20
 206.5700
 11
 460.6900
 21
 201.3900
  0
LINE
  8
200
  6
AUSGEZOGEN
 10
 494.8600
 20
 234.2200
 11
 492.2700
 21
 235.6100
  0
LINE
  8
200
  6
AUSGEZOGEN
 10
 495.5500
 20
 229.0400
 11
 494.8600
 21
 234.2200
  0
LINE
  8
200
  6
AUSGEZOGEN
 10
 478.4700
 20
 201.3900
 11
 481.0600
 21
 200.0000
  0
LINE
  8
200
  6
AUSGEZOGEN
 10
 477.7800
 20
 206.5700
 11
 478.4700
 21
 201.3900
  0
LINE
  8
200
  6
AUSGEZOGEN
 10
 512.6400
 20
 234.2200
 11
 510.0500
 21
 235.6100
  0
LINE
  8
200
  6
AUSGEZOGEN
 10
 513.3300
 20
 229.0400
 11
 512.6400
 21
 234.2200
  0
LINE
  8
200
  6
AUSGEZOGEN
 10
 496.2500
 20
 201.3900
 11
 498.8400
 21
 200.0000
  0
LINE
  8
200
  6
AUSGEZOGEN
 10
 495.5500
 20
 206.5700
 11
 496.2500
 21
 201.3900
  0
LINE
  8
200
  6
AUSGEZOGEN
 10
 530.4100
 20
 234.2200
 11
 527.8300
 21
 235.6100
  0
LINE
  8
200
  6
AUSGEZOGEN
 10
 531.1100
 20
 229.0400
 11
 530.4100
 21
 234.2200
  0
LINE
  8
200
  6
AUSGEZOGEN
 10
 514.0300
 20
 201.3900
 11
 516.6200
 21
 200.0000
  0
LINE
  8
200
  6
AUSGEZOGEN
 10
 513.3300
 20
 206.5700
 11
 514.0300
 21
 201.3900
  0
LINE
  8
200
  6
AUSGEZOGEN
 10
 548.1900
 20
 234.2200
 11
 545.6100
 21
 235.6100
  0
LINE
  8
200
  6
AUSGEZOGEN
 10
 548.8900
 20
 229.0400
 11
 548.1900
 21
 234.2200
  0
LINE
  8
200
  6
AUSGEZOGEN
 10
 531.8100
 20
 201.3900
 11
 534.3900
 21
 200.0000
  0
LINE
  8
200
  6
AUSGEZOGEN
 10
 531.1100
 20
 206.5700
 11
 531.8100
 21
 201.3900
  0
LINE
  8
200
  6
AUSGEZOGEN
 10
 565.9700
 20
 234.2200
 11
 563.3800
 21
 235.6100
  0
LINE
  8
200
  6
AUSGEZOGEN
 10
 566.6600
 20
 229.0400
 11
 565.9700
 21
 234.2200
  0
LINE
  8
200
  6
AUSGEZOGEN
 10
 549.5900
 20
 201.3900
 11
 552.1700
 21
 200.0000
  0
LINE
  8
200
  6
AUSGEZOGEN
 10
 548.8900
 20
 206.5700
 11
 549.5900
 21
 201.3900
  0
LINE
  8
200
  6
AUSGEZOGEN
 10
 583.7500
 20
 234.2200
 11
 581.1600
 21
 235.6100
  0
LINE
  8
200
  6
AUSGEZOGEN
 10
 584.4500
 20
 229.0400
 11
 583.7500
 21
 234.2200
  0
LINE
  8
200
  6
AUSGEZOGEN
 10
 567.3600
 20
 201.3900
 11
 569.9500
 21
 200.0000
  0
LINE
  8
200
  6
AUSGEZOGEN
 10
 566.6600
 20
 206.5700
 11
 567.3600
 21
 201.3900
  0
LINE
  8
200
  6
AUSGEZOGEN
 10
 601.5200
 20
 234.2200
 11
 598.9400
 21
 235.6100
  0
LINE
  8
200
  6
AUSGEZOGEN
 10
 602.2200
 20
 229.0400
 11
 601.5200
 21
 234.2200
  0
LINE
  8
200
  6
AUSGEZOGEN
 10
 585.1400
 20
 201.3900
 11
 587.7300
 21
 200.0000
  0
LINE
  8
200
  6
AUSGEZOGEN
 10
 584.4500
 20
 206.5700
 11
 585.1400
 21
 201.3900
  0
LINE
  8
200
  6
AUSGEZOGEN
 10
 619.3100
 20
 234.2200
 11
 616.7200
 21
 235.6100
  0
LINE
  8
200
  6
AUSGEZOGEN
 10
 602.9200
 20
 201.3900
 11
 605.5000
 21
 200.0000
  0
LINE
  8
200
  6
AUSGEZOGEN
 10
 602.2200
 20
 206.5700
 11
 602.9200
 21
 201.3900
  0
LINE
  8
200
  6
AUSGEZOGEN
 10
 474.5000
 20
 281.3800
 11
 477.0800
 21
 279.9900
  0
LINE
  8
200
  6
AUSGEZOGEN
 10
 477.7800
 20
 274.8100
 11
 477.0800
 21
 279.9900
  0
LINE
  8
200
  6
AUSGEZOGEN
 10
 460.6900
 20
 247.1600
 11
 463.2800
 21
 245.7700
  0
LINE
  8
200
  6
AUSGEZOGEN
 10
 460.0000
 20
 252.3400
 11
 460.6900
 21
 247.1600
  0
LINE
  8
200
  6
AUSGEZOGEN
 10
 494.8600
 20
 279.9900
 11
 492.2700
 21
 281.3800
  0
LINE
  8
200
  6
AUSGEZOGEN
 10
 495.5500
 20
 274.8100
 11
 494.8600
 21
 279.9900
  0
LINE
  8
200
  6
AUSGEZOGEN
 10
 478.4700
 20
 247.1600
 11
 481.0600
 21
 245.7700
  0
LINE
  8
200
  6
AUSGEZOGEN
 10
 477.7800
 20
 252.3400
 11
 478.4700
 21
 247.1600
  0
LINE
  8
200
  6
AUSGEZOGEN
 10
 512.6400
 20
 279.9900
 11
 510.0500
 21
 281.3800
  0
LINE
  8
200
  6
AUSGEZOGEN
 10
 513.3300
 20
 274.8100
 11
 512.6400
 21
 279.9900
  0
LINE
  8
200
  6
AUSGEZOGEN
 10
 496.2500
 20
 247.1600
 11
 498.8400
 21
 245.7700
  0
LINE
  8
200
  6
AUSGEZOGEN
 10
 495.5500
 20
 252.3400
 11
 496.2500
 21
 247.1600
  0
LINE
  8
200
  6
AUSGEZOGEN
 10
 530.4100
 20
 279.9900
 11
 527.8300
 21
 281.3800
  0
LINE
  8
200
  6
AUSGEZOGEN
 10
 531.1100
 20
 274.8100
 11
 530.4100
 21
 279.9900
  0
LINE
  8
200
  6
AUSGEZOGEN
 10
 514.0300
 20
 247.1600
 11
 516.6200
 21
 245.7700
  0
LINE
  8
200
  6
AUSGEZOGEN
 10
 513.3300
 20
 252.3400
 11
 514.0300
 21
 247.1600
  0
LINE
  8
200
  6
AUSGEZOGEN
 10
 548.1900
 20
 279.9900
 11
 545.6100
 21
 281.3800
  0
LINE
  8
200
  6
AUSGEZOGEN
 10
 548.8900
 20
 274.8100
 11
 548.1900
 21
 279.9900
  0
LINE
  8
200
  6
AUSGEZOGEN
 10
 531.8100
 20
 247.1600
 11
 534.3900
 21
 245.7700
  0
LINE
  8
200
  6
AUSGEZOGEN
 10
 531.1100
 20
 252.3400
 11
 531.8100
 21
 247.1600
  0
LINE
  8
200
  6
AUSGEZOGEN
 10
 565.9700
 20
 279.9900
 11
 563.3800
 21
 281.3800
  0
LINE
  8
200
  6
AUSGEZOGEN
 10
 566.6600
 20
 274.8100
 11
 565.9700
 21
 279.9900
  0
LINE
  8
200
  6
AUSGEZOGEN
 10
 549.5900
 20
 247.1600
 11
 552.1700
 21
 245.7700
  0
LINE
  8
200
  6
AUSGEZOGEN
 10
 548.8900
 20
 252.3400
 11
 549.5900
 21
 247.1600
  0
LINE
  8
200
  6
AUSGEZOGEN
 10
 583.7500
 20
 279.9900
 11
 581.1600
 21
 281.3800
  0
LINE
  8
200
  6
AUSGEZOGEN
 10
 584.4500
 20
 274.8100
 11
 583.7500
 21
 279.9900
  0
LINE
  8
200
  6
AUSGEZOGEN
 10
 567.3600
 20
 247.1600
 11
 569.9500
 21
 245.7700
  0
LINE
  8
200
  6
AUSGEZOGEN
 10
 566.6600
 20
 252.3400
 11
 567.3600
 21
 247.1600
  0
LINE
  8
200
  6
AUSGEZOGEN
 10
 601.5200
 20
 279.9900
 11
 598.9400
 21
 281.3800
  0
LINE
  8
200
  6
AUSGEZOGEN
 10
 602.2200
 20
 274.8100
 11
 601.5200
 21
 279.9900
  0
LINE
  8
200
  6
AUSGEZOGEN
 10
 585.1400
 20
 247.1600
 11
 587.7300
 21
 245.7700
  0
LINE
  8
200
  6
AUSGEZOGEN
 10
 584.4500
 20
 252.3400
 11
 585.1400
 21
 247.1600
  0
LINE
  8
200
  6
AUSGEZOGEN
 10
 619.3100
 20
 279.9900
 11
 616.7200
 21
 281.3800
  0
LINE
  8
200
  6
AUSGEZOGEN
 10
 602.9200
 20
 247.1600
 11
 605.5000
 21
 245.7700
  0
LINE
  8
200
  6
AUSGEZOGEN
 10
 602.2200
 20
 252.3400
 11
 602.9200
 21
 247.1600
  0
LINE
  8
200
  6
AUSGEZOGEN
 10
 474.5000
 20
 327.1500
 11
 477.0800
 21
 325.7600
  0
LINE
  8
200
  6
AUSGEZOGEN
 10
 477.7800
 20
 320.5800
 11
 477.0800
 21
 325.7600
  0
LINE
  8
200
  6
AUSGEZOGEN
 10
 460.6900
 20
 292.9300
 11
 463.2800
 21
 291.5400
  0
LINE
  8
200
  6
AUSGEZOGEN
 10
 460.0000
 20
 298.1200
 11
 460.6900
 21
 292.9300
  0
LINE
  8
200
  6
AUSGEZOGEN
 10
 492.2700
 20
 327.1500
 11
 477.7800
 21
 298.1200
  0
LINE
  8
200
  6
AUSGEZOGEN
 10
 494.8600
 20
 325.7600
 11
 492.2700
 21
 327.1500
  0
LINE
  8
200
  6
AUSGEZOGEN
 10
 495.5500
 20
 320.5800
 11
 494.8600
 21
 325.7600
  0
LINE
  8
200
  6
AUSGEZOGEN
 10
 478.4700
 20
 292.9300
 11
 481.0600
 21
 291.5400
  0
LINE
  8
200
  6
AUSGEZOGEN
 10
 477.7800
 20
 298.1200
 11
 478.4700
 21
 292.9300
  0
LINE
  8
200
  6
AUSGEZOGEN
 10
 512.6400
 20
 325.7600
 11
 510.0500
 21
 327.1500
  0
LINE
  8
200
  6
AUSGEZOGEN
 10
 513.3300
 20
 320.5800
 11
 512.6400
 21
 325.7600
  0
LINE
  8
200
  6
AUSGEZOGEN
 10
 496.2500
 20
 292.9300
 11
 498.8400
 21
 291.5400
  0
LINE
  8
200
  6
AUSGEZOGEN
 10
 495.5500
 20
 298.1200
 11
 496.2500
 21
 292.9300
  0
LINE
  8
200
  6
AUSGEZOGEN
 10
 530.4100
 20
 325.7600
 11
 527.8300
 21
 327.1500
  0
LINE
  8
200
  6
AUSGEZOGEN
 10
 531.1100
 20
 320.5800
 11
 530.4100
 21
 325.7600
  0
LINE
  8
200
  6
AUSGEZOGEN
 10
 514.0300
 20
 292.9300
 11
 516.6200
 21
 291.5400
  0
LINE
  8
200
  6
AUSGEZOGEN
 10
 513.3300
 20
 298.1200
 11
 514.0300
 21
 292.9300
  0
LINE
  8
200
  6
AUSGEZOGEN
 10
 548.1900
 20
 325.7600
 11
 545.6100
 21
 327.1500
  0
LINE
  8
200
  6
AUSGEZOGEN
 10
 548.8900
 20
 320.5800
 11
 548.1900
 21
 325.7600
  0
LINE
  8
200
  6
AUSGEZOGEN
 10
 531.8100
 20
 292.9300
 11
 534.3900
 21
 291.5400
  0
LINE
  8
200
  6
AUSGEZOGEN
 10
 531.1100
 20
 298.1200
 11
 531.8100
 21
 292.9300
  0
LINE
  8
200
  6
AUSGEZOGEN
 10
 563.3800
 20
 327.1500
 11
 548.8900
 21
 298.1200
  0
LINE
  8
200
  6
AUSGEZOGEN
 10
 565.9700
 20
 325.7600
 11
 563.3800
 21
 327.1500
  0
LINE
  8
200
  6
AUSGEZOGEN
 10
 566.6600
 20
 320.5800
 11
 565.9700
 21
 325.7600
  0
LINE
  8
200
  6
AUSGEZOGEN
 10
 549.5900
 20
 292.9300
 11
 552.1700
 21
 291.5400
  0
LINE
  8
200
  6
AUSGEZOGEN
 10
 548.8900
 20
 298.1200
 11
 549.5900
 21
 292.9300
  0
LINE
  8
200
  6
AUSGEZOGEN
 10
 583.7500
 20
 325.7600
 11
 581.1600
 21
 327.1500
  0
LINE
  8
200
  6
AUSGEZOGEN
 10
 584.4500
 20
 320.5800
 11
 583.7500
 21
 325.7600
  0
LINE
  8
200
  6
AUSGEZOGEN
 10
 567.3600
 20
 292.9300
 11
 569.9500
 21
 291.5400
  0
LINE
  8
200
  6
AUSGEZOGEN
 10
 566.6600
 20
 298.1200
 11
 567.3600
 21
 292.9300
  0
LINE
  8
200
  6
AUSGEZOGEN
 10
 598.9400
 20
 327.1500
 11
 584.4500
 21
 298.1200
  0
LINE
  8
200
  6
AUSGEZOGEN
 10
 601.5200
 20
 325.7600
 11
 598.9400
 21
 327.1500
  0
LINE
  8
200
  6
AUSGEZOGEN
 10
 602.2200
 20
 320.5800
 11
 601.5200
 21
 325.7600
  0
LINE
  8
200
  6
AUSGEZOGEN
 10
 585.1400
 20
 292.9300
 11
 587.7300
 21
 291.5400
  0
LINE
  8
200
  6
AUSGEZOGEN
 10
 584.4500
 20
 298.1200
 11
 585.1400
 21
 292.9300
  0
LINE
  8
200
  6
AUSGEZOGEN
 10
 619.3100
 20
 325.7600
 11
 616.7200
 21
 327.1500
  0
LINE
  8
200
  6
AUSGEZOGEN
 10
 602.9200
 20
 292.9300
 11
 605.5000
 21
 291.5400
  0
LINE
  8
200
  6
AUSGEZOGEN
 10
 602.2200
 20
 298.1200
 11
 602.9200
 21
 292.9300
  0
LINE
  8
200
  6
AUSGEZOGEN
 10
 474.5000
 20
 372.9200
 11
 477.0800
 21
 371.5300
  0
LINE
  8
200
  6
AUSGEZOGEN
 10
 477.7800
 20
 366.3500
 11
 477.0800
 21
 371.5300
  0
LINE
  8
200
  6
AUSGEZOGEN
 10
 460.6900
 20
 338.7000
 11
 463.2800
 21
 337.3100
  0
LINE
  8
200
  6
AUSGEZOGEN
 10
 460.0000
 20
 343.8900
 11
 460.6900
 21
 338.7000
  0
LINE
  8
200
  6
AUSGEZOGEN
 10
 492.2700
 20
 372.9200
 11
 477.7800
 21
 343.8900
  0
LINE
  8
200
  6
AUSGEZOGEN
 10
 494.8600
 20
 371.5300
 11
 492.2700
 21
 372.9200
  0
LINE
  8
200
  6
AUSGEZOGEN
 10
 495.5500
 20
 366.3500
 11
 494.8600
 21
 371.5300
  0
LINE
  8
200
  6
AUSGEZOGEN
 10
 478.4700
 20
 338.7000
 11
 481.0600
 21
 337.3100
  0
LINE
  8
200
  6
AUSGEZOGEN
 10
 477.7800
 20
 343.8900
 11
 478.4700
 21
 338.7000
  0
LINE
  8
200
  6
AUSGEZOGEN
 10
 512.6400
 20
 371.5300
 11
 510.0500
 21
 372.9200
  0
LINE
  8
200
  6
AUSGEZOGEN
 10
 513.3300
 20
 366.3500
 11
 512.6400
 21
 371.5300
  0
LINE
  8
200
  6
AUSGEZOGEN
 10
 496.2500
 20
 338.7000
 11
 498.8400
 21
 337.3100
  0
LINE
  8
200
  6
AUSGEZOGEN
 10
 495.5500
 20
 343.8900
 11
 496.2500
 21
 338.7000
  0
LINE
  8
200
  6
AUSGEZOGEN
 10
 530.4100
 20
 371.5300
 11
 527.8300
 21
 372.9200
  0
LINE
  8
200
  6
AUSGEZOGEN
 10
 531.1100
 20
 366.3500
 11
 530.4100
 21
 371.5300
  0
LINE
  8
200
  6
AUSGEZOGEN
 10
 514.0300
 20
 338.7000
 11
 516.6200
 21
 337.3100
  0
LINE
  8
200
  6
AUSGEZOGEN
 10
 513.3300
 20
 343.8900
 11
 514.0300
 21
 338.7000
  0
LINE
  8
200
  6
AUSGEZOGEN
 10
 548.1900
 20
 371.5300
 11
 545.6100
 21
 372.9200
  0
LINE
  8
200
  6
AUSGEZOGEN
 10
 548.8900
 20
 366.3500
 11
 548.1900
 21
 371.5300
  0
LINE
  8
200
  6
AUSGEZOGEN
 10
 531.8100
 20
 338.7000
 11
 534.3900
 21
 337.3100
  0
LINE
  8
200
  6
AUSGEZOGEN
 10
 531.1100
 20
 343.8900
 11
 531.8100
 21
 338.7000
  0
LINE
  8
200
  6
AUSGEZOGEN
 10
 563.3800
 20
 372.9200
 11
 548.8900
 21
 343.8900
  0
LINE
  8
200
  6
AUSGEZOGEN
 10
 565.9700
 20
 371.5300
 11
 563.3800
 21
 372.9200
  0
LINE
  8
200
  6
AUSGEZOGEN
 10
 566.6600
 20
 366.3500
 11
 565.9700
 21
 371.5300
  0
LINE
  8
200
  6
AUSGEZOGEN
 10
 549.5900
 20
 338.7000
 11
 552.1700
 21
 337.3100
  0
LINE
  8
200
  6
AUSGEZOGEN
 10
 548.8900
 20
 343.8900
 11
 549.5900
 21
 338.7000
  0
LINE
  8
200
  6
AUSGEZOGEN
 10
 583.7500
 20
 371.5300
 11
 581.1600
 21
 372.9200
  0
LINE
  8
200
  6
AUSGEZOGEN
 10
 584.4500
 20
 366.3500
 11
 583.7500
 21
 371.5300
  0
LINE
  8
200
  6
AUSGEZOGEN
 10
 567.3600
 20
 338.7000
 11
 569.9500
 21
 337.3100
  0
LINE
  8
200
  6
AUSGEZOGEN
 10
 566.6600
 20
 343.8900
 11
 567.3600
 21
 338.7000
  0
LINE
  8
200
  6
AUSGEZOGEN
 10
 598.9400
 20
 372.9200
 11
 584.4500
 21
 343.8900
  0
LINE
  8
200
  6
AUSGEZOGEN
 10
 601.5200
 20
 371.5300
 11
 598.9400
 21
 372.9200
  0
LINE
  8
200
  6
AUSGEZOGEN
 10
 602.2200
 20
 366.3500
 11
 601.5200
 21
 371.5300
  0
LINE
  8
200
  6
AUSGEZOGEN
 10
 585.1400
 20
 338.7000
 11
 587.7300
 21
 337.3100
  0
LINE
  8
200
  6
AUSGEZOGEN
 10
 584.4500
 20
 343.8900
 11
 585.1400
 21
 338.7000
  0
LINE
  8
200
  6
AUSGEZOGEN
 10
 619.3100
 20
 371.5300
 11
 616.7200
 21
 372.9200
  0
LINE
  8
200
  6
AUSGEZOGEN
 10
 602.9200
 20
 338.7000
 11
 605.5000
 21
 337.3100
  0
LINE
  8
200
  6
AUSGEZOGEN
 10
 602.2200
 20
 343.8900
 11
 602.9200
 21
 338.7000
  0
LINE
  8
200
  6
AUSGEZOGEN
 10
 474.5000
 20
 418.6900
 11
 477.0800
 21
 417.3000
  0
LINE
  8
200
  6
AUSGEZOGEN
 10
 477.7800
 20
 412.1200
 11
 477.0800
 21
 417.3000
  0
LINE
  8
200
  6
AUSGEZOGEN
 10
 460.6900
 20
 384.4800
 11
 463.2800
 21
 383.0800
  0
LINE
  8
200
  6
AUSGEZOGEN
 10
 460.0000
 20
 389.6600
 11
 460.6900
 21
 384.4800
  0
LINE
  8
200
  6
AUSGEZOGEN
 10
 492.2700
 20
 418.6900
 11
 477.7800
 21
 389.6600
  0
LINE
  8
200
  6
AUSGEZOGEN
 10
 494.8600
 20
 417.3000
 11
 492.2700
 21
 418.6900
  0
LINE
  8
200
  6
AUSGEZOGEN
 10
 495.5500
 20
 412.1200
 11
 494.8600
 21
 417.3000
  0
LINE
  8
200
  6
AUSGEZOGEN
 10
 478.4700
 20
 384.4800
 11
 481.0600
 21
 383.0800
  0
LINE
  8
200
  6
AUSGEZOGEN
 10
 477.7800
 20
 389.6600
 11
 478.4700
 21
 384.4800
  0
LINE
  8
200
  6
AUSGEZOGEN
 10
 512.6400
 20
 417.3000
 11
 510.0500
 21
 418.6900
  0
LINE
  8
200
  6
AUSGEZOGEN
 10
 513.3300
 20
 412.1200
 11
 512.6400
 21
 417.3000
  0
LINE
  8
200
  6
AUSGEZOGEN
 10
 496.2500
 20
 384.4800
 11
 498.8400
 21
 383.0800
  0
LINE
  8
200
  6
AUSGEZOGEN
 10
 495.5500
 20
 389.6600
 11
 496.2500
 21
 384.4800
  0
LINE
  8
200
  6
AUSGEZOGEN
 10
 530.4100
 20
 417.3000
 11
 527.8300
 21
 418.6900
  0
LINE
  8
200
  6
AUSGEZOGEN
 10
 531.1100
 20
 412.1200
 11
 530.4100
 21
 417.3000
  0
LINE
  8
200
  6
AUSGEZOGEN
 10
 514.0300
 20
 384.4800
 11
 516.6200
 21
 383.0800
  0
LINE
  8
200
  6
AUSGEZOGEN
 10
 513.3300
 20
 389.6600
 11
 514.0300
 21
 384.4800
  0
LINE
  8
200
  6
AUSGEZOGEN
 10
 548.1900
 20
 417.3000
 11
 545.6100
 21
 418.6900
  0
LINE
  8
200
  6
AUSGEZOGEN
 10
 548.8900
 20
 412.1200
 11
 548.1900
 21
 417.3000
  0
LINE
  8
200
  6
AUSGEZOGEN
 10
 531.8100
 20
 384.4800
 11
 534.3900
 21
 383.0800
  0
LINE
  8
200
  6
AUSGEZOGEN
 10
 531.1100
 20
 389.6600
 11
 531.8100
 21
 384.4800
  0
LINE
  8
200
  6
AUSGEZOGEN
 10
 563.3800
 20
 418.6900
 11
 548.8900
 21
 389.6600
  0
LINE
  8
200
  6
AUSGEZOGEN
 10
 565.9700
 20
 417.3000
 11
 563.3800
 21
 418.6900
  0
LINE
  8
200
  6
AUSGEZOGEN
 10
 566.6600
 20
 412.1200
 11
 565.9700
 21
 417.3000
  0
LINE
  8
200
  6
AUSGEZOGEN
 10
 549.5900
 20
 384.4800
 11
 552.1700
 21
 383.0800
  0
LINE
  8
200
  6
AUSGEZOGEN
 10
 548.8900
 20
 389.6600
 11
 549.5900
 21
 384.4800
  0
LINE
  8
200
  6
AUSGEZOGEN
 10
 583.7500
 20
 417.3000
 11
 581.1600
 21
 418.6900
  0
LINE
  8
200
  6
AUSGEZOGEN
 10
 584.4500
 20
 412.1200
 11
 583.7500
 21
 417.3000
  0
LINE
  8
200
  6
AUSGEZOGEN
 10
 567.3600
 20
 384.4800
 11
 569.9500
 21
 383.0800
  0
LINE
  8
200
  6
AUSGEZOGEN
 10
 566.6600
 20
 389.6600
 11
 567.3600
 21
 384.4800
  0
LINE
  8
200
  6
AUSGEZOGEN
 10
 598.9400
 20
 418.6900
 11
 584.4500
 21
 389.6600
  0
LINE
  8
200
  6
AUSGEZOGEN
 10
 601.5200
 20
 417.3000
 11
 598.9400
 21
 418.6900
  0
LINE
  8
200
  6
AUSGEZOGEN
 10
 602.2200
 20
 412.1200
 11
 601.5200
 21
 417.3000
  0
LINE
  8
200
  6
AUSGEZOGEN
 10
 585.1400
 20
 384.4800
 11
 587.7300
 21
 383.0800
  0
LINE
  8
200
  6
AUSGEZOGEN
 10
 584.4500
 20
 389.6600
 11
 585.1400
 21
 384.4800
  0
LINE
  8
200
  6
AUSGEZOGEN
 10
 619.3100
 20
 417.3000
 11
 616.7200
 21
 418.6900
  0
LINE
  8
200
  6
AUSGEZOGEN
 10
 602.9200
 20
 384.4800
 11
 605.5000
 21
 383.0800
  0
LINE
  8
200
  6
AUSGEZOGEN
 10
 602.2200
 20
 389.6600
 11
 602.9200
 21
 384.4800
  0
LINE
  8
200
  6
AUSGEZOGEN
 10
 474.5000
 20
 464.4600
 11
 477.0800
 21
 463.0700
  0
LINE
  8
200
  6
AUSGEZOGEN
 10
 477.7800
 20
 457.8900
 11
 477.0800
 21
 463.0700
  0
LINE
  8
200
  6
AUSGEZOGEN
 10
 460.6900
 20
 430.2500
 11
 463.2800
 21
 428.8500
  0
LINE
  8
200
  6
AUSGEZOGEN
 10
 460.0000
 20
 435.4300
 11
 460.6900
 21
 430.2500
  0
LINE
  8
200
  6
AUSGEZOGEN
 10
 492.2700
 20
 464.4600
 11
 477.7800
 21
 435.4300
  0
LINE
  8
200
  6
AUSGEZOGEN
 10
 494.8600
 20
 463.0700
 11
 492.2700
 21
 464.4600
  0
LINE
  8
200
  6
AUSGEZOGEN
 10
 495.5500
 20
 457.8900
 11
 494.8600
 21
 463.0700
  0
LINE
  8
200
  6
AUSGEZOGEN
 10
 478.4700
 20
 430.2500
 11
 481.0600
 21
 428.8500
  0
LINE
  8
200
  6
AUSGEZOGEN
 10
 477.7800
 20
 435.4300
 11
 478.4700
 21
 430.2500
  0
LINE
  8
200
  6
AUSGEZOGEN
 10
 512.6400
 20
 463.0700
 11
 510.0500
 21
 464.4600
  0
LINE
  8
200
  6
AUSGEZOGEN
 10
 513.3300
 20
 457.8900
 11
 512.6400
 21
 463.0700
  0
LINE
  8
200
  6
AUSGEZOGEN
 10
 496.2500
 20
 430.2500
 11
 498.8400
 21
 428.8500
  0
LINE
  8
200
  6
AUSGEZOGEN
 10
 495.5500
 20
 435.4300
 11
 496.2500
 21
 430.2500
  0
LINE
  8
200
  6
AUSGEZOGEN
 10
 530.4100
 20
 463.0700
 11
 527.8300
 21
 464.4600
  0
LINE
  8
200
  6
AUSGEZOGEN
 10
 531.1100
 20
 457.8900
 11
 530.4100
 21
 463.0700
  0
LINE
  8
200
  6
AUSGEZOGEN
 10
 514.0300
 20
 430.2500
 11
 516.6200
 21
 428.8500
  0
LINE
  8
200
  6
AUSGEZOGEN
 10
 513.3300
 20
 435.4300
 11
 514.0300
 21
 430.2500
  0
LINE
  8
200
  6
AUSGEZOGEN
 10
 548.1900
 20
 463.0700
 11
 545.6100
 21
 464.4600
  0
LINE
  8
200
  6
AUSGEZOGEN
 10
 548.8900
 20
 457.8900
 11
 548.1900
 21
 463.0700
  0
LINE
  8
200
  6
AUSGEZOGEN
 10
 531.8100
 20
 430.2500
 11
 534.3900
 21
 428.8500
  0
LINE
  8
200
  6
AUSGEZOGEN
 10
 531.1100
 20
 435.4300
 11
 531.8100
 21
 430.2500
  0
LINE
  8
200
  6
AUSGEZOGEN
 10
 563.3800
 20
 464.4600
 11
 548.8900
 21
 435.4300
  0
LINE
  8
200
  6
AUSGEZOGEN
 10
 565.9700
 20
 463.0700
 11
 563.3800
 21
 464.4600
  0
LINE
  8
200
  6
AUSGEZOGEN
 10
 566.6600
 20
 457.8900
 11
 565.9700
 21
 463.0700
  0
LINE
  8
200
  6
AUSGEZOGEN
 10
 549.5900
 20
 430.2500
 11
 552.1700
 21
 428.8500
  0
LINE
  8
200
  6
AUSGEZOGEN
 10
 548.8900
 20
 435.4300
 11
 549.5900
 21
 430.2500
  0
LINE
  8
200
  6
AUSGEZOGEN
 10
 583.7500
 20
 463.0700
 11
 581.1600
 21
 464.4600
  0
LINE
  8
200
  6
AUSGEZOGEN
 10
 584.4500
 20
 457.8900
 11
 583.7500
 21
 463.0700
  0
LINE
  8
200
  6
AUSGEZOGEN
 10
 567.3600
 20
 430.2500
 11
 569.9500
 21
 428.8500
  0
LINE
  8
200
  6
AUSGEZOGEN
 10
 566.6600
 20
 435.4300
 11
 567.3600
 21
 430.2500
  0
LINE
  8
200
  6
AUSGEZOGEN
 10
 598.9400
 20
 464.4600
 11
 584.4500
 21
 435.4300
  0
LINE
  8
200
  6
AUSGEZOGEN
 10
 601.5200
 20
 463.0700
 11
 598.9400
 21
 464.4600
  0
LINE
  8
200
  6
AUSGEZOGEN
 10
 602.2200
 20
 457.8900
 11
 601.5200
 21
 463.0700
  0
LINE
  8
200
  6
AUSGEZOGEN
 10
 585.1400
 20
 430.2500
 11
 587.7300
 21
 428.8500
  0
LINE
  8
200
  6
AUSGEZOGEN
 10
 584.4500
 20
 435.4300
 11
 585.1400
 21
 430.2500
  0
LINE
  8
200
  6
AUSGEZOGEN
 10
 619.3100
 20
 463.0700
 11
 616.7200
 21
 464.4600
  0
LINE
  8
200
  6
AUSGEZOGEN
 10
 602.9200
 20
 430.2500
 11
 605.5000
 21
 428.8500
  0
LINE
  8
200
  6
AUSGEZOGEN
 10
 602.2200
 20
 435.4300
 11
 602.9200
 21
 430.2500
  0
LINE
  8
200
  6
AUSGEZOGEN
 10
 474.5000
 20
 510.0000
 11
 477.0800
 21
 508.8400
  0
LINE
  8
200
  6
AUSGEZOGEN
 10
 477.7800
 20
 503.6600
 11
 477.0800
 21
 508.8400
  0
LINE
  8
200
  6
AUSGEZOGEN
 10
 460.6900
 20
 476.0200
 11
 463.2800
 21
 474.6200
  0
LINE
  8
200
  6
AUSGEZOGEN
 10
 460.0000
 20
 481.2000
 11
 460.6900
 21
 476.0200
  0
LINE
  8
200
  6
AUSGEZOGEN
 10
 494.8600
 20
 508.8400
 11
 492.2700
 21
 510.0000
  0
LINE
  8
200
  6
AUSGEZOGEN
 10
 495.5500
 20
 503.6600
 11
 494.8600
 21
 508.8400
  0
LINE
  8
200
  6
AUSGEZOGEN
 10
 478.4700
 20
 476.0200
 11
 481.0600
 21
 474.6200
  0
LINE
  8
200
  6
AUSGEZOGEN
 10
 477.7800
 20
 481.2000
 11
 478.4700
 21
 476.0200
  0
LINE
  8
200
  6
AUSGEZOGEN
 10
 512.6400
 20
 508.8400
 11
 510.0500
 21
 510.0000
  0
LINE
  8
200
  6
AUSGEZOGEN
 10
 513.3300
 20
 503.6600
 11
 512.6400
 21
 508.8400
  0
LINE
  8
200
  6
AUSGEZOGEN
 10
 496.2500
 20
 476.0200
 11
 498.8400
 21
 474.6200
  0
LINE
  8
200
  6
AUSGEZOGEN
 10
 495.5500
 20
 481.2000
 11
 496.2500
 21
 476.0200
  0
LINE
  8
200
  6
AUSGEZOGEN
 10
 530.4100
 20
 508.8400
 11
 527.8300
 21
 510.0000
  0
LINE
  8
200
  6
AUSGEZOGEN
 10
 531.1100
 20
 503.6600
 11
 530.4100
 21
 508.8400
  0
LINE
  8
200
  6
AUSGEZOGEN
 10
 514.0300
 20
 476.0200
 11
 516.6200
 21
 474.6200
  0
LINE
  8
200
  6
AUSGEZOGEN
 10
 513.3300
 20
 481.2000
 11
 514.0300
 21
 476.0200
  0
LINE
  8
200
  6
AUSGEZOGEN
 10
 548.1900
 20
 508.8400
 11
 545.6100
 21
 510.0000
  0
LINE
  8
200
  6
AUSGEZOGEN
 10
 548.8900
 20
 503.6600
 11
 548.1900
 21
 508.8400
  0
LINE
  8
200
  6
AUSGEZOGEN
 10
 531.8100
 20
 476.0200
 11
 534.3900
 21
 474.6200
  0
LINE
  8
200
  6
AUSGEZOGEN
 10
 531.1100
 20
 481.2000
 11
 531.8100
 21
 476.0200
  0
LINE
  8
200
  6
AUSGEZOGEN
 10
 565.9700
 20
 508.8400
 11
 563.3800
 21
 510.0000
  0
LINE
  8
200
  6
AUSGEZOGEN
 10
 566.6600
 20
 503.6600
 11
 565.9700
 21
 508.8400
  0
LINE
  8
200
  6
AUSGEZOGEN
 10
 549.5900
 20
 476.0200
 11
 552.1700
 21
 474.6200
  0
LINE
  8
200
  6
AUSGEZOGEN
 10
 548.8900
 20
 481.2000
 11
 549.5900
 21
 476.0200
  0
LINE
  8
200
  6
AUSGEZOGEN
 10
 583.7500
 20
 508.8400
 11
 581.1600
 21
 510.0000
  0
LINE
  8
200
  6
AUSGEZOGEN
 10
 584.4500
 20
 503.6600
 11
 583.7500
 21
 508.8400
  0
LINE
  8
200
  6
AUSGEZOGEN
 10
 567.3600
 20
 476.0200
 11
 569.9500
 21
 474.6200
  0
LINE
  8
200
  6
AUSGEZOGEN
 10
 566.6600
 20
 481.2000
 11
 567.3600
 21
 476.0200
  0
LINE
  8
200
  6
AUSGEZOGEN
 10
 601.5200
 20
 508.8400
 11
 598.9400
 21
 510.0000
  0
LINE
  8
200
  6
AUSGEZOGEN
 10
 602.2200
 20
 503.6600
 11
 601.5200
 21
 508.8400
  0
LINE
  8
200
  6
AUSGEZOGEN
 10
 585.1400
 20
 476.0200
 11
 587.7300
 21
 474.6200
  0
LINE
  8
200
  6
AUSGEZOGEN
 10
 584.4500
 20
 481.2000
 11
 585.1400
 21
 476.0200
  0
LINE
  8
200
  6
AUSGEZOGEN
 10
 619.3100
 20
 508.8400
 11
 616.7200
 21
 510.0000
  0
LINE
  8
200
  6
AUSGEZOGEN
 10
 602.9200
 20
 476.0200
 11
 605.5000
 21
 474.6200
  0
LINE
  8
200
  6
AUSGEZOGEN
 10
 602.2200
 20
 481.2000
 11
 602.9200
 21
 476.0200
  0
LINE
  8
200
  6
AUSGEZOGEN
 10
 620.0000
 20
 457.8900
 11
 619.3100
 21
 463.0700
  0
LINE
  8
200
  6
AUSGEZOGEN
 10
 619.3100
 20
 508.8400
 11
 620.0000
 21
 503.6600
  0
LINE
  8
200
  6
AUSGEZOGEN
 10
 620.0000
 20
 229.0400
 11
 619.3100
 21
 234.2200
  0
LINE
  8
200
  6
AUSGEZOGEN
 10
 619.3100
 20
 279.9900
 11
 620.0000
 21
 274.8100
  0
LINE
  8
200
  6
AUSGEZOGEN
 10
 619.3100
 20
 325.7600
 11
 620.0000
 21
 320.5800
  0
LINE
  8
200
  6
AUSGEZOGEN
 10
 619.3100
 20
 371.5300
 11
 620.0000
 21
 366.3500
  0
LINE
  8
200
  6
AUSGEZOGEN
 10
 619.3100
 20
 417.3000
 11
 620.0000
 21
 412.1200
  0
LINE
  8
200
  6
AUSGEZOGEN
 10
 637.0800
 20
 234.2200
 11
 634.5000
 21
 235.6100
  0
LINE
  8
200
  6
AUSGEZOGEN
 10
 637.7800
 20
 229.0400
 11
 637.0800
 21
 234.2200
  0
LINE
  8
200
  6
AUSGEZOGEN
 10
 620.6900
 20
 201.3900
 11
 623.2800
 21
 200.0000
  0
LINE
  8
200
  6
AUSGEZOGEN
 10
 620.0000
 20
 206.5700
 11
 620.6900
 21
 201.3900
  0
LINE
  8
200
  6
AUSGEZOGEN
 10
 654.8600
 20
 234.2200
 11
 652.2700
 21
 235.6100
  0
LINE
  8
200
  6
AUSGEZOGEN
 10
 655.5500
 20
 229.0400
 11
 654.8600
 21
 234.2200
  0
LINE
  8
200
  6
AUSGEZOGEN
 10
 638.4700
 20
 201.3900
 11
 641.0600
 21
 200.0000
  0
LINE
  8
200
  6
AUSGEZOGEN
 10
 637.7800
 20
 206.5700
 11
 638.4700
 21
 201.3900
  0
LINE
  8
200
  6
AUSGEZOGEN
 10
 672.6400
 20
 234.2200
 11
 670.0500
 21
 235.6100
  0
LINE
  8
200
  6
AUSGEZOGEN
 10
 673.3300
 20
 229.0400
 11
 672.6400
 21
 234.2200
  0
LINE
  8
200
  6
AUSGEZOGEN
 10
 656.2500
 20
 201.3900
 11
 658.8400
 21
 200.0000
  0
LINE
  8
200
  6
AUSGEZOGEN
 10
 655.5500
 20
 206.5700
 11
 656.2500
 21
 201.3900
  0
LINE
  8
200
  6
AUSGEZOGEN
 10
 690.4100
 20
 234.2200
 11
 687.8300
 21
 235.6100
  0
LINE
  8
200
  6
AUSGEZOGEN
 10
 691.1100
 20
 229.0400
 11
 690.4100
 21
 234.2200
  0
LINE
  8
200
  6
AUSGEZOGEN
 10
 674.0300
 20
 201.3900
 11
 676.6200
 21
 200.0000
  0
LINE
  8
200
  6
AUSGEZOGEN
 10
 673.3300
 20
 206.5700
 11
 674.0300
 21
 201.3900
  0
LINE
  8
200
  6
AUSGEZOGEN
 10
 708.1900
 20
 234.2200
 11
 705.6100
 21
 235.6100
  0
LINE
  8
200
  6
AUSGEZOGEN
 10
 708.8900
 20
 229.0400
 11
 708.1900
 21
 234.2200
  0
LINE
  8
200
  6
AUSGEZOGEN
 10
 691.8100
 20
 201.3900
 11
 694.3900
 21
 200.0000
  0
LINE
  8
200
  6
AUSGEZOGEN
 10
 691.1100
 20
 206.5700
 11
 691.8100
 21
 201.3900
  0
LINE
  8
200
  6
AUSGEZOGEN
 10
 725.9700
 20
 234.2200
 11
 723.3800
 21
 235.6100
  0
LINE
  8
200
  6
AUSGEZOGEN
 10
 726.6600
 20
 229.0400
 11
 725.9700
 21
 234.2200
  0
LINE
  8
200
  6
AUSGEZOGEN
 10
 709.5900
 20
 201.3900
 11
 712.1700
 21
 200.0000
  0
LINE
  8
200
  6
AUSGEZOGEN
 10
 708.8900
 20
 206.5700
 11
 709.5900
 21
 201.3900
  0
LINE
  8
200
  6
AUSGEZOGEN
 10
 743.7500
 20
 234.2200
 11
 741.1600
 21
 235.6100
  0
LINE
  8
200
  6
AUSGEZOGEN
 10
 744.4500
 20
 229.0400
 11
 743.7500
 21
 234.2200
  0
LINE
  8
200
  6
AUSGEZOGEN
 10
 727.3600
 20
 201.3900
 11
 729.9500
 21
 200.0000
  0
LINE
  8
200
  6
AUSGEZOGEN
 10
 726.6600
 20
 206.5700
 11
 727.3600
 21
 201.3900
  0
LINE
  8
200
  6
AUSGEZOGEN
 10
 761.5200
 20
 234.2200
 11
 758.9400
 21
 235.6100
  0
LINE
  8
200
  6
AUSGEZOGEN
 10
 762.2200
 20
 229.0400
 11
 761.5200
 21
 234.2200
  0
LINE
  8
200
  6
AUSGEZOGEN
 10
 745.1400
 20
 201.3900
 11
 747.7300
 21
 200.0000
  0
LINE
  8
200
  6
AUSGEZOGEN
 10
 744.4500
 20
 206.5700
 11
 745.1400
 21
 201.3900
  0
LINE
  8
200
  6
AUSGEZOGEN
 10
 779.3100
 20
 234.2200
 11
 776.7200
 21
 235.6100
  0
LINE
  8
200
  6
AUSGEZOGEN
 10
 762.9200
 20
 201.3900
 11
 765.5000
 21
 200.0000
  0
LINE
  8
200
  6
AUSGEZOGEN
 10
 762.2200
 20
 206.5700
 11
 762.9200
 21
 201.3900
  0
LINE
  8
200
  6
AUSGEZOGEN
 10
 634.5000
 20
 281.3800
 11
 637.0800
 21
 279.9900
  0
LINE
  8
200
  6
AUSGEZOGEN
 10
 637.7800
 20
 274.8100
 11
 637.0800
 21
 279.9900
  0
LINE
  8
200
  6
AUSGEZOGEN
 10
 620.6900
 20
 247.1600
 11
 623.2800
 21
 245.7700
  0
LINE
  8
200
  6
AUSGEZOGEN
 10
 620.0000
 20
 252.3400
 11
 620.6900
 21
 247.1600
  0
LINE
  8
200
  6
AUSGEZOGEN
 10
 654.8600
 20
 279.9900
 11
 652.2700
 21
 281.3800
  0
LINE
  8
200
  6
AUSGEZOGEN
 10
 655.5500
 20
 274.8100
 11
 654.8600
 21
 279.9900
  0
LINE
  8
200
  6
AUSGEZOGEN
 10
 638.4700
 20
 247.1600
 11
 641.0600
 21
 245.7700
  0
LINE
  8
200
  6
AUSGEZOGEN
 10
 637.7800
 20
 252.3400
 11
 638.4700
 21
 247.1600
  0
LINE
  8
200
  6
AUSGEZOGEN
 10
 672.6400
 20
 279.9900
 11
 670.0500
 21
 281.3800
  0
LINE
  8
200
  6
AUSGEZOGEN
 10
 673.3300
 20
 274.8100
 11
 672.6400
 21
 279.9900
  0
LINE
  8
200
  6
AUSGEZOGEN
 10
 656.2500
 20
 247.1600
 11
 658.8400
 21
 245.7700
  0
LINE
  8
200
  6
AUSGEZOGEN
 10
 655.5500
 20
 252.3400
 11
 656.2500
 21
 247.1600
  0
LINE
  8
200
  6
AUSGEZOGEN
 10
 690.4100
 20
 279.9900
 11
 687.8300
 21
 281.3800
  0
LINE
  8
200
  6
AUSGEZOGEN
 10
 691.1100
 20
 274.8100
 11
 690.4100
 21
 279.9900
  0
LINE
  8
200
  6
AUSGEZOGEN
 10
 674.0300
 20
 247.1600
 11
 676.6200
 21
 245.7700
  0
LINE
  8
200
  6
AUSGEZOGEN
 10
 673.3300
 20
 252.3400
 11
 674.0300
 21
 247.1600
  0
LINE
  8
200
  6
AUSGEZOGEN
 10
 708.1900
 20
 279.9900
 11
 705.6100
 21
 281.3800
  0
LINE
  8
200
  6
AUSGEZOGEN
 10
 708.8900
 20
 274.8100
 11
 708.1900
 21
 279.9900
  0
LINE
  8
200
  6
AUSGEZOGEN
 10
 691.8100
 20
 247.1600
 11
 694.3900
 21
 245.7700
  0
LINE
  8
200
  6
AUSGEZOGEN
 10
 691.1100
 20
 252.3400
 11
 691.8100
 21
 247.1600
  0
LINE
  8
200
  6
AUSGEZOGEN
 10
 725.9700
 20
 279.9900
 11
 723.3800
 21
 281.3800
  0
LINE
  8
200
  6
AUSGEZOGEN
 10
 726.6600
 20
 274.8100
 11
 725.9700
 21
 279.9900
  0
LINE
  8
200
  6
AUSGEZOGEN
 10
 709.5900
 20
 247.1600
 11
 712.1700
 21
 245.7700
  0
LINE
  8
200
  6
AUSGEZOGEN
 10
 708.8900
 20
 252.3400
 11
 709.5900
 21
 247.1600
  0
LINE
  8
200
  6
AUSGEZOGEN
 10
 743.7500
 20
 279.9900
 11
 741.1600
 21
 281.3800
  0
LINE
  8
200
  6
AUSGEZOGEN
 10
 744.4500
 20
 274.8100
 11
 743.7500
 21
 279.9900
  0
LINE
  8
200
  6
AUSGEZOGEN
 10
 727.3600
 20
 247.1600
 11
 729.9500
 21
 245.7700
  0
LINE
  8
200
  6
AUSGEZOGEN
 10
 726.6600
 20
 252.3400
 11
 727.3600
 21
 247.1600
  0
LINE
  8
200
  6
AUSGEZOGEN
 10
 761.5200
 20
 279.9900
 11
 758.9400
 21
 281.3800
  0
LINE
  8
200
  6
AUSGEZOGEN
 10
 762.2200
 20
 274.8100
 11
 761.5200
 21
 279.9900
  0
LINE
  8
200
  6
AUSGEZOGEN
 10
 745.1400
 20
 247.1600
 11
 747.7300
 21
 245.7700
  0
LINE
  8
200
  6
AUSGEZOGEN
 10
 744.4500
 20
 252.3400
 11
 745.1400
 21
 247.1600
  0
LINE
  8
200
  6
AUSGEZOGEN
 10
 779.3100
 20
 279.9900
 11
 776.7200
 21
 281.3800
  0
LINE
  8
200
  6
AUSGEZOGEN
 10
 762.9200
 20
 247.1600
 11
 765.5000
 21
 245.7700
  0
LINE
  8
200
  6
AUSGEZOGEN
 10
 762.2200
 20
 252.3400
 11
 762.9200
 21
 247.1600
  0
LINE
  8
200
  6
AUSGEZOGEN
 10
 634.5000
 20
 327.1500
 11
 637.0800
 21
 325.7600
  0
LINE
  8
200
  6
AUSGEZOGEN
 10
 637.7800
 20
 320.5800
 11
 637.0800
 21
 325.7600
  0
LINE
  8
200
  6
AUSGEZOGEN
 10
 620.6900
 20
 292.9300
 11
 623.2800
 21
 291.5400
  0
LINE
  8
200
  6
AUSGEZOGEN
 10
 620.0000
 20
 298.1200
 11
 620.6900
 21
 292.9300
  0
LINE
  8
200
  6
AUSGEZOGEN
 10
 652.2700
 20
 327.1500
 11
 637.7800
 21
 298.1200
  0
LINE
  8
200
  6
AUSGEZOGEN
 10
 654.8600
 20
 325.7600
 11
 652.2700
 21
 327.1500
  0
LINE
  8
200
  6
AUSGEZOGEN
 10
 655.5500
 20
 320.5800
 11
 654.8600
 21
 325.7600
  0
LINE
  8
200
  6
AUSGEZOGEN
 10
 638.4700
 20
 292.9300
 11
 641.0600
 21
 291.5400
  0
LINE
  8
200
  6
AUSGEZOGEN
 10
 637.7800
 20
 298.1200
 11
 638.4700
 21
 292.9300
  0
LINE
  8
200
  6
AUSGEZOGEN
 10
 672.6400
 20
 325.7600
 11
 670.0500
 21
 327.1500
  0
LINE
  8
200
  6
AUSGEZOGEN
 10
 673.3300
 20
 320.5800
 11
 672.6400
 21
 325.7600
  0
LINE
  8
200
  6
AUSGEZOGEN
 10
 656.2500
 20
 292.9300
 11
 658.8400
 21
 291.5400
  0
LINE
  8
200
  6
AUSGEZOGEN
 10
 655.5500
 20
 298.1200
 11
 656.2500
 21
 292.9300
  0
LINE
  8
200
  6
AUSGEZOGEN
 10
 690.4100
 20
 325.7600
 11
 687.8300
 21
 327.1500
  0
LINE
  8
200
  6
AUSGEZOGEN
 10
 691.1100
 20
 320.5800
 11
 690.4100
 21
 325.7600
  0
LINE
  8
200
  6
AUSGEZOGEN
 10
 674.0300
 20
 292.9300
 11
 676.6200
 21
 291.5400
  0
LINE
  8
200
  6
AUSGEZOGEN
 10
 673.3300
 20
 298.1200
 11
 674.0300
 21
 292.9300
  0
LINE
  8
200
  6
AUSGEZOGEN
 10
 708.1900
 20
 325.7600
 11
 705.6100
 21
 327.1500
  0
LINE
  8
200
  6
AUSGEZOGEN
 10
 708.8900
 20
 320.5800
 11
 708.1900
 21
 325.7600
  0
LINE
  8
200
  6
AUSGEZOGEN
 10
 691.8100
 20
 292.9300
 11
 694.3900
 21
 291.5400
  0
LINE
  8
200
  6
AUSGEZOGEN
 10
 691.1100
 20
 298.1200
 11
 691.8100
 21
 292.9300
  0
LINE
  8
200
  6
AUSGEZOGEN
 10
 723.3800
 20
 327.1500
 11
 708.8900
 21
 298.1200
  0
LINE
  8
200
  6
AUSGEZOGEN
 10
 725.9700
 20
 325.7600
 11
 723.3800
 21
 327.1500
  0
LINE
  8
200
  6
AUSGEZOGEN
 10
 726.6600
 20
 320.5800
 11
 725.9700
 21
 325.7600
  0
LINE
  8
200
  6
AUSGEZOGEN
 10
 709.5900
 20
 292.9300
 11
 712.1700
 21
 291.5400
  0
LINE
  8
200
  6
AUSGEZOGEN
 10
 708.8900
 20
 298.1200
 11
 709.5900
 21
 292.9300
  0
LINE
  8
200
  6
AUSGEZOGEN
 10
 743.7500
 20
 325.7600
 11
 741.1600
 21
 327.1500
  0
LINE
  8
200
  6
AUSGEZOGEN
 10
 744.4500
 20
 320.5800
 11
 743.7500
 21
 325.7600
  0
LINE
  8
200
  6
AUSGEZOGEN
 10
 727.3600
 20
 292.9300
 11
 729.9500
 21
 291.5400
  0
LINE
  8
200
  6
AUSGEZOGEN
 10
 726.6600
 20
 298.1200
 11
 727.3600
 21
 292.9300
  0
LINE
  8
200
  6
AUSGEZOGEN
 10
 758.9400
 20
 327.1500
 11
 744.4500
 21
 298.1200
  0
LINE
  8
200
  6
AUSGEZOGEN
 10
 761.5200
 20
 325.7600
 11
 758.9400
 21
 327.1500
  0
LINE
  8
200
  6
AUSGEZOGEN
 10
 762.2200
 20
 320.5800
 11
 761.5200
 21
 325.7600
  0
LINE
  8
200
  6
AUSGEZOGEN
 10
 745.1400
 20
 292.9300
 11
 747.7300
 21
 291.5400
  0
LINE
  8
200
  6
AUSGEZOGEN
 10
 744.4500
 20
 298.1200
 11
 745.1400
 21
 292.9300
  0
LINE
  8
200
  6
AUSGEZOGEN
 10
 779.3100
 20
 325.7600
 11
 776.7200
 21
 327.1500
  0
LINE
  8
200
  6
AUSGEZOGEN
 10
 762.9200
 20
 292.9300
 11
 765.5000
 21
 291.5400
  0
LINE
  8
200
  6
AUSGEZOGEN
 10
 762.2200
 20
 298.1200
 11
 762.9200
 21
 292.9300
  0
LINE
  8
200
  6
AUSGEZOGEN
 10
 634.5000
 20
 372.9200
 11
 637.0800
 21
 371.5300
  0
LINE
  8
200
  6
AUSGEZOGEN
 10
 637.7800
 20
 366.3500
 11
 637.0800
 21
 371.5300
  0
LINE
  8
200
  6
AUSGEZOGEN
 10
 620.6900
 20
 338.7000
 11
 623.2800
 21
 337.3100
  0
LINE
  8
200
  6
AUSGEZOGEN
 10
 620.0000
 20
 343.8900
 11
 620.6900
 21
 338.7000
  0
LINE
  8
200
  6
AUSGEZOGEN
 10
 652.2700
 20
 372.9200
 11
 637.7800
 21
 343.8900
  0
LINE
  8
200
  6
AUSGEZOGEN
 10
 654.8600
 20
 371.5300
 11
 652.2700
 21
 372.9200
  0
LINE
  8
200
  6
AUSGEZOGEN
 10
 655.5500
 20
 366.3500
 11
 654.8600
 21
 371.5300
  0
LINE
  8
200
  6
AUSGEZOGEN
 10
 638.4700
 20
 338.7000
 11
 641.0600
 21
 337.3100
  0
LINE
  8
200
  6
AUSGEZOGEN
 10
 637.7800
 20
 343.8900
 11
 638.4700
 21
 338.7000
  0
LINE
  8
200
  6
AUSGEZOGEN
 10
 672.6400
 20
 371.5300
 11
 670.0500
 21
 372.9200
  0
LINE
  8
200
  6
AUSGEZOGEN
 10
 673.3300
 20
 366.3500
 11
 672.6400
 21
 371.5300
  0
LINE
  8
200
  6
AUSGEZOGEN
 10
 656.2500
 20
 338.7000
 11
 658.8400
 21
 337.3100
  0
LINE
  8
200
  6
AUSGEZOGEN
 10
 655.5500
 20
 343.8900
 11
 656.2500
 21
 338.7000
  0
LINE
  8
200
  6
AUSGEZOGEN
 10
 690.4100
 20
 371.5300
 11
 687.8300
 21
 372.9200
  0
LINE
  8
200
  6
AUSGEZOGEN
 10
 691.1100
 20
 366.3500
 11
 690.4100
 21
 371.5300
  0
LINE
  8
200
  6
AUSGEZOGEN
 10
 674.0300
 20
 338.7000
 11
 676.6200
 21
 337.3100
  0
LINE
  8
200
  6
AUSGEZOGEN
 10
 673.3300
 20
 343.8900
 11
 674.0300
 21
 338.7000
  0
LINE
  8
200
  6
AUSGEZOGEN
 10
 708.1900
 20
 371.5300
 11
 705.6100
 21
 372.9200
  0
LINE
  8
200
  6
AUSGEZOGEN
 10
 708.8900
 20
 366.3500
 11
 708.1900
 21
 371.5300
  0
LINE
  8
200
  6
AUSGEZOGEN
 10
 691.8100
 20
 338.7000
 11
 694.3900
 21
 337.3100
  0
LINE
  8
200
  6
AUSGEZOGEN
 10
 691.1100
 20
 343.8900
 11
 691.8100
 21
 338.7000
  0
LINE
  8
200
  6
AUSGEZOGEN
 10
 723.3800
 20
 372.9200
 11
 708.8900
 21
 343.8900
  0
LINE
  8
200
  6
AUSGEZOGEN
 10
 725.9700
 20
 371.5300
 11
 723.3800
 21
 372.9200
  0
LINE
  8
200
  6
AUSGEZOGEN
 10
 726.6600
 20
 366.3500
 11
 725.9700
 21
 371.5300
  0
LINE
  8
200
  6
AUSGEZOGEN
 10
 709.5900
 20
 338.7000
 11
 712.1700
 21
 337.3100
  0
LINE
  8
200
  6
AUSGEZOGEN
 10
 708.8900
 20
 343.8900
 11
 709.5900
 21
 338.7000
  0
LINE
  8
200
  6
AUSGEZOGEN
 10
 743.7500
 20
 371.5300
 11
 741.1600
 21
 372.9200
  0
LINE
  8
200
  6
AUSGEZOGEN
 10
 744.4500
 20
 366.3500
 11
 743.7500
 21
 371.5300
  0
LINE
  8
200
  6
AUSGEZOGEN
 10
 727.3600
 20
 338.7000
 11
 729.9500
 21
 337.3100
  0
LINE
  8
200
  6
AUSGEZOGEN
 10
 726.6600
 20
 343.8900
 11
 727.3600
 21
 338.7000
  0
LINE
  8
200
  6
AUSGEZOGEN
 10
 758.9400
 20
 372.9200
 11
 744.4500
 21
 343.8900
  0
LINE
  8
200
  6
AUSGEZOGEN
 10
 761.5200
 20
 371.5300
 11
 758.9400
 21
 372.9200
  0
LINE
  8
200
  6
AUSGEZOGEN
 10
 762.2200
 20
 366.3500
 11
 761.5200
 21
 371.5300
  0
LINE
  8
200
  6
AUSGEZOGEN
 10
 745.1400
 20
 338.7000
 11
 747.7300
 21
 337.3100
  0
LINE
  8
200
  6
AUSGEZOGEN
 10
 744.4500
 20
 343.8900
 11
 745.1400
 21
 338.7000
  0
LINE
  8
200
  6
AUSGEZOGEN
 10
 779.3100
 20
 371.5300
 11
 776.7200
 21
 372.9200
  0
LINE
  8
200
  6
AUSGEZOGEN
 10
 762.9200
 20
 338.7000
 11
 765.5000
 21
 337.3100
  0
LINE
  8
200
  6
AUSGEZOGEN
 10
 762.2200
 20
 343.8900
 11
 762.9200
 21
 338.7000
  0
LINE
  8
200
  6
AUSGEZOGEN
 10
 634.5000
 20
 418.6900
 11
 637.0800
 21
 417.3000
  0
LINE
  8
200
  6
AUSGEZOGEN
 10
 637.7800
 20
 412.1200
 11
 637.0800
 21
 417.3000
  0
LINE
  8
200
  6
AUSGEZOGEN
 10
 620.6900
 20
 384.4800
 11
 623.2800
 21
 383.0800
  0
LINE
  8
200
  6
AUSGEZOGEN
 10
 620.0000
 20
 389.6600
 11
 620.6900
 21
 384.4800
  0
LINE
  8
200
  6
AUSGEZOGEN
 10
 652.2700
 20
 418.6900
 11
 637.7800
 21
 389.6600
  0
LINE
  8
200
  6
AUSGEZOGEN
 10
 654.8600
 20
 417.3000
 11
 652.2700
 21
 418.6900
  0
LINE
  8
200
  6
AUSGEZOGEN
 10
 655.5500
 20
 412.1200
 11
 654.8600
 21
 417.3000
  0
LINE
  8
200
  6
AUSGEZOGEN
 10
 638.4700
 20
 384.4800
 11
 641.0600
 21
 383.0800
  0
LINE
  8
200
  6
AUSGEZOGEN
 10
 637.7800
 20
 389.6600
 11
 638.4700
 21
 384.4800
  0
LINE
  8
200
  6
AUSGEZOGEN
 10
 672.6400
 20
 417.3000
 11
 670.0500
 21
 418.6900
  0
LINE
  8
200
  6
AUSGEZOGEN
 10
 673.3300
 20
 412.1200
 11
 672.6400
 21
 417.3000
  0
LINE
  8
200
  6
AUSGEZOGEN
 10
 656.2500
 20
 384.4800
 11
 658.8400
 21
 383.0800
  0
LINE
  8
200
  6
AUSGEZOGEN
 10
 655.5500
 20
 389.6600
 11
 656.2500
 21
 384.4800
  0
LINE
  8
200
  6
AUSGEZOGEN
 10
 690.4100
 20
 417.3000
 11
 687.8300
 21
 418.6900
  0
LINE
  8
200
  6
AUSGEZOGEN
 10
 691.1100
 20
 412.1200
 11
 690.4100
 21
 417.3000
  0
LINE
  8
200
  6
AUSGEZOGEN
 10
 674.0300
 20
 384.4800
 11
 676.6200
 21
 383.0800
  0
LINE
  8
200
  6
AUSGEZOGEN
 10
 673.3300
 20
 389.6600
 11
 674.0300
 21
 384.4800
  0
LINE
  8
200
  6
AUSGEZOGEN
 10
 708.1900
 20
 417.3000
 11
 705.6100
 21
 418.6900
  0
LINE
  8
200
  6
AUSGEZOGEN
 10
 708.8900
 20
 412.1200
 11
 708.1900
 21
 417.3000
  0
LINE
  8
200
  6
AUSGEZOGEN
 10
 691.8100
 20
 384.4800
 11
 694.3900
 21
 383.0800
  0
LINE
  8
200
  6
AUSGEZOGEN
 10
 691.1100
 20
 389.6600
 11
 691.8100
 21
 384.4800
  0
LINE
  8
200
  6
AUSGEZOGEN
 10
 723.3800
 20
 418.6900
 11
 708.8900
 21
 389.6600
  0
LINE
  8
200
  6
AUSGEZOGEN
 10
 725.9700
 20
 417.3000
 11
 723.3800
 21
 418.6900
  0
LINE
  8
200
  6
AUSGEZOGEN
 10
 726.6600
 20
 412.1200
 11
 725.9700
 21
 417.3000
  0
LINE
  8
200
  6
AUSGEZOGEN
 10
 709.5900
 20
 384.4800
 11
 712.1700
 21
 383.0800
  0
LINE
  8
200
  6
AUSGEZOGEN
 10
 708.8900
 20
 389.6600
 11
 709.5900
 21
 384.4800
  0
LINE
  8
200
  6
AUSGEZOGEN
 10
 743.7500
 20
 417.3000
 11
 741.1600
 21
 418.6900
  0
LINE
  8
200
  6
AUSGEZOGEN
 10
 744.4500
 20
 412.1200
 11
 743.7500
 21
 417.3000
  0
LINE
  8
200
  6
AUSGEZOGEN
 10
 727.3600
 20
 384.4800
 11
 729.9500
 21
 383.0800
  0
LINE
  8
200
  6
AUSGEZOGEN
 10
 726.6600
 20
 389.6600
 11
 727.3600
 21
 384.4800
  0
LINE
  8
200
  6
AUSGEZOGEN
 10
 758.9400
 20
 418.6900
 11
 744.4500
 21
 389.6600
  0
LINE
  8
200
  6
AUSGEZOGEN
 10
 761.5200
 20
 417.3000
 11
 758.9400
 21
 418.6900
  0
LINE
  8
200
  6
AUSGEZOGEN
 10
 762.2200
 20
 412.1200
 11
 761.5200
 21
 417.3000
  0
LINE
  8
200
  6
AUSGEZOGEN
 10
 745.1400
 20
 384.4800
 11
 747.7300
 21
 383.0800
  0
LINE
  8
200
  6
AUSGEZOGEN
 10
 744.4500
 20
 389.6600
 11
 745.1400
 21
 384.4800
  0
LINE
  8
200
  6
AUSGEZOGEN
 10
 779.3100
 20
 417.3000
 11
 776.7200
 21
 418.6900
  0
LINE
  8
200
  6
AUSGEZOGEN
 10
 762.9200
 20
 384.4800
 11
 765.5000
 21
 383.0800
  0
LINE
  8
200
  6
AUSGEZOGEN
 10
 762.2200
 20
 389.6600
 11
 762.9200
 21
 384.4800
  0
LINE
  8
200
  6
AUSGEZOGEN
 10
 634.5000
 20
 464.4600
 11
 637.0800
 21
 463.0700
  0
LINE
  8
200
  6
AUSGEZOGEN
 10
 637.7800
 20
 457.8900
 11
 637.0800
 21
 463.0700
  0
LINE
  8
200
  6
AUSGEZOGEN
 10
 620.6900
 20
 430.2500
 11
 623.2800
 21
 428.8500
  0
LINE
  8
200
  6
AUSGEZOGEN
 10
 620.0000
 20
 435.4300
 11
 620.6900
 21
 430.2500
  0
LINE
  8
200
  6
AUSGEZOGEN
 10
 652.2700
 20
 464.4600
 11
 637.7800
 21
 435.4300
  0
LINE
  8
200
  6
AUSGEZOGEN
 10
 654.8600
 20
 463.0700
 11
 652.2700
 21
 464.4600
  0
LINE
  8
200
  6
AUSGEZOGEN
 10
 655.5500
 20
 457.8900
 11
 654.8600
 21
 463.0700
  0
LINE
  8
200
  6
AUSGEZOGEN
 10
 638.4700
 20
 430.2500
 11
 641.0600
 21
 428.8500
  0
LINE
  8
200
  6
AUSGEZOGEN
 10
 637.7800
 20
 435.4300
 11
 638.4700
 21
 430.2500
  0
LINE
  8
200
  6
AUSGEZOGEN
 10
 672.6400
 20
 463.0700
 11
 670.0500
 21
 464.4600
  0
LINE
  8
200
  6
AUSGEZOGEN
 10
 673.3300
 20
 457.8900
 11
 672.6400
 21
 463.0700
  0
LINE
  8
200
  6
AUSGEZOGEN
 10
 656.2500
 20
 430.2500
 11
 658.8400
 21
 428.8500
  0
LINE
  8
200
  6
AUSGEZOGEN
 10
 655.5500
 20
 435.4300
 11
 656.2500
 21
 430.2500
  0
LINE
  8
200
  6
AUSGEZOGEN
 10
 690.4100
 20
 463.0700
 11
 687.8300
 21
 464.4600
  0
LINE
  8
200
  6
AUSGEZOGEN
 10
 691.1100
 20
 457.8900
 11
 690.4100
 21
 463.0700
  0
LINE
  8
200
  6
AUSGEZOGEN
 10
 674.0300
 20
 430.2500
 11
 676.6200
 21
 428.8500
  0
LINE
  8
200
  6
AUSGEZOGEN
 10
 673.3300
 20
 435.4300
 11
 674.0300
 21
 430.2500
  0
LINE
  8
200
  6
AUSGEZOGEN
 10
 708.1900
 20
 463.0700
 11
 705.6100
 21
 464.4600
  0
LINE
  8
200
  6
AUSGEZOGEN
 10
 708.8900
 20
 457.8900
 11
 708.1900
 21
 463.0700
  0
LINE
  8
200
  6
AUSGEZOGEN
 10
 691.8100
 20
 430.2500
 11
 694.3900
 21
 428.8500
  0
LINE
  8
200
  6
AUSGEZOGEN
 10
 691.1100
 20
 435.4300
 11
 691.8100
 21
 430.2500
  0
LINE
  8
200
  6
AUSGEZOGEN
 10
 723.3800
 20
 464.4600
 11
 708.8900
 21
 435.4300
  0
LINE
  8
200
  6
AUSGEZOGEN
 10
 725.9700
 20
 463.0700
 11
 723.3800
 21
 464.4600
  0
LINE
  8
200
  6
AUSGEZOGEN
 10
 726.6600
 20
 457.8900
 11
 725.9700
 21
 463.0700
  0
LINE
  8
200
  6
AUSGEZOGEN
 10
 709.5900
 20
 430.2500
 11
 712.1700
 21
 428.8500
  0
LINE
  8
200
  6
AUSGEZOGEN
 10
 708.8900
 20
 435.4300
 11
 709.5900
 21
 430.2500
  0
LINE
  8
200
  6
AUSGEZOGEN
 10
 743.7500
 20
 463.0700
 11
 741.1600
 21
 464.4600
  0
LINE
  8
200
  6
AUSGEZOGEN
 10
 744.4500
 20
 457.8900
 11
 743.7500
 21
 463.0700
  0
LINE
  8
200
  6
AUSGEZOGEN
 10
 727.3600
 20
 430.2500
 11
 729.9500
 21
 428.8500
  0
LINE
  8
200
  6
AUSGEZOGEN
 10
 726.6600
 20
 435.4300
 11
 727.3600
 21
 430.2500
  0
LINE
  8
200
  6
AUSGEZOGEN
 10
 758.9400
 20
 464.4600
 11
 744.4500
 21
 435.4300
  0
LINE
  8
200
  6
AUSGEZOGEN
 10
 761.5200
 20
 463.0700
 11
 758.9400
 21
 464.4600
  0
LINE
  8
200
  6
AUSGEZOGEN
 10
 762.2200
 20
 457.8900
 11
 761.5200
 21
 463.0700
  0
LINE
  8
200
  6
AUSGEZOGEN
 10
 745.1400
 20
 430.2500
 11
 747.7300
 21
 428.8500
  0
LINE
  8
200
  6
AUSGEZOGEN
 10
 744.4500
 20
 435.4300
 11
 745.1400
 21
 430.2500
  0
LINE
  8
200
  6
AUSGEZOGEN
 10
 779.3100
 20
 463.0700
 11
 776.7200
 21
 464.4600
  0
LINE
  8
200
  6
AUSGEZOGEN
 10
 762.9200
 20
 430.2500
 11
 765.5000
 21
 428.8500
  0
LINE
  8
200
  6
AUSGEZOGEN
 10
 762.2200
 20
 435.4300
 11
 762.9200
 21
 430.2500
  0
LINE
  8
200
  6
AUSGEZOGEN
 10
 634.5000
 20
 510.0000
 11
 637.0800
 21
 508.8400
  0
LINE
  8
200
  6
AUSGEZOGEN
 10
 637.7800
 20
 503.6600
 11
 637.0800
 21
 508.8400
  0
LINE
  8
200
  6
AUSGEZOGEN
 10
 620.6900
 20
 476.0200
 11
 623.2800
 21
 474.6200
  0
LINE
  8
200
  6
AUSGEZOGEN
 10
 620.0000
 20
 481.2000
 11
 620.6900
 21
 476.0200
  0
LINE
  8
200
  6
AUSGEZOGEN
 10
 654.8600
 20
 508.8400
 11
 652.2700
 21
 510.0000
  0
LINE
  8
200
  6
AUSGEZOGEN
 10
 655.5500
 20
 503.6600
 11
 654.8600
 21
 508.8400
  0
LINE
  8
200
  6
AUSGEZOGEN
 10
 638.4700
 20
 476.0200
 11
 641.0600
 21
 474.6200
  0
LINE
  8
200
  6
AUSGEZOGEN
 10
 637.7800
 20
 481.2000
 11
 638.4700
 21
 476.0200
  0
LINE
  8
200
  6
AUSGEZOGEN
 10
 672.6400
 20
 508.8400
 11
 670.0500
 21
 510.0000
  0
LINE
  8
200
  6
AUSGEZOGEN
 10
 673.3300
 20
 503.6600
 11
 672.6400
 21
 508.8400
  0
LINE
  8
200
  6
AUSGEZOGEN
 10
 656.2500
 20
 476.0200
 11
 658.8400
 21
 474.6200
  0
LINE
  8
200
  6
AUSGEZOGEN
 10
 655.5500
 20
 481.2000
 11
 656.2500
 21
 476.0200
  0
LINE
  8
200
  6
AUSGEZOGEN
 10
 690.4100
 20
 508.8400
 11
 687.8300
 21
 510.0000
  0
LINE
  8
200
  6
AUSGEZOGEN
 10
 691.1100
 20
 503.6600
 11
 690.4100
 21
 508.8400
  0
LINE
  8
200
  6
AUSGEZOGEN
 10
 674.0300
 20
 476.0200
 11
 676.6200
 21
 474.6200
  0
LINE
  8
200
  6
AUSGEZOGEN
 10
 673.3300
 20
 481.2000
 11
 674.0300
 21
 476.0200
  0
LINE
  8
200
  6
AUSGEZOGEN
 10
 708.1900
 20
 508.8400
 11
 705.6100
 21
 510.0000
  0
LINE
  8
200
  6
AUSGEZOGEN
 10
 708.8900
 20
 503.6600
 11
 708.1900
 21
 508.8400
  0
LINE
  8
200
  6
AUSGEZOGEN
 10
 691.8100
 20
 476.0200
 11
 694.3900
 21
 474.6200
  0
LINE
  8
200
  6
AUSGEZOGEN
 10
 691.1100
 20
 481.2000
 11
 691.8100
 21
 476.0200
  0
LINE
  8
200
  6
AUSGEZOGEN
 10
 725.9700
 20
 508.8400
 11
 723.3800
 21
 510.0000
  0
LINE
  8
200
  6
AUSGEZOGEN
 10
 726.6600
 20
 503.6600
 11
 725.9700
 21
 508.8400
  0
LINE
  8
200
  6
AUSGEZOGEN
 10
 709.5900
 20
 476.0200
 11
 712.1700
 21
 474.6200
  0
LINE
  8
200
  6
AUSGEZOGEN
 10
 708.8900
 20
 481.2000
 11
 709.5900
 21
 476.0200
  0
LINE
  8
200
  6
AUSGEZOGEN
 10
 743.7500
 20
 508.8400
 11
 741.1600
 21
 510.0000
  0
LINE
  8
200
  6
AUSGEZOGEN
 10
 744.4500
 20
 503.6600
 11
 743.7500
 21
 508.8400
  0
LINE
  8
200
  6
AUSGEZOGEN
 10
 727.3600
 20
 476.0200
 11
 729.9500
 21
 474.6200
  0
LINE
  8
200
  6
AUSGEZOGEN
 10
 726.6600
 20
 481.2000
 11
 727.3600
 21
 476.0200
  0
LINE
  8
200
  6
AUSGEZOGEN
 10
 761.5200
 20
 508.8400
 11
 758.9400
 21
 510.0000
  0
LINE
  8
200
  6
AUSGEZOGEN
 10
 762.2200
 20
 503.6600
 11
 761.5200
 21
 508.8400
  0
LINE
  8
200
  6
AUSGEZOGEN
 10
 745.1400
 20
 476.0200
 11
 747.7300
 21
 474.6200
  0
LINE
  8
200
  6
AUSGEZOGEN
 10
 744.4500
 20
 481.2000
 11
 745.1400
 21
 476.0200
  0
LINE
  8
200
  6
AUSGEZOGEN
 10
 779.3100
 20
 508.8400
 11
 776.7200
 21
 510.0000
  0
LINE
  8
200
  6
AUSGEZOGEN
 10
 762.9200
 20
 476.0200
 11
 765.5000
 21
 474.6200
  0
LINE
  8
200
  6
AUSGEZOGEN
 10
 762.2200
 20
 481.2000
 11
 762.9200
 21
 476.0200
  0
LINE
  8
200
  6
AUSGEZOGEN
 10
 780.0000
 20
 457.8900
 11
 779.3100
 21
 463.0700
  0
LINE
  8
200
  6
AUSGEZOGEN
 10
 779.3100
 20
 508.8400
 11
 780.0000
 21
 503.6600
  0
LINE
  8
200
  6
AUSGEZOGEN
 10
 780.0000
 20
 229.0400
 11
 779.3100
 21
 234.2200
  0
LINE
  8
200
  6
AUSGEZOGEN
 10
 779.3100
 20
 279.9900
 11
 780.0000
 21
 274.8100
  0
LINE
  8
200
  6
AUSGEZOGEN
 10
 779.3100
 20
 325.7600
 11
 780.0000
 21
 320.5800
  0
LINE
  8
200
  6
AUSGEZOGEN
 10
 779.3100
 20
 371.5300
 11
 780.0000
 21
 366.3500
  0
LINE
  8
200
  6
AUSGEZOGEN
 10
 779.3100
 20
 417.3000
 11
 780.0000
 21
 412.1200
  0
LINE
  8
200
  6
AUSGEZOGEN
 10
  97.7800
 20
 843.5400
 11
  83.2800
 21
 815.0000
  0
LINE
  8
200
  6
AUSGEZOGEN
 10
 154.3900
 20
 815.0000
 11
 168.8900
 21
 843.5400
  0
LINE
  8
200
  6
AUSGEZOGEN
 10
 204.4500
 20
 843.5400
 11
 189.9500
 21
 815.0000
  0
LINE
  8
200
  6
AUSGEZOGEN
 10
 225.5000
 20
 815.0000
 11
 240.0000
 21
 843.5400
  0
LINE
  8
200
  6
AUSGEZOGEN
 10
  94.5000
 20
 895.0000
 11
  80.0000
 21
 866.4600
  0
LINE
  8
200
  6
AUSGEZOGEN
 10
  83.2800
 20
 859.9900
 11
  97.7800
 21
 888.5300
  0
LINE
  8
200
  6
AUSGEZOGEN
 10
 130.0500
 20
 895.0000
 11
 115.5500
 21
 866.4600
  0
LINE
  8
200
  6
AUSGEZOGEN
 10
 133.3300
 20
 866.4600
 11
 147.8300
 21
 895.0000
  0
LINE
  8
200
  6
AUSGEZOGEN
 10
 165.6100
 20
 895.0000
 11
 151.1100
 21
 866.4600
  0
LINE
  8
200
  6
AUSGEZOGEN
 10
 154.3900
 20
 859.9900
 11
 168.8900
 21
 888.5300
  0
LINE
  8
200
  6
AUSGEZOGEN
 10
 201.1600
 20
 895.0000
 11
 186.6600
 21
 866.4600
  0
LINE
  8
200
  6
AUSGEZOGEN
 10
 189.9500
 20
 859.9900
 11
 204.4500
 21
 888.5300
  0
LINE
  8
200
  6
AUSGEZOGEN
 10
 236.7200
 20
 895.0000
 11
 222.2200
 21
 866.4600
  0
LINE
  8
200
  6
AUSGEZOGEN
 10
 225.5000
 20
 859.9900
 11
 240.0000
 21
 888.5300
  0
LINE
  8
200
  6
AUSGEZOGEN
 10
 243.2800
 20
 815.0000
 11
 257.7800
 21
 843.5400
  0
LINE
  8
200
  6
AUSGEZOGEN
 10
 328.8900
 20
 843.5400
 11
 314.3900
 21
 815.0000
  0
LINE
  8
200
  6
AUSGEZOGEN
 10
 349.9500
 20
 815.0000
 11
 364.4500
 21
 843.5400
  0
LINE
  8
200
  6
AUSGEZOGEN
 10
 400.0000
 20
 843.5400
 11
 385.5000
 21
 815.0000
  0
LINE
  8
200
  6
AUSGEZOGEN
 10
 254.5000
 20
 895.0000
 11
 240.0000
 21
 866.4600
  0
LINE
  8
200
  6
AUSGEZOGEN
 10
 243.2800
 20
 859.9900
 11
 257.7800
 21
 888.5300
  0
LINE
  8
200
  6
AUSGEZOGEN
 10
 290.0500
 20
 895.0000
 11
 275.5500
 21
 866.4600
  0
LINE
  8
200
  6
AUSGEZOGEN
 10
 293.3300
 20
 866.4600
 11
 307.8300
 21
 895.0000
  0
LINE
  8
200
  6
AUSGEZOGEN
 10
 325.6100
 20
 895.0000
 11
 311.1100
 21
 866.4600
  0
LINE
  8
200
  6
AUSGEZOGEN
 10
 314.3900
 20
 859.9900
 11
 328.8900
 21
 888.5300
  0
LINE
  8
200
  6
AUSGEZOGEN
 10
 361.1600
 20
 895.0000
 11
 346.6600
 21
 866.4600
  0
LINE
  8
200
  6
AUSGEZOGEN
 10
 349.9500
 20
 859.9900
 11
 364.4500
 21
 888.5300
  0
LINE
  8
200
  6
AUSGEZOGEN
 10
 396.7200
 20
 895.0000
 11
 382.2200
 21
 866.4600
  0
LINE
  8
200
  6
AUSGEZOGEN
 10
 385.5000
 20
 859.9900
 11
 400.0000
 21
 888.5300
  0
LINE
  8
200
  6
AUSGEZOGEN
 10
  80.0000
 20
 821.4700
 11
  94.5000
 21
 850.0000
  0
LINE
  8
200
  6
AUSGEZOGEN
 10
 115.5500
 20
 843.5400
 11
 101.0600
 21
 815.0000
  0
LINE
  8
200
  6
AUSGEZOGEN
 10
 115.5500
 20
 821.4700
 11
 130.0500
 21
 850.0000
  0
LINE
  8
200
  6
AUSGEZOGEN
 10
 133.3300
 20
 843.5400
 11
 118.8400
 21
 815.0000
  0
LINE
  8
200
  6
AUSGEZOGEN
 10
 133.3300
 20
 821.4700
 11
 147.8300
 21
 850.0000
  0
LINE
  8
200
  6
AUSGEZOGEN
 10
 151.1100
 20
 843.5400
 11
 136.6200
 21
 815.0000
  0
LINE
  8
200
  6
AUSGEZOGEN
 10
 151.1100
 20
 821.4700
 11
 165.6100
 21
 850.0000
  0
LINE
  8
200
  6
AUSGEZOGEN
 10
 186.6600
 20
 843.5400
 11
 172.1700
 21
 815.0000
  0
LINE
  8
200
  6
AUSGEZOGEN
 10
 186.6600
 20
 821.4700
 11
 201.1600
 21
 850.0000
  0
LINE
  8
200
  6
AUSGEZOGEN
 10
 222.2200
 20
 843.5400
 11
 207.7300
 21
 815.0000
  0
LINE
  8
200
  6
AUSGEZOGEN
 10
 222.2200
 20
 821.4700
 11
 236.7200
 21
 850.0000
  0
LINE
  8
200
  6
AUSGEZOGEN
 10
 112.2700
 20
 895.0000
 11
  97.7800
 21
 866.4600
  0
LINE
  8
200
  6
AUSGEZOGEN
 10
 101.0600
 20
 859.9900
 11
 115.5500
 21
 888.5300
  0
LINE
  8
200
  6
AUSGEZOGEN
 10
 133.3300
 20
 888.5300
 11
 118.8400
 21
 859.9900
  0
LINE
  8
200
  6
AUSGEZOGEN
 10
 136.6200
 20
 859.9900
 11
 151.1100
 21
 888.5300
  0
LINE
  8
200
  6
AUSGEZOGEN
 10
 183.3800
 20
 895.0000
 11
 168.8900
 21
 866.4600
  0
LINE
  8
200
  6
AUSGEZOGEN
 10
 172.1700
 20
 859.9900
 11
 186.6600
 21
 888.5300
  0
LINE
  8
200
  6
AUSGEZOGEN
 10
 218.9400
 20
 895.0000
 11
 204.4500
 21
 866.4600
  0
LINE
  8
200
  6
AUSGEZOGEN
 10
 207.7300
 20
 859.9900
 11
 222.2200
 21
 888.5300
  0
LINE
  8
200
  6
AUSGEZOGEN
 10
 240.0000
 20
 821.4700
 11
 254.5000
 21
 850.0000
  0
LINE
  8
200
  6
AUSGEZOGEN
 10
 275.5500
 20
 843.5400
 11
 261.0600
 21
 815.0000
  0
LINE
  8
200
  6
AUSGEZOGEN
 10
 275.5500
 20
 821.4700
 11
 290.0500
 21
 850.0000
  0
LINE
  8
200
  6
AUSGEZOGEN
 10
 293.3300
 20
 843.5400
 11
 278.8400
 21
 815.0000
  0
LINE
  8
200
  6
AUSGEZOGEN
 10
 293.3300
 20
 821.4700
 11
 307.8300
 21
 850.0000
  0
LINE
  8
200
  6
AUSGEZOGEN
 10
 311.1100
 20
 843.5400
 11
 296.6200
 21
 815.0000
  0
LINE
  8
200
  6
AUSGEZOGEN
 10
 311.1100
 20
 821.4700
 11
 325.6100
 21
 850.0000
  0
LINE
  8
200
  6
AUSGEZOGEN
 10
 346.6600
 20
 843.5400
 11
 332.1700
 21
 815.0000
  0
LINE
  8
200
  6
AUSGEZOGEN
 10
 346.6600
 20
 821.4700
 11
 361.1600
 21
 850.0000
  0
LINE
  8
200
  6
AUSGEZOGEN
 10
 382.2200
 20
 843.5400
 11
 367.7300
 21
 815.0000
  0
LINE
  8
200
  6
AUSGEZOGEN
 10
 382.2200
 20
 821.4700
 11
 396.7200
 21
 850.0000
  0
LINE
  8
200
  6
AUSGEZOGEN
 10
 272.2700
 20
 895.0000
 11
 257.7800
 21
 866.4600
  0
LINE
  8
200
  6
AUSGEZOGEN
 10
 261.0600
 20
 859.9900
 11
 275.5500
 21
 888.5300
  0
LINE
  8
200
  6
AUSGEZOGEN
 10
 293.3300
 20
 888.5300
 11
 278.8400
 21
 859.9900
  0
LINE
  8
200
  6
AUSGEZOGEN
 10
 296.6200
 20
 859.9900
 11
 311.1100
 21
 888.5300
  0
LINE
  8
200
  6
AUSGEZOGEN
 10
 343.3800
 20
 895.0000
 11
 328.8900
 21
 866.4600
  0
LINE
  8
200
  6
AUSGEZOGEN
 10
 332.1700
 20
 859.9900
 11
 346.6600
 21
 888.5300
  0
LINE
  8
200
  6
AUSGEZOGEN
 10
 378.9400
 20
 895.0000
 11
 364.4500
 21
 866.4600
  0
LINE
  8
200
  6
AUSGEZOGEN
 10
 367.7300
 20
 859.9900
 11
 382.2200
 21
 888.5300
  0
LINE
  8
200
  6
AUSGEZOGEN
 10
  97.7800
 20
 821.4700
 11
 112.2700
 21
 850.0000
  0
LINE
  8
200
  6
AUSGEZOGEN
 10
 183.3800
 20
 850.0000
 11
 168.8900
 21
 821.4700
  0
LINE
  8
200
  6
AUSGEZOGEN
 10
 204.4500
 20
 821.4700
 11
 218.9400
 21
 850.0000
  0
LINE
  8
200
  6
AUSGEZOGEN
 10
 272.2700
 20
 850.0000
 11
 257.7800
 21
 821.4700
  0
LINE
  8
200
  6
AUSGEZOGEN
 10
 328.8900
 20
 821.4700
 11
 343.3800
 21
 850.0000
  0
LINE
  8
200
  6
AUSGEZOGEN
 10
 378.9400
 20
 850.0000
 11
 364.4500
 21
 821.4700
  0
LINE
  8
200
  6
AUSGEZOGEN
 10
  97.7800
 20
 843.5400
 11
  97.0800
 21
 848.6400
  0
LINE
  8
200
  6
AUSGEZOGEN
 10
 150.4100
 20
 848.6400
 11
 151.1100
 21
 843.5400
  0
LINE
  8
200
  6
AUSGEZOGEN
 10
 168.8900
 20
 843.5400
 11
 168.1900
 21
 848.6400
  0
LINE
  8
200
  6
AUSGEZOGEN
 10
 203.7500
 20
 848.6400
 11
 204.4500
 21
 843.5400
  0
LINE
  8
200
  6
AUSGEZOGEN
 10
 222.2200
 20
 843.5400
 11
 221.5200
 21
 848.6400
  0
LINE
  8
200
  6
AUSGEZOGEN
 10
 115.5500
 20
 866.4600
 11
 116.2500
 21
 861.3600
  0
LINE
  8
200
  6
AUSGEZOGEN
 10
 134.0300
 20
 861.3600
 11
 133.3300
 21
 866.4600
  0
LINE
  8
200
  6
AUSGEZOGEN
 10
 151.1100
 20
 866.4600
 11
 151.8100
 21
 861.3600
  0
LINE
  8
200
  6
AUSGEZOGEN
 10
 169.5900
 20
 861.3600
 11
 168.8900
 21
 866.4600
  0
LINE
  8
200
  6
AUSGEZOGEN
 10
 186.6600
 20
 866.4600
 11
 187.3600
 21
 861.3600
  0
LINE
  8
200
  6
AUSGEZOGEN
 10
 222.9200
 20
 861.3600
 11
 222.2200
 21
 866.4600
  0
LINE
  8
200
  6
AUSGEZOGEN
 10
 257.7800
 20
 843.5400
 11
 257.0800
 21
 848.6400
  0
LINE
  8
200
  6
AUSGEZOGEN
 10
 310.4100
 20
 848.6400
 11
 311.1100
 21
 843.5400
  0
LINE
  8
200
  6
AUSGEZOGEN
 10
 328.8900
 20
 843.5400
 11
 328.1900
 21
 848.6400
  0
LINE
  8
200
  6
AUSGEZOGEN
 10
 363.7500
 20
 848.6400
 11
 364.4500
 21
 843.5400
  0
LINE
  8
200
  6
AUSGEZOGEN
 10
 382.2200
 20
 843.5400
 11
 381.5200
 21
 848.6400
  0
LINE
  8
200
  6
AUSGEZOGEN
 10
 275.5500
 20
 866.4600
 11
 276.2500
 21
 861.3600
  0
LINE
  8
200
  6
AUSGEZOGEN
 10
 294.0300
 20
 861.3600
 11
 293.3300
 21
 866.4600
  0
LINE
  8
200
  6
AUSGEZOGEN
 10
 311.1100
 20
 866.4600
 11
 311.8100
 21
 861.3600
  0
LINE
  8
200
  6
AUSGEZOGEN
 10
 329.5900
 20
 861.3600
 11
 328.8900
 21
 866.4600
  0
LINE
  8
200
  6
AUSGEZOGEN
 10
 346.6600
 20
 866.4600
 11
 347.3600
 21
 861.3600
  0
LINE
  8
200
  6
AUSGEZOGEN
 10
 382.9200
 20
 861.3600
 11
 382.2200
 21
 866.4600
  0
LINE
  8
200
  6
AUSGEZOGEN
 10
 115.5500
 20
 843.5400
 11
 114.8600
 21
 848.6400
  0
LINE
  8
200
  6
AUSGEZOGEN
 10
 132.6400
 20
 848.6400
 11
 133.3300
 21
 843.5400
  0
LINE
  8
200
  6
AUSGEZOGEN
 10
 186.6600
 20
 843.5400
 11
 185.9700
 21
 848.6400
  0
LINE
  8
200
  6
AUSGEZOGEN
 10
  80.0000
 20
 866.4600
 11
  80.6900
 21
 861.3600
  0
LINE
  8
200
  6
AUSGEZOGEN
 10
  98.4700
 20
 861.3600
 11
  97.7800
 21
 866.4600
  0
LINE
  8
200
  6
AUSGEZOGEN
 10
 204.4500
 20
 866.4600
 11
 205.1400
 21
 861.3600
  0
LINE
  8
200
  6
AUSGEZOGEN
 10
 240.0000
 20
 843.5400
 11
 239.3100
 21
 848.6400
  0
LINE
  8
200
  6
AUSGEZOGEN
 10
 274.8600
 20
 848.6400
 11
 275.5500
 21
 843.5400
  0
LINE
  8
200
  6
AUSGEZOGEN
 10
 293.3300
 20
 843.5400
 11
 292.6400
 21
 848.6400
  0
LINE
  8
200
  6
AUSGEZOGEN
 10
 345.9700
 20
 848.6400
 11
 346.6600
 21
 843.5400
  0
LINE
  8
200
  6
AUSGEZOGEN
 10
 240.0000
 20
 866.4600
 11
 240.6900
 21
 861.3600
  0
LINE
  8
200
  6
AUSGEZOGEN
 10
 258.4700
 20
 861.3600
 11
 257.7800
 21
 866.4600
  0
LINE
  8
200
  6
AUSGEZOGEN
 10
 364.4500
 20
 866.4600
 11
 365.1400
 21
 861.3600
  0
LINE
  8
200
  6
AUSGEZOGEN
 10
 400.0000
 20
 843.5400
 11
 399.3100
 21
 848.6400
  0
LINE
  8
200
  6
AUSGEZOGEN
 10
 116.2500
 20
 816.3800
 11
 115.5500
 21
 821.4700
  0
LINE
  8
200
  6
AUSGEZOGEN
 10
 133.3300
 20
 821.4700
 11
 134.0300
 21
 816.3800
  0
LINE
  8
200
  6
AUSGEZOGEN
 10
 151.8100
 20
 816.3800
 11
 151.1100
 21
 821.4700
  0
LINE
  8
200
  6
AUSGEZOGEN
 10
 168.8900
 20
 821.4700
 11
 169.5900
 21
 816.3800
  0
LINE
  8
200
  6
AUSGEZOGEN
 10
 187.3600
 20
 816.3800
 11
 186.6600
 21
 821.4700
  0
LINE
  8
200
  6
AUSGEZOGEN
 10
 222.2200
 20
 821.4700
 11
 222.9200
 21
 816.3800
  0
LINE
  8
200
  6
AUSGEZOGEN
 10
  97.0800
 20
 893.6200
 11
  97.7800
 21
 888.5300
  0
LINE
  8
200
  6
AUSGEZOGEN
 10
 151.1100
 20
 888.5300
 11
 150.4100
 21
 893.6200
  0
LINE
  8
200
  6
AUSGEZOGEN
 10
 168.1900
 20
 893.6200
 11
 168.8900
 21
 888.5300
  0
LINE
  8
200
  6
AUSGEZOGEN
 10
 204.4500
 20
 888.5300
 11
 203.7500
 21
 893.6200
  0
LINE
  8
200
  6
AUSGEZOGEN
 10
 221.5200
 20
 893.6200
 11
 222.2200
 21
 888.5300
  0
LINE
  8
200
  6
AUSGEZOGEN
 10
 276.2500
 20
 816.3800
 11
 275.5500
 21
 821.4700
  0
LINE
  8
200
  6
AUSGEZOGEN
 10
 293.3300
 20
 821.4700
 11
 294.0300
 21
 816.3800
  0
LINE
  8
200
  6
AUSGEZOGEN
 10
 311.8100
 20
 816.3800
 11
 311.1100
 21
 821.4700
  0
LINE
  8
200
  6
AUSGEZOGEN
 10
 328.8900
 20
 821.4700
 11
 329.5900
 21
 816.3800
  0
LINE
  8
200
  6
AUSGEZOGEN
 10
 347.3600
 20
 816.3800
 11
 346.6600
 21
 821.4700
  0
LINE
  8
200
  6
AUSGEZOGEN
 10
 382.2200
 20
 821.4700
 11
 382.9200
 21
 816.3800
  0
LINE
  8
200
  6
AUSGEZOGEN
 10
 257.0800
 20
 893.6200
 11
 257.7800
 21
 888.5300
  0
LINE
  8
200
  6
AUSGEZOGEN
 10
 311.1100
 20
 888.5300
 11
 310.4100
 21
 893.6200
  0
LINE
  8
200
  6
AUSGEZOGEN
 10
 328.1900
 20
 893.6200
 11
 328.8900
 21
 888.5300
  0
LINE
  8
200
  6
AUSGEZOGEN
 10
 364.4500
 20
 888.5300
 11
 363.7500
 21
 893.6200
  0
LINE
  8
200
  6
AUSGEZOGEN
 10
 381.5200
 20
 893.6200
 11
 382.2200
 21
 888.5300
  0
LINE
  8
200
  6
AUSGEZOGEN
 10
  80.6900
 20
 816.3800
 11
  80.0000
 21
 821.4700
  0
LINE
  8
200
  6
AUSGEZOGEN
 10
  97.7800
 20
 821.4700
 11
  98.4700
 21
 816.3800
  0
LINE
  8
200
  6
AUSGEZOGEN
 10
 205.1400
 20
 816.3800
 11
 204.4500
 21
 821.4700
  0
LINE
  8
200
  6
AUSGEZOGEN
 10
 114.8600
 20
 893.6200
 11
 115.5500
 21
 888.5300
  0
LINE
  8
200
  6
AUSGEZOGEN
 10
 133.3300
 20
 888.5300
 11
 132.6400
 21
 893.6200
  0
LINE
  8
200
  6
AUSGEZOGEN
 10
 185.9700
 20
 893.6200
 11
 186.6600
 21
 888.5300
  0
LINE
  8
200
  6
AUSGEZOGEN
 10
 240.0000
 20
 888.5300
 11
 239.3100
 21
 893.6200
  0
LINE
  8
200
  6
AUSGEZOGEN
 10
 240.6900
 20
 816.3800
 11
 240.0000
 21
 821.4700
  0
LINE
  8
200
  6
AUSGEZOGEN
 10
 257.7800
 20
 821.4700
 11
 258.4700
 21
 816.3800
  0
LINE
  8
200
  6
AUSGEZOGEN
 10
 365.1400
 20
 816.3800
 11
 364.4500
 21
 821.4700
  0
LINE
  8
200
  6
AUSGEZOGEN
 10
 274.8600
 20
 893.6200
 11
 275.5500
 21
 888.5300
  0
LINE
  8
200
  6
AUSGEZOGEN
 10
 293.3300
 20
 888.5300
 11
 292.6400
 21
 893.6200
  0
LINE
  8
200
  6
AUSGEZOGEN
 10
 345.9700
 20
 893.6200
 11
 346.6600
 21
 888.5300
  0
LINE
  8
200
  6
AUSGEZOGEN
 10
 400.0000
 20
 888.5300
 11
 399.3100
 21
 893.6200
  0
LINE
  8
200
  6
AUSGEZOGEN
 10
  80.6900
 20
 816.3800
 11
  83.2800
 21
 815.0000
  0
LINE
  8
200
  6
AUSGEZOGEN
 10
 101.0600
 20
 815.0000
 11
  98.4700
 21
 816.3800
  0
LINE
  8
200
  6
AUSGEZOGEN
 10
 118.8400
 20
 815.0000
 11
 116.2500
 21
 816.3800
  0
LINE
  8
200
  6
AUSGEZOGEN
 10
 136.6200
 20
 815.0000
 11
 134.0300
 21
 816.3800
  0
LINE
  8
200
  6
AUSGEZOGEN
 10
 189.9500
 20
 815.0000
 11
 187.3600
 21
 816.3800
  0
LINE
  8
200
  6
AUSGEZOGEN
 10
 207.7300
 20
 815.0000
 11
 205.1400
 21
 816.3800
  0
LINE
  8
200
  6
AUSGEZOGEN
 10
 112.2700
 20
 895.0000
 11
 114.8600
 21
 893.6200
  0
LINE
  8
200
  6
AUSGEZOGEN
 10
 132.6400
 20
 893.6200
 11
 130.0500
 21
 895.0000
  0
LINE
  8
200
  6
AUSGEZOGEN
 10
 185.9700
 20
 893.6200
 11
 183.3800
 21
 895.0000
  0
LINE
  8
200
  6
AUSGEZOGEN
 10
 203.7500
 20
 893.6200
 11
 201.1600
 21
 895.0000
  0
LINE
  8
200
  6
AUSGEZOGEN
 10
 239.3100
 20
 893.6200
 11
 236.7200
 21
 895.0000
  0
LINE
  8
200
  6
AUSGEZOGEN
 10
 243.2800
 20
 815.0000
 11
 240.6900
 21
 816.3800
  0
LINE
  8
200
  6
AUSGEZOGEN
 10
 261.0600
 20
 815.0000
 11
 258.4700
 21
 816.3800
  0
LINE
  8
200
  6
AUSGEZOGEN
 10
 278.8400
 20
 815.0000
 11
 276.2500
 21
 816.3800
  0
LINE
  8
200
  6
AUSGEZOGEN
 10
 296.6200
 20
 815.0000
 11
 294.0300
 21
 816.3800
  0
LINE
  8
200
  6
AUSGEZOGEN
 10
 349.9500
 20
 815.0000
 11
 347.3600
 21
 816.3800
  0
LINE
  8
200
  6
AUSGEZOGEN
 10
 367.7300
 20
 815.0000
 11
 365.1400
 21
 816.3800
  0
LINE
  8
200
  6
AUSGEZOGEN
 10
 272.2700
 20
 895.0000
 11
 274.8600
 21
 893.6200
  0
LINE
  8
200
  6
AUSGEZOGEN
 10
 292.6400
 20
 893.6200
 11
 290.0500
 21
 895.0000
  0
LINE
  8
200
  6
AUSGEZOGEN
 10
 345.9700
 20
 893.6200
 11
 343.3800
 21
 895.0000
  0
LINE
  8
200
  6
AUSGEZOGEN
 10
 363.7500
 20
 893.6200
 11
 361.1600
 21
 895.0000
  0
LINE
  8
200
  6
AUSGEZOGEN
 10
 399.3100
 20
 893.6200
 11
 396.7200
 21
 895.0000
  0
LINE
  8
200
  6
AUSGEZOGEN
 10
 365.1400
 20
 861.3600
 11
 367.7300
 21
 859.9900
  0
LINE
  8
200
  6
AUSGEZOGEN
 10
 347.3600
 20
 861.3600
 11
 349.9500
 21
 859.9900
  0
LINE
  8
200
  6
AUSGEZOGEN
 10
 294.0300
 20
 861.3600
 11
 296.6200
 21
 859.9900
  0
LINE
  8
200
  6
AUSGEZOGEN
 10
 276.2500
 20
 861.3600
 11
 278.8400
 21
 859.9900
  0
LINE
  8
200
  6
AUSGEZOGEN
 10
 258.4700
 20
 861.3600
 11
 261.0600
 21
 859.9900
  0
LINE
  8
200
  6
AUSGEZOGEN
 10
 240.6900
 20
 861.3600
 11
 243.2800
 21
 859.9900
  0
LINE
  8
200
  6
AUSGEZOGEN
 10
 205.1400
 20
 861.3600
 11
 207.7300
 21
 859.9900
  0
LINE
  8
200
  6
AUSGEZOGEN
 10
 187.3600
 20
 861.3600
 11
 189.9500
 21
 859.9900
  0
LINE
  8
200
  6
AUSGEZOGEN
 10
 134.0300
 20
 861.3600
 11
 136.6200
 21
 859.9900
  0
LINE
  8
200
  6
AUSGEZOGEN
 10
 116.2500
 20
 861.3600
 11
 118.8400
 21
 859.9900
  0
LINE
  8
200
  6
AUSGEZOGEN
 10
  98.4700
 20
 861.3600
 11
 101.0600
 21
 859.9900
  0
LINE
  8
200
  6
AUSGEZOGEN
 10
  80.6900
 20
 861.3600
 11
  83.2800
 21
 859.9900
  0
LINE
  8
200
  6
AUSGEZOGEN
 10
  97.0800
 20
 848.6400
 11
  94.5000
 21
 850.0000
  0
LINE
  8
200
  6
AUSGEZOGEN
 10
 114.8600
 20
 848.6400
 11
 112.2700
 21
 850.0000
  0
LINE
  8
200
  6
AUSGEZOGEN
 10
 132.6400
 20
 848.6400
 11
 130.0500
 21
 850.0000
  0
LINE
  8
200
  6
AUSGEZOGEN
 10
 150.4100
 20
 848.6400
 11
 147.8300
 21
 850.0000
  0
LINE
  8
200
  6
AUSGEZOGEN
 10
 168.1900
 20
 848.6400
 11
 165.6100
 21
 850.0000
  0
LINE
  8
200
  6
AUSGEZOGEN
 10
 151.8100
 20
 816.3800
 11
 154.3900
 21
 815.0000
  0
LINE
  8
200
  6
AUSGEZOGEN
 10
 185.9700
 20
 848.6400
 11
 183.3800
 21
 850.0000
  0
LINE
  8
200
  6
AUSGEZOGEN
 10
 169.5900
 20
 816.3800
 11
 172.1700
 21
 815.0000
  0
LINE
  8
200
  6
AUSGEZOGEN
 10
 203.7500
 20
 848.6400
 11
 201.1600
 21
 850.0000
  0
LINE
  8
200
  6
AUSGEZOGEN
 10
 221.5200
 20
 848.6400
 11
 218.9400
 21
 850.0000
  0
LINE
  8
200
  6
AUSGEZOGEN
 10
 239.3100
 20
 848.6400
 11
 236.7200
 21
 850.0000
  0
LINE
  8
200
  6
AUSGEZOGEN
 10
 222.9200
 20
 816.3800
 11
 225.5000
 21
 815.0000
  0
LINE
  8
200
  6
AUSGEZOGEN
 10
  94.5000
 20
 895.0000
 11
  97.0800
 21
 893.6200
  0
LINE
  8
200
  6
AUSGEZOGEN
 10
 150.4100
 20
 893.6200
 11
 147.8300
 21
 895.0000
  0
LINE
  8
200
  6
AUSGEZOGEN
 10
 168.1900
 20
 893.6200
 11
 165.6100
 21
 895.0000
  0
LINE
  8
200
  6
AUSGEZOGEN
 10
 151.8100
 20
 861.3600
 11
 154.3900
 21
 859.9900
  0
LINE
  8
200
  6
AUSGEZOGEN
 10
 172.1700
 20
 859.9900
 11
 169.5900
 21
 861.3600
  0
LINE
  8
200
  6
AUSGEZOGEN
 10
 221.5200
 20
 893.6200
 11
 218.9400
 21
 895.0000
  0
LINE
  8
200
  6
AUSGEZOGEN
 10
 225.5000
 20
 859.9900
 11
 222.9200
 21
 861.3600
  0
LINE
  8
200
  6
AUSGEZOGEN
 10
 257.0800
 20
 848.6400
 11
 254.5000
 21
 850.0000
  0
LINE
  8
200
  6
AUSGEZOGEN
 10
 274.8600
 20
 848.6400
 11
 272.2700
 21
 850.0000
  0
LINE
  8
200
  6
AUSGEZOGEN
 10
 292.6400
 20
 848.6400
 11
 290.0500
 21
 850.0000
  0
LINE
  8
200
  6
AUSGEZOGEN
 10
 310.4100
 20
 848.6400
 11
 307.8300
 21
 850.0000
  0
LINE
  8
200
  6
AUSGEZOGEN
 10
 328.1900
 20
 848.6400
 11
 325.6100
 21
 850.0000
  0
LINE
  8
200
  6
AUSGEZOGEN
 10
 311.8100
 20
 816.3800
 11
 314.3900
 21
 815.0000
  0
LINE
  8
200
  6
AUSGEZOGEN
 10
 345.9700
 20
 848.6400
 11
 343.3800
 21
 850.0000
  0
LINE
  8
200
  6
AUSGEZOGEN
 10
 329.5900
 20
 816.3800
 11
 332.1700
 21
 815.0000
  0
LINE
  8
200
  6
AUSGEZOGEN
 10
 363.7500
 20
 848.6400
 11
 361.1600
 21
 850.0000
  0
LINE
  8
200
  6
AUSGEZOGEN
 10
 381.5200
 20
 848.6400
 11
 378.9400
 21
 850.0000
  0
LINE
  8
200
  6
AUSGEZOGEN
 10
 399.3100
 20
 848.6400
 11
 396.7200
 21
 850.0000
  0
LINE
  8
200
  6
AUSGEZOGEN
 10
 382.9200
 20
 816.3800
 11
 385.5000
 21
 815.0000
  0
LINE
  8
200
  6
AUSGEZOGEN
 10
 254.5000
 20
 895.0000
 11
 257.0800
 21
 893.6200
  0
LINE
  8
200
  6
AUSGEZOGEN
 10
 310.4100
 20
 893.6200
 11
 307.8300
 21
 895.0000
  0
LINE
  8
200
  6
AUSGEZOGEN
 10
 328.1900
 20
 893.6200
 11
 325.6100
 21
 895.0000
  0
LINE
  8
200
  6
AUSGEZOGEN
 10
 311.8100
 20
 861.3600
 11
 314.3900
 21
 859.9900
  0
LINE
  8
200
  6
AUSGEZOGEN
 10
 332.1700
 20
 859.9900
 11
 329.5900
 21
 861.3600
  0
LINE
  8
200
  6
AUSGEZOGEN
 10
 381.5200
 20
 893.6200
 11
 378.9400
 21
 895.0000
  0
LINE
  8
200
  6
AUSGEZOGEN
 10
 385.5000
 20
 859.9900
 11
 382.9200
 21
 861.3600
  0
LINE
  8
200
  6
AUSGEZOGEN
 10
 413.2800
 20
 815.0000
 11
 427.7800
 21
 843.5400
  0
LINE
  8
200
  6
AUSGEZOGEN
 10
 498.8900
 20
 843.5400
 11
 484.3900
 21
 815.0000
  0
LINE
  8
200
  6
AUSGEZOGEN
 10
 519.9500
 20
 815.0000
 11
 534.4500
 21
 843.5400
  0
LINE
  8
200
  6
AUSGEZOGEN
 10
 570.0000
 20
 843.5400
 11
 555.5000
 21
 815.0000
  0
LINE
  8
200
  6
AUSGEZOGEN
 10
 424.5000
 20
 895.0000
 11
 410.0000
 21
 866.4600
  0
LINE
  8
200
  6
AUSGEZOGEN
 10
 413.2800
 20
 859.9900
 11
 427.7800
 21
 888.5300
  0
LINE
  8
200
  6
AUSGEZOGEN
 10
 460.0500
 20
 895.0000
 11
 445.5500
 21
 866.4600
  0
LINE
  8
200
  6
AUSGEZOGEN
 10
 463.3300
 20
 866.4600
 11
 477.8300
 21
 895.0000
  0
LINE
  8
200
  6
AUSGEZOGEN
 10
 495.6100
 20
 895.0000
 11
 481.1100
 21
 866.4600
  0
LINE
  8
200
  6
AUSGEZOGEN
 10
 484.3900
 20
 859.9900
 11
 498.8900
 21
 888.5300
  0
LINE
  8
200
  6
AUSGEZOGEN
 10
 531.1600
 20
 895.0000
 11
 516.6600
 21
 866.4600
  0
LINE
  8
200
  6
AUSGEZOGEN
 10
 519.9500
 20
 859.9900
 11
 534.4500
 21
 888.5300
  0
LINE
  8
200
  6
AUSGEZOGEN
 10
 566.7200
 20
 895.0000
 11
 552.2200
 21
 866.4600
  0
LINE
  8
200
  6
AUSGEZOGEN
 10
 555.5000
 20
 859.9900
 11
 570.0000
 21
 888.5300
  0
LINE
  8
200
  6
AUSGEZOGEN
 10
 573.2800
 20
 815.0000
 11
 587.7800
 21
 843.5400
  0
LINE
  8
200
  6
AUSGEZOGEN
 10
 658.8900
 20
 843.5400
 11
 644.3900
 21
 815.0000
  0
LINE
  8
200
  6
AUSGEZOGEN
 10
 679.9500
 20
 815.0000
 11
 694.4500
 21
 843.5400
  0
LINE
  8
200
  6
AUSGEZOGEN
 10
 730.0000
 20
 843.5400
 11
 715.5000
 21
 815.0000
  0
LINE
  8
200
  6
AUSGEZOGEN
 10
 584.5000
 20
 895.0000
 11
 570.0000
 21
 866.4600
  0
LINE
  8
200
  6
AUSGEZOGEN
 10
 573.2800
 20
 859.9900
 11
 587.7800
 21
 888.5300
  0
LINE
  8
200
  6
AUSGEZOGEN
 10
 620.0500
 20
 895.0000
 11
 605.5500
 21
 866.4600
  0
LINE
  8
200
  6
AUSGEZOGEN
 10
 623.3300
 20
 866.4600
 11
 637.8300
 21
 895.0000
  0
LINE
  8
200
  6
AUSGEZOGEN
 10
 655.6100
 20
 895.0000
 11
 641.1100
 21
 866.4600
  0
LINE
  8
200
  6
AUSGEZOGEN
 10
 644.3900
 20
 859.9900
 11
 658.8900
 21
 888.5300
  0
LINE
  8
200
  6
AUSGEZOGEN
 10
 691.1600
 20
 895.0000
 11
 676.6600
 21
 866.4600
  0
LINE
  8
200
  6
AUSGEZOGEN
 10
 679.9500
 20
 859.9900
 11
 694.4500
 21
 888.5300
  0
LINE
  8
200
  6
AUSGEZOGEN
 10
 726.7200
 20
 895.0000
 11
 712.2200
 21
 866.4600
  0
LINE
  8
200
  6
AUSGEZOGEN
 10
 715.5000
 20
 859.9900
 11
 730.0000
 21
 888.5300
  0
LINE
  8
200
  6
AUSGEZOGEN
 10
 410.0000
 20
 821.4700
 11
 424.5000
 21
 850.0000
  0
LINE
  8
200
  6
AUSGEZOGEN
 10
 445.5500
 20
 843.5400
 11
 431.0600
 21
 815.0000
  0
LINE
  8
200
  6
AUSGEZOGEN
 10
 445.5500
 20
 821.4700
 11
 460.0500
 21
 850.0000
  0
LINE
  8
200
  6
AUSGEZOGEN
 10
 463.3300
 20
 843.5400
 11
 448.8400
 21
 815.0000
  0
LINE
  8
200
  6
AUSGEZOGEN
 10
 463.3300
 20
 821.4700
 11
 477.8300
 21
 850.0000
  0
LINE
  8
200
  6
AUSGEZOGEN
 10
 481.1100
 20
 843.5400
 11
 466.6200
 21
 815.0000
  0
LINE
  8
200
  6
AUSGEZOGEN
 10
 481.1100
 20
 821.4700
 11
 495.6100
 21
 850.0000
  0
LINE
  8
200
  6
AUSGEZOGEN
 10
 516.6600
 20
 843.5400
 11
 502.1700
 21
 815.0000
  0
LINE
  8
200
  6
AUSGEZOGEN
 10
 516.6600
 20
 821.4700
 11
 531.1600
 21
 850.0000
  0
LINE
  8
200
  6
AUSGEZOGEN
 10
 552.2200
 20
 843.5400
 11
 537.7300
 21
 815.0000
  0
LINE
  8
200
  6
AUSGEZOGEN
 10
 552.2200
 20
 821.4700
 11
 566.7200
 21
 850.0000
  0
LINE
  8
200
  6
AUSGEZOGEN
 10
 442.2700
 20
 895.0000
 11
 427.7800
 21
 866.4600
  0
LINE
  8
200
  6
AUSGEZOGEN
 10
 431.0600
 20
 859.9900
 11
 445.5500
 21
 888.5300
  0
LINE
  8
200
  6
AUSGEZOGEN
 10
 463.3300
 20
 888.5300
 11
 448.8400
 21
 859.9900
  0
LINE
  8
200
  6
AUSGEZOGEN
 10
 466.6200
 20
 859.9900
 11
 481.1100
 21
 888.5300
  0
LINE
  8
200
  6
AUSGEZOGEN
 10
 513.3800
 20
 895.0000
 11
 498.8900
 21
 866.4600
  0
LINE
  8
200
  6
AUSGEZOGEN
 10
 502.1700
 20
 859.9900
 11
 516.6600
 21
 888.5300
  0
LINE
  8
200
  6
AUSGEZOGEN
 10
 548.9400
 20
 895.0000
 11
 534.4500
 21
 866.4600
  0
LINE
  8
200
  6
AUSGEZOGEN
 10
 537.7300
 20
 859.9900
 11
 552.2200
 21
 888.5300
  0
LINE
  8
200
  6
AUSGEZOGEN
 10
 570.0000
 20
 821.4700
 11
 584.5000
 21
 850.0000
  0
LINE
  8
200
  6
AUSGEZOGEN
 10
 605.5500
 20
 843.5400
 11
 591.0600
 21
 815.0000
  0
LINE
  8
200
  6
AUSGEZOGEN
 10
 605.5500
 20
 821.4700
 11
 620.0500
 21
 850.0000
  0
LINE
  8
200
  6
AUSGEZOGEN
 10
 623.3300
 20
 843.5400
 11
 608.8400
 21
 815.0000
  0
LINE
  8
200
  6
AUSGEZOGEN
 10
 623.3300
 20
 821.4700
 11
 637.8300
 21
 850.0000
  0
LINE
  8
200
  6
AUSGEZOGEN
 10
 641.1100
 20
 843.5400
 11
 626.6200
 21
 815.0000
  0
LINE
  8
200
  6
AUSGEZOGEN
 10
 641.1100
 20
 821.4700
 11
 655.6100
 21
 850.0000
  0
LINE
  8
200
  6
AUSGEZOGEN
 10
 676.6600
 20
 843.5400
 11
 662.1700
 21
 815.0000
  0
LINE
  8
200
  6
AUSGEZOGEN
 10
 676.6600
 20
 821.4700
 11
 691.1600
 21
 850.0000
  0
LINE
  8
200
  6
AUSGEZOGEN
 10
 712.2200
 20
 843.5400
 11
 697.7300
 21
 815.0000
  0
LINE
  8
200
  6
AUSGEZOGEN
 10
 712.2200
 20
 821.4700
 11
 726.7200
 21
 850.0000
  0
LINE
  8
200
  6
AUSGEZOGEN
 10
 602.2700
 20
 895.0000
 11
 587.7800
 21
 866.4600
  0
LINE
  8
200
  6
AUSGEZOGEN
 10
 591.0600
 20
 859.9900
 11
 605.5500
 21
 888.5300
  0
LINE
  8
200
  6
AUSGEZOGEN
 10
 623.3300
 20
 888.5300
 11
 608.8400
 21
 859.9900
  0
LINE
  8
200
  6
AUSGEZOGEN
 10
 626.6200
 20
 859.9900
 11
 641.1100
 21
 888.5300
  0
LINE
  8
200
  6
AUSGEZOGEN
 10
 673.3800
 20
 895.0000
 11
 658.8900
 21
 866.4600
  0
LINE
  8
200
  6
AUSGEZOGEN
 10
 662.1700
 20
 859.9900
 11
 676.6600
 21
 888.5300
  0
LINE
  8
200
  6
AUSGEZOGEN
 10
 708.9400
 20
 895.0000
 11
 694.4500
 21
 866.4600
  0
LINE
  8
200
  6
AUSGEZOGEN
 10
 697.7300
 20
 859.9900
 11
 712.2200
 21
 888.5300
  0
LINE
  8
200
  6
AUSGEZOGEN
 10
 427.7800
 20
 821.4700
 11
 442.2700
 21
 850.0000
  0
LINE
  8
200
  6
AUSGEZOGEN
 10
 513.3800
 20
 850.0000
 11
 498.8900
 21
 821.4700
  0
LINE
  8
200
  6
AUSGEZOGEN
 10
 534.4500
 20
 821.4700
 11
 548.9400
 21
 850.0000
  0
LINE
  8
200
  6
AUSGEZOGEN
 10
 602.2700
 20
 850.0000
 11
 587.7800
 21
 821.4700
  0
LINE
  8
200
  6
AUSGEZOGEN
 10
 658.8900
 20
 821.4700
 11
 673.3800
 21
 850.0000
  0
LINE
  8
200
  6
AUSGEZOGEN
 10
 708.9400
 20
 850.0000
 11
 694.4500
 21
 821.4700
  0
LINE
  8
200
  6
AUSGEZOGEN
 10
 427.7800
 20
 843.5400
 11
 427.0800
 21
 848.6400
  0
LINE
  8
200
  6
AUSGEZOGEN
 10
 480.4100
 20
 848.6400
 11
 481.1100
 21
 843.5400
  0
LINE
  8
200
  6
AUSGEZOGEN
 10
 498.8900
 20
 843.5400
 11
 498.1900
 21
 848.6400
  0
LINE
  8
200
  6
AUSGEZOGEN
 10
 533.7500
 20
 848.6400
 11
 534.4500
 21
 843.5400
  0
LINE
  8
200
  6
AUSGEZOGEN
 10
 552.2200
 20
 843.5400
 11
 551.5200
 21
 848.6400
  0
LINE
  8
200
  6
AUSGEZOGEN
 10
 445.5500
 20
 866.4600
 11
 446.2500
 21
 861.3600
  0
LINE
  8
200
  6
AUSGEZOGEN
 10
 464.0300
 20
 861.3600
 11
 463.3300
 21
 866.4600
  0
LINE
  8
200
  6
AUSGEZOGEN
 10
 481.1100
 20
 866.4600
 11
 481.8100
 21
 861.3600
  0
LINE
  8
200
  6
AUSGEZOGEN
 10
 499.5900
 20
 861.3600
 11
 498.8900
 21
 866.4600
  0
LINE
  8
200
  6
AUSGEZOGEN
 10
 516.6600
 20
 866.4600
 11
 517.3600
 21
 861.3600
  0
LINE
  8
200
  6
AUSGEZOGEN
 10
 552.9200
 20
 861.3600
 11
 552.2200
 21
 866.4600
  0
LINE
  8
200
  6
AUSGEZOGEN
 10
 587.7800
 20
 843.5400
 11
 587.0800
 21
 848.6400
  0
LINE
  8
200
  6
AUSGEZOGEN
 10
 640.4100
 20
 848.6400
 11
 641.1100
 21
 843.5400
  0
LINE
  8
200
  6
AUSGEZOGEN
 10
 658.8900
 20
 843.5400
 11
 658.1900
 21
 848.6400
  0
LINE
  8
200
  6
AUSGEZOGEN
 10
 693.7500
 20
 848.6400
 11
 694.4500
 21
 843.5400
  0
LINE
  8
200
  6
AUSGEZOGEN
 10
 712.2200
 20
 843.5400
 11
 711.5200
 21
 848.6400
  0
LINE
  8
200
  6
AUSGEZOGEN
 10
 605.5500
 20
 866.4600
 11
 606.2500
 21
 861.3600
  0
LINE
  8
200
  6
AUSGEZOGEN
 10
 624.0300
 20
 861.3600
 11
 623.3300
 21
 866.4600
  0
LINE
  8
200
  6
AUSGEZOGEN
 10
 641.1100
 20
 866.4600
 11
 641.8100
 21
 861.3600
  0
LINE
  8
200
  6
AUSGEZOGEN
 10
 659.5900
 20
 861.3600
 11
 658.8900
 21
 866.4600
  0
LINE
  8
200
  6
AUSGEZOGEN
 10
 676.6600
 20
 866.4600
 11
 677.3600
 21
 861.3600
  0
LINE
  8
200
  6
AUSGEZOGEN
 10
 712.9200
 20
 861.3600
 11
 712.2200
 21
 866.4600
  0
LINE
  8
200
  6
AUSGEZOGEN
 10
 445.5500
 20
 843.5400
 11
 444.8600
 21
 848.6400
  0
LINE
  8
200
  6
AUSGEZOGEN
 10
 462.6400
 20
 848.6400
 11
 463.3300
 21
 843.5400
  0
LINE
  8
200
  6
AUSGEZOGEN
 10
 516.6600
 20
 843.5400
 11
 515.9700
 21
 848.6400
  0
LINE
  8
200
  6
AUSGEZOGEN
 10
 410.0000
 20
 866.4600
 11
 410.6900
 21
 861.3600
  0
LINE
  8
200
  6
AUSGEZOGEN
 10
 428.4700
 20
 861.3600
 11
 427.7800
 21
 866.4600
  0
LINE
  8
200
  6
AUSGEZOGEN
 10
 534.4500
 20
 866.4600
 11
 535.1400
 21
 861.3600
  0
LINE
  8
200
  6
AUSGEZOGEN
 10
 570.0000
 20
 843.5400
 11
 569.3100
 21
 848.6400
  0
LINE
  8
200
  6
AUSGEZOGEN
 10
 604.8600
 20
 848.6400
 11
 605.5500
 21
 843.5400
  0
LINE
  8
200
  6
AUSGEZOGEN
 10
 623.3300
 20
 843.5400
 11
 622.6400
 21
 848.6400
  0
LINE
  8
200
  6
AUSGEZOGEN
 10
 675.9700
 20
 848.6400
 11
 676.6600
 21
 843.5400
  0
LINE
  8
200
  6
AUSGEZOGEN
 10
 570.0000
 20
 866.4600
 11
 570.6900
 21
 861.3600
  0
LINE
  8
200
  6
AUSGEZOGEN
 10
 588.4700
 20
 861.3600
 11
 587.7800
 21
 866.4600
  0
LINE
  8
200
  6
AUSGEZOGEN
 10
 694.4500
 20
 866.4600
 11
 695.1400
 21
 861.3600
  0
LINE
  8
200
  6
AUSGEZOGEN
 10
 730.0000
 20
 843.5400
 11
 729.3100
 21
 848.6400
  0
LINE
  8
200
  6
AUSGEZOGEN
 10
 446.2500
 20
 816.3800
 11
 445.5500
 21
 821.4700
  0
LINE
  8
200
  6
AUSGEZOGEN
 10
 463.3300
 20
 821.4700
 11
 464.0300
 21
 816.3800
  0
LINE
  8
200
  6
AUSGEZOGEN
 10
 481.8100
 20
 816.3800
 11
 481.1100
 21
 821.4700
  0
LINE
  8
200
  6
AUSGEZOGEN
 10
 498.8900
 20
 821.4700
 11
 499.5900
 21
 816.3800
  0
LINE
  8
200
  6
AUSGEZOGEN
 10
 517.3600
 20
 816.3800
 11
 516.6600
 21
 821.4700
  0
LINE
  8
200
  6
AUSGEZOGEN
 10
 552.2200
 20
 821.4700
 11
 552.9200
 21
 816.3800
  0
LINE
  8
200
  6
AUSGEZOGEN
 10
 427.0800
 20
 893.6200
 11
 427.7800
 21
 888.5300
  0
LINE
  8
200
  6
AUSGEZOGEN
 10
 481.1100
 20
 888.5300
 11
 480.4100
 21
 893.6200
  0
LINE
  8
200
  6
AUSGEZOGEN
 10
 498.1900
 20
 893.6200
 11
 498.8900
 21
 888.5300
  0
LINE
  8
200
  6
AUSGEZOGEN
 10
 534.4500
 20
 888.5300
 11
 533.7500
 21
 893.6200
  0
LINE
  8
200
  6
AUSGEZOGEN
 10
 551.5200
 20
 893.6200
 11
 552.2200
 21
 888.5300
  0
LINE
  8
200
  6
AUSGEZOGEN
 10
 606.2500
 20
 816.3800
 11
 605.5500
 21
 821.4700
  0
LINE
  8
200
  6
AUSGEZOGEN
 10
 623.3300
 20
 821.4700
 11
 624.0300
 21
 816.3800
  0
LINE
  8
200
  6
AUSGEZOGEN
 10
 641.8100
 20
 816.3800
 11
 641.1100
 21
 821.4700
  0
LINE
  8
200
  6
AUSGEZOGEN
 10
 658.8900
 20
 821.4700
 11
 659.5900
 21
 816.3800
  0
LINE
  8
200
  6
AUSGEZOGEN
 10
 677.3600
 20
 816.3800
 11
 676.6600
 21
 821.4700
  0
LINE
  8
200
  6
AUSGEZOGEN
 10
 712.2200
 20
 821.4700
 11
 712.9200
 21
 816.3800
  0
LINE
  8
200
  6
AUSGEZOGEN
 10
 587.0800
 20
 893.6200
 11
 587.7800
 21
 888.5300
  0
LINE
  8
200
  6
AUSGEZOGEN
 10
 641.1100
 20
 888.5300
 11
 640.4100
 21
 893.6200
  0
LINE
  8
200
  6
AUSGEZOGEN
 10
 658.1900
 20
 893.6200
 11
 658.8900
 21
 888.5300
  0
LINE
  8
200
  6
AUSGEZOGEN
 10
 694.4500
 20
 888.5300
 11
 693.7500
 21
 893.6200
  0
LINE
  8
200
  6
AUSGEZOGEN
 10
 711.5200
 20
 893.6200
 11
 712.2200
 21
 888.5300
  0
LINE
  8
200
  6
AUSGEZOGEN
 10
 410.6900
 20
 816.3800
 11
 410.0000
 21
 821.4700
  0
LINE
  8
200
  6
AUSGEZOGEN
 10
 427.7800
 20
 821.4700
 11
 428.4700
 21
 816.3800
  0
LINE
  8
200
  6
AUSGEZOGEN
 10
 535.1400
 20
 816.3800
 11
 534.4500
 21
 821.4700
  0
LINE
  8
200
  6
AUSGEZOGEN
 10
 444.8600
 20
 893.6200
 11
 445.5500
 21
 888.5300
  0
LINE
  8
200
  6
AUSGEZOGEN
 10
 463.3300
 20
 888.5300
 11
 462.6400
 21
 893.6200
  0
LINE
  8
200
  6
AUSGEZOGEN
 10
 515.9700
 20
 893.6200
 11
 516.6600
 21
 888.5300
  0
LINE
  8
200
  6
AUSGEZOGEN
 10
 570.0000
 20
 888.5300
 11
 569.3100
 21
 893.6200
  0
LINE
  8
200
  6
AUSGEZOGEN
 10
 570.6900
 20
 816.3800
 11
 570.0000
 21
 821.4700
  0
LINE
  8
200
  6
AUSGEZOGEN
 10
 587.7800
 20
 821.4700
 11
 588.4700
 21
 816.3800
  0
LINE
  8
200
  6
AUSGEZOGEN
 10
 695.1400
 20
 816.3800
 11
 694.4500
 21
 821.4700
  0
LINE
  8
200
  6
AUSGEZOGEN
 10
 604.8600
 20
 893.6200
 11
 605.5500
 21
 888.5300
  0
LINE
  8
200
  6
AUSGEZOGEN
 10
 623.3300
 20
 888.5300
 11
 622.6400
 21
 893.6200
  0
LINE
  8
200
  6
AUSGEZOGEN
 10
 675.9700
 20
 893.6200
 11
 676.6600
 21
 888.5300
  0
LINE
  8
200
  6
AUSGEZOGEN
 10
 730.0000
 20
 888.5300
 11
 729.3100
 21
 893.6200
  0
LINE
  8
200
  6
AUSGEZOGEN
 10
 410.6900
 20
 816.3800
 11
 413.2800
 21
 815.0000
  0
LINE
  8
200
  6
AUSGEZOGEN
 10
 431.0600
 20
 815.0000
 11
 428.4700
 21
 816.3800
  0
LINE
  8
200
  6
AUSGEZOGEN
 10
 448.8400
 20
 815.0000
 11
 446.2500
 21
 816.3800
  0
LINE
  8
200
  6
AUSGEZOGEN
 10
 466.6200
 20
 815.0000
 11
 464.0300
 21
 816.3800
  0
LINE
  8
200
  6
AUSGEZOGEN
 10
 519.9500
 20
 815.0000
 11
 517.3600
 21
 816.3800
  0
LINE
  8
200
  6
AUSGEZOGEN
 10
 537.7300
 20
 815.0000
 11
 535.1400
 21
 816.3800
  0
LINE
  8
200
  6
AUSGEZOGEN
 10
 442.2700
 20
 895.0000
 11
 444.8600
 21
 893.6200
  0
LINE
  8
200
  6
AUSGEZOGEN
 10
 462.6400
 20
 893.6200
 11
 460.0500
 21
 895.0000
  0
LINE
  8
200
  6
AUSGEZOGEN
 10
 515.9700
 20
 893.6200
 11
 513.3800
 21
 895.0000
  0
LINE
  8
200
  6
AUSGEZOGEN
 10
 533.7500
 20
 893.6200
 11
 531.1600
 21
 895.0000
  0
LINE
  8
200
  6
AUSGEZOGEN
 10
 569.3100
 20
 893.6200
 11
 566.7200
 21
 895.0000
  0
LINE
  8
200
  6
AUSGEZOGEN
 10
 573.2800
 20
 815.0000
 11
 570.6900
 21
 816.3800
  0
LINE
  8
200
  6
AUSGEZOGEN
 10
 591.0600
 20
 815.0000
 11
 588.4700
 21
 816.3800
  0
LINE
  8
200
  6
AUSGEZOGEN
 10
 608.8400
 20
 815.0000
 11
 606.2500
 21
 816.3800
  0
LINE
  8
200
  6
AUSGEZOGEN
 10
 626.6200
 20
 815.0000
 11
 624.0300
 21
 816.3800
  0
LINE
  8
200
  6
AUSGEZOGEN
 10
 679.9500
 20
 815.0000
 11
 677.3600
 21
 816.3800
  0
LINE
  8
200
  6
AUSGEZOGEN
 10
 697.7300
 20
 815.0000
 11
 695.1400
 21
 816.3800
  0
LINE
  8
200
  6
AUSGEZOGEN
 10
 602.2700
 20
 895.0000
 11
 604.8600
 21
 893.6200
  0
LINE
  8
200
  6
AUSGEZOGEN
 10
 622.6400
 20
 893.6200
 11
 620.0500
 21
 895.0000
  0
LINE
  8
200
  6
AUSGEZOGEN
 10
 675.9700
 20
 893.6200
 11
 673.3800
 21
 895.0000
  0
LINE
  8
200
  6
AUSGEZOGEN
 10
 693.7500
 20
 893.6200
 11
 691.1600
 21
 895.0000
  0
LINE
  8
200
  6
AUSGEZOGEN
 10
 729.3100
 20
 893.6200
 11
 726.7200
 21
 895.0000
  0
LINE
  8
200
  6
AUSGEZOGEN
 10
 695.1400
 20
 861.3600
 11
 697.7300
 21
 859.9900
  0
LINE
  8
200
  6
AUSGEZOGEN
 10
 677.3600
 20
 861.3600
 11
 679.9500
 21
 859.9900
  0
LINE
  8
200
  6
AUSGEZOGEN
 10
 624.0300
 20
 861.3600
 11
 626.6200
 21
 859.9900
  0
LINE
  8
200
  6
AUSGEZOGEN
 10
 606.2500
 20
 861.3600
 11
 608.8400
 21
 859.9900
  0
LINE
  8
200
  6
AUSGEZOGEN
 10
 588.4700
 20
 861.3600
 11
 591.0600
 21
 859.9900
  0
LINE
  8
200
  6
AUSGEZOGEN
 10
 570.6900
 20
 861.3600
 11
 573.2800
 21
 859.9900
  0
LINE
  8
200
  6
AUSGEZOGEN
 10
 535.1400
 20
 861.3600
 11
 537.7300
 21
 859.9900
  0
LINE
  8
200
  6
AUSGEZOGEN
 10
 517.3600
 20
 861.3600
 11
 519.9500
 21
 859.9900
  0
LINE
  8
200
  6
AUSGEZOGEN
 10
 464.0300
 20
 861.3600
 11
 466.6200
 21
 859.9900
  0
LINE
  8
200
  6
AUSGEZOGEN
 10
 446.2500
 20
 861.3600
 11
 448.8400
 21
 859.9900
  0
LINE
  8
200
  6
AUSGEZOGEN
 10
 428.4700
 20
 861.3600
 11
 431.0600
 21
 859.9900
  0
LINE
  8
200
  6
AUSGEZOGEN
 10
 410.6900
 20
 861.3600
 11
 413.2800
 21
 859.9900
  0
LINE
  8
200
  6
AUSGEZOGEN
 10
 427.0800
 20
 848.6400
 11
 424.5000
 21
 850.0000
  0
LINE
  8
200
  6
AUSGEZOGEN
 10
 444.8600
 20
 848.6400
 11
 442.2700
 21
 850.0000
  0
LINE
  8
200
  6
AUSGEZOGEN
 10
 462.6400
 20
 848.6400
 11
 460.0500
 21
 850.0000
  0
LINE
  8
200
  6
AUSGEZOGEN
 10
 480.4100
 20
 848.6400
 11
 477.8300
 21
 850.0000
  0
LINE
  8
200
  6
AUSGEZOGEN
 10
 498.1900
 20
 848.6400
 11
 495.6100
 21
 850.0000
  0
LINE
  8
200
  6
AUSGEZOGEN
 10
 481.8100
 20
 816.3800
 11
 484.3900
 21
 815.0000
  0
LINE
  8
200
  6
AUSGEZOGEN
 10
 515.9700
 20
 848.6400
 11
 513.3800
 21
 850.0000
  0
LINE
  8
200
  6
AUSGEZOGEN
 10
 499.5900
 20
 816.3800
 11
 502.1700
 21
 815.0000
  0
LINE
  8
200
  6
AUSGEZOGEN
 10
 533.7500
 20
 848.6400
 11
 531.1600
 21
 850.0000
  0
LINE
  8
200
  6
AUSGEZOGEN
 10
 551.5200
 20
 848.6400
 11
 548.9400
 21
 850.0000
  0
LINE
  8
200
  6
AUSGEZOGEN
 10
 569.3100
 20
 848.6400
 11
 566.7200
 21
 850.0000
  0
LINE
  8
200
  6
AUSGEZOGEN
 10
 552.9200
 20
 816.3800
 11
 555.5000
 21
 815.0000
  0
LINE
  8
200
  6
AUSGEZOGEN
 10
 424.5000
 20
 895.0000
 11
 427.0800
 21
 893.6200
  0
LINE
  8
200
  6
AUSGEZOGEN
 10
 480.4100
 20
 893.6200
 11
 477.8300
 21
 895.0000
  0
LINE
  8
200
  6
AUSGEZOGEN
 10
 498.1900
 20
 893.6200
 11
 495.6100
 21
 895.0000
  0
LINE
  8
200
  6
AUSGEZOGEN
 10
 481.8100
 20
 861.3600
 11
 484.3900
 21
 859.9900
  0
LINE
  8
200
  6
AUSGEZOGEN
 10
 502.1700
 20
 859.9900
 11
 499.5900
 21
 861.3600
  0
LINE
  8
200
  6
AUSGEZOGEN
 10
 551.5200
 20
 893.6200
 11
 548.9400
 21
 895.0000
  0
LINE
  8
200
  6
AUSGEZOGEN
 10
 555.5000
 20
 859.9900
 11
 552.9200
 21
 861.3600
  0
LINE
  8
200
  6
AUSGEZOGEN
 10
 587.0800
 20
 848.6400
 11
 584.5000
 21
 850.0000
  0
LINE
  8
200
  6
AUSGEZOGEN
 10
 604.8600
 20
 848.6400
 11
 602.2700
 21
 850.0000
  0
LINE
  8
200
  6
AUSGEZOGEN
 10
 622.6400
 20
 848.6400
 11
 620.0500
 21
 850.0000
  0
LINE
  8
200
  6
AUSGEZOGEN
 10
 640.4100
 20
 848.6400
 11
 637.8300
 21
 850.0000
  0
LINE
  8
200
  6
AUSGEZOGEN
 10
 658.1900
 20
 848.6400
 11
 655.6100
 21
 850.0000
  0
LINE
  8
200
  6
AUSGEZOGEN
 10
 641.8100
 20
 816.3800
 11
 644.3900
 21
 815.0000
  0
LINE
  8
200
  6
AUSGEZOGEN
 10
 675.9700
 20
 848.6400
 11
 673.3800
 21
 850.0000
  0
LINE
  8
200
  6
AUSGEZOGEN
 10
 659.5900
 20
 816.3800
 11
 662.1700
 21
 815.0000
  0
LINE
  8
200
  6
AUSGEZOGEN
 10
 693.7500
 20
 848.6400
 11
 691.1600
 21
 850.0000
  0
LINE
  8
200
  6
AUSGEZOGEN
 10
 711.5200
 20
 848.6400
 11
 708.9400
 21
 850.0000
  0
LINE
  8
200
  6
AUSGEZOGEN
 10
 729.3100
 20
 848.6400
 11
 726.7200
 21
 850.0000
  0
LINE
  8
200
  6
AUSGEZOGEN
 10
 712.9200
 20
 816.3800
 11
 715.5000
 21
 815.0000
  0
LINE
  8
200
  6
AUSGEZOGEN
 10
 584.5000
 20
 895.0000
 11
 587.0800
 21
 893.6200
  0
LINE
  8
200
  6
AUSGEZOGEN
 10
 640.4100
 20
 893.6200
 11
 637.8300
 21
 895.0000
  0
LINE
  8
200
  6
AUSGEZOGEN
 10
 658.1900
 20
 893.6200
 11
 655.6100
 21
 895.0000
  0
LINE
  8
200
  6
AUSGEZOGEN
 10
 641.8100
 20
 861.3600
 11
 644.3900
 21
 859.9900
  0
LINE
  8
200
  6
AUSGEZOGEN
 10
 662.1700
 20
 859.9900
 11
 659.5900
 21
 861.3600
  0
LINE
  8
200
  6
AUSGEZOGEN
 10
 711.5200
 20
 893.6200
 11
 708.9400
 21
 895.0000
  0
LINE
  8
200
  6
AUSGEZOGEN
 10
 715.5000
 20
 859.9900
 11
 712.9200
 21
 861.3600
  0
LINE
  8
200
  6
AUSGEZOGEN
 10
   0.0000
 20
 980.0000
 11
   0.0000
 21
 930.0000
  0
LINE
  8
200
  6
AUSGEZOGEN
 10
1950.0000
 20
 930.0000
 11
1950.0000
 21
 980.0000
  0
LINE
  8
200
  6
AUSGEZOGEN
 10
   0.0000
 20
 980.0000
 11
1950.0000
 21
 980.0000
  0
LINE
  8
200
  6
AUSGEZOGEN
 10
1349.0000
 20
 853.4000
 11
 854.0000
 21
 853.4000
  0
LINE
  8
200
  6
AUSGEZOGEN
 10
 854.0000
 20
  61.0000
 11
1349.0000
 21
  61.0000
  0
LINE
  8
200
  6
AUSGEZOGEN
 10
1349.0000
 20
 882.9000
 11
 854.0000
 21
 882.9000
  0
LINE
  8
200
  6
AUSGEZOGEN
 10
1349.0000
 20
  61.0000
 11
1349.0000
 21
 882.9000
  0
LINE
  8
200
  6
AUSGEZOGEN
 10
 854.0000
 20
 882.9000
 11
 854.0000
 21
  61.0000
  0
LINE
  8
200
  6
AUSGEZOGEN
 10
1349.0000
 20
 896.0000
 11
 854.0000
 21
 896.0000
  0
LINE
  8
200
  6
AUSGEZOGEN
 10
1349.0000
 20
 918.0000
 11
1349.0000
 21
 896.0000
  0
LINE
  8
200
  6
AUSGEZOGEN
 10
 854.0000
 20
 918.0000
 11
1349.0000
 21
 918.0000
  0
LINE
  8
200
  6
AUSGEZOGEN
 10
 854.0000
 20
 896.0000
 11
 854.0000
 21
 918.0000
  0
LINE
  8
200
  6
AUSGEZOGEN
 10
1898.0000
 20
 853.4000
 11
1403.0000
 21
 853.4000
  0
LINE
  8
200
  6
AUSGEZOGEN
 10
1403.0000
 20
  61.0000
 11
1898.0000
 21
  61.0000
  0
LINE
  8
200
  6
AUSGEZOGEN
 10
1898.0000
 20
 882.9000
 11
1403.0000
 21
 882.9000
  0
LINE
  8
200
  6
AUSGEZOGEN
 10
1898.0000
 20
  61.0000
 11
1898.0000
 21
 882.9000
  0
LINE
  8
200
  6
AUSGEZOGEN
 10
1403.0000
 20
 882.9000
 11
1403.0000
 21
  61.0000
  0
LINE
  8
200
  6
AUSGEZOGEN
 10
1898.0000
 20
 896.0000
 11
1403.0000
 21
 896.0000
  0
LINE
  8
200
  6
AUSGEZOGEN
 10
1898.0000
 20
 918.0000
 11
1898.0000
 21
 896.0000
  0
LINE
  8
200
  6
AUSGEZOGEN
 10
1403.0000
 20
 918.0000
 11
1898.0000
 21
 918.0000
  0
LINE
  8
200
  6
AUSGEZOGEN
 10
1403.0000
 20
 896.0000
 11
1403.0000
 21
 918.0000
  0
LINE
  8
200
  6
AUSGEZOGEN
 10
  35.0000
 20
 920.0000
 11
 815.0000
 21
 920.0000
  0
LINE
  8
200
  6
AUSGEZOGEN
 10
 815.0000
 20
 755.0000
 11
  35.0000
 21
 755.0000
  0
LINE
  8
200
  6
AUSGEZOGEN
 10
 815.0000
 20
 920.0000
 11
 815.0000
 21
 735.0000
  0
LINE
  8
200
  6
AUSGEZOGEN
 10
  35.0000
 20
 735.0000
 11
  35.0000
 21
 920.0000
  0
LINE
  8
200
  6
AUSGEZOGEN
 10
 815.0000
 20
 735.0000
 11
  35.0000
 21
 735.0000
  0
LINE
  8
200
  6
AUSGEZOGEN
 10
 442.0000
 20
  62.0000
 11
 806.0000
 21
  62.0000
  0
LINE
  8
200
  6
AUSGEZOGEN
 10
 806.0000
 20
 562.0000
 11
 442.0000
 21
 562.0000
  0
LINE
  8
200
  6
AUSGEZOGEN
 10
 442.0000
 20
  62.0000
 11
 442.0000
 21
 582.0000
  0
LINE
  8
200
  6
AUSGEZOGEN
 10
 806.0000
 20
 582.0000
 11
 442.0000
 21
 582.0000
  0
LINE
  8
200
  6
AUSGEZOGEN
 10
 806.0000
 20
  62.0000
 11
 806.0000
 21
 582.0000
  0
LINE
  8
200
  6
AUSGEZOGEN
 10
 555.0000
 20
 639.0000
 11
 705.0000
 21
 639.0000
  0
LINE
  8
200
  6
AUSGEZOGEN
 10
 555.0000
 20
 679.0000
 11
 555.0000
 21
 639.0000
  0
LINE
  8
200
  6
AUSGEZOGEN
 10
 705.0000
 20
 679.0000
 11
 555.0000
 21
 679.0000
  0
LINE
  8
200
  6
AUSGEZOGEN
 10
 705.0000
 20
 639.0000
 11
 705.0000
 21
 679.0000
  0
LINE
  8
200
  6
AUSGEZOGEN
 10
  40.0000
 20
 594.0000
 11
 810.0000
 21
 594.0000
  0
LINE
  8
200
  6
AUSGEZOGEN
 10
 810.0000
 20
 604.0000
 11
  40.0000
 21
 604.0000
  0
LINE
  8
200
  6
AUSGEZOGEN
 10
  40.0000
 20
 699.0000
 11
 810.0000
 21
 699.0000
  0
LINE
  8
200
  6
AUSGEZOGEN
 10
 810.0000
 20
 704.0000
 11
  40.0000
 21
 704.0000
  0
LINE
  8
200
  6
AUSGEZOGEN
 10
  40.0000
 20
 614.0000
 11
 810.0000
 21
 614.0000
  0
LINE
  8
200
  6
AUSGEZOGEN
 10
 810.0000
 20
 619.0000
 11
  40.0000
 21
 619.0000
  0
LINE
  8
200
  6
AUSGEZOGEN
 10
  40.0000
 20
 714.0000
 11
 810.0000
 21
 714.0000
  0
LINE
  8
200
  6
AUSGEZOGEN
 10
 810.0000
 20
 724.0000
 11
  40.0000
 21
 724.0000
  0
LINE
  8
200
  6
AUSGEZOGEN
 10
  40.0000
 20
 589.0000
 11
 810.0000
 21
 589.0000
  0
LINE
  8
200
  6
AUSGEZOGEN
 10
  40.0000
 20
 729.0000
 11
  40.0000
 21
 589.0000
  0
LINE
  8
200
  6
AUSGEZOGEN
 10
 810.0000
 20
 729.0000
 11
  40.0000
 21
 729.0000
  0
LINE
  8
200
  6
AUSGEZOGEN
 10
 810.0000
 20
 589.0000
 11
 810.0000
 21
 729.0000
  0
LINE
  8
200
  6
AUSGEZOGEN
 10
  35.0000
 20
 584.0000
 11
 815.0000
 21
 584.0000
  0
LINE
  8
200
  6
AUSGEZOGEN
 10
 815.0000
 20
 734.0000
 11
  35.0000
 21
 734.0000
  0
LINE
  8
200
  6
AUSGEZOGEN
 10
  35.0000
 20
 584.0000
 11
  35.0000
 21
 734.0000
  0
LINE
  8
200
  6
AUSGEZOGEN
 10
 815.0000
 20
 734.0000
 11
 815.0000
 21
 584.0000
  0
LINE
  8
200
  6
AUSGEZOGEN
 10
  43.0000
 20
  62.0000
 11
  43.0000
 21
 582.0000
  0
LINE
  8
200
  6
AUSGEZOGEN
 10
 352.4000
 20
 582.0000
 11
 352.4000
 21
  62.0000
  0
LINE
  8
200
  6
AUSGEZOGEN
 10
 377.9000
 20
  62.0000
 11
 377.9000
 21
 582.0000
  0
LINE
  8
200
  6
AUSGEZOGEN
 10
  43.0000
 20
  62.0000
 11
 377.9000
 21
  62.0000
  0
LINE
  8
200
  6
AUSGEZOGEN
 10
 377.9000
 20
 582.0000
 11
  43.0000
 21
 582.0000
  0
LINE
  8
200
  6
AUSGEZOGEN
 10
 385.0000
 20
  62.0000
 11
 385.0000
 21
 582.0000
  0
LINE
  8
200
  6
AUSGEZOGEN
 10
 407.0000
 20
 582.0000
 11
 407.0000
 21
  62.0000
  0
LINE
  8
200
  6
AUSGEZOGEN
 10
 385.0000
 20
  62.0000
 11
 407.0000
 21
  62.0000
  0
LINE
  8
200
  6
AUSGEZOGEN
 10
 407.0000
 20
 582.0000
 11
 385.0000
 21
 582.0000
  0
LINE
  8
200
  6
AUSGEZOGEN
 10
 825.0000
 20
  40.0000
 11
 825.0000
 21
 930.0000
  0
LINE
  8
200
  6
AUSGEZOGEN
 10
 835.0000
 20
 930.0000
 11
 835.0000
 21
  40.0000
  0
LINE
  8
200
  6
AUSGEZOGEN
 10
1925.0000
 20
  40.0000
 11
  25.0000
 21
  40.0000
  0
LINE
  8
200
  6
AUSGEZOGEN
 10
  25.0000
 20
   0.0000
 11
1925.0000
 21
   0.0000
  0
LINE
  8
200
  6
AUSGEZOGEN
 10
1950.0000
 20
 930.0000
 11
   0.0000
 21
 930.0000
  0
LINE
  8
200
  6
AUSGEZOGEN
 10
1925.0000
 20
   0.0000
 11
1925.0000
 21
 930.0000
  0
LINE
  8
200
  6
AUSGEZOGEN
 10
  25.0000
 20
 930.0000
 11
  25.0000
 21
   0.0000
  0
TEXT
  8
400
 10
2437.5000
 20
 860.0000
 40
  45.0000
  1
EZ: 230V 50Hz, Kabellänge 2,5m mit Schukostecker 0,44kW
 50
   0.0000
 41
   0.6000
  7
STANDARD
  0
TEXT
  8
410
 10
2437.5000
 20
 740.0000
 40
  45.0000
  1
TWk: DN15
 50
   0.0000
 41
   0.6000
  7
STANDARD
  0
TEXT
  8
420
 10
2437.5000
 20
 620.0000
 40
  45.0000
  1
A: DN50 Trichterablauf, unter Boden baus. syphoniert
 50
   0.0000
 41
   0.6000
  7
STANDARD
  0
ATTDEF
  8
550
 10
10.0
 20
100.0
 30
0.0
 40
30
  1
CCO-GTM722L81-MS
  2
CCO-GTM722L81-MSV
  3
HKI-Nummer
 70
1
  0
TEXT
  8
510
 10
10.0
 20
-45.0
 30
0.0
 40
30
  1
CCO-GTM722L81-MS
 50
0.0
 41
1.0
  7
STANDARD
  0
ENDSEC
  0
EOF
