  0
SECTION
  2
HEADER
  9
$ACADVER
  1
AC1009
  9
$INSBASE
 10
   0.0000
 20
 700.0000
 30
    0.0
  9
$EXTMIN
 10
-155.0000
 20
-119.5000
 30
   0.0000
  9
$EXTMAX
 10
3501.2130
 20
 700.0000
 30
   0.0000
  9
$LTSCALE
 40
1.00
  9
$PSLTSCALE
 70
1
  0
ENDSEC
  0
SECTION
  2
TABLES
  0
TABLE
  2
LTYPE
 70
  5
  0
LTYPE
  2
AUSGEZOGEN
 70
 64
  3
AUSGEZOGEN
 72
 65
 73
  0
 40
0.0
  0
LTYPE
  2
PUNKTIERT
 70
 64
  3
Gepunktet
 72
 65
 73
  2
 40
30.0000
 49
0.0
 49
-30.0000
  0
LTYPE
  2
STRICHLIERT
 70
 64
  3
Strichliert
 72
 65
 73
  2
 40
80.0000
 49
50.0000
 49
-30.0000
  0
LTYPE
  2
STRICHPUNKT
 70
 64
  3
Strichpunktet
 72
 65
 73
  4
 40
160.0000
 49
100.0000
 49
-30.0000
 49
0.0
 49
-30.0000
  0
LTYPE
  2
STRICHPUNKTPUNKT
 70
 64
  3
Strichpunktpunktet
 72
 65
 73
  6
 40
190.0000
 49
100.0000
 49
-30.0000
 49
0.0
 49
-30.0000
 49
0.0
 49
-30.0000
  0
ENDTAB
  0
TABLE
  2
LAYER
 70
7
  0
LAYER
  2
550
 70
  0
 62
  2
  6
AUSGEZOGEN
  0
LAYER
  2
510
 70
  0
 62
  2
  6
AUSGEZOGEN
  0
LAYER
  2
0
 70
  0
 62
  1
  6
AUSGEZOGEN
  0
LAYER
  2
200
 70
  0
 62
  7
  6
AUSGEZOGEN
999
SWS-Layer-Line-Width
999
0.20
  0
LAYER
  2
400
 70
  0
 62
  4
  6
AUSGEZOGEN
999
SWS-Layer-Line-Width
999
0.30
  0
LAYER
  2
410
 70
  0
 62
  6
  6
AUSGEZOGEN
  0
LAYER
  2
420
 70
  0
 62
  2
  6
AUSGEZOGEN
  0
ENDTAB
  0
TABLE
  2
STYLE
 70
  1
  0
STYLE
  2
STANDARD
 70
 64
 40
0.0
 41
1.0
 50
0.0
 71
  0
 42
30.0
  3
TXT.SHX
  4

  0
ENDTAB
  0
ENDSEC
  0
SECTION
  2
ENTITIES
  0
LINE
  8
400
  6
AUSGEZOGEN
 10
1300.0000
 20
 600.0000
 11
1924.0000
 21
 566.5000
  0
LINE
  8
400
  6
AUSGEZOGEN
 10
3323.8300
 20
 566.5000
 11
1924.0000
 21
 566.5000
  0
LINE
  8
400
  6
AUSGEZOGEN
 10
1300.0000
 20
 525.0000
 11
1300.0000
 21
 600.0000
  0
LINE
  8
400
  6
AUSGEZOGEN
 10
1300.0000
 20
 675.0000
 11
1300.0000
 21
 600.0000
  0
LINE
  8
400
  6
AUSGEZOGEN
 10
1225.0000
 20
 600.0000
 11
1300.0000
 21
 600.0000
  0
LINE
  8
400
  6
AUSGEZOGEN
 10
1375.0000
 20
 600.0000
 11
1300.0000
 21
 600.0000
  0
CIRCLE
  8
400
  6
AUSGEZOGEN
 10
1300.0000
 20
 600.0000
 40
  50.0000
  0
LINE
  8
410
  6
AUSGEZOGEN
 10
1300.0000
 20
 450.0000
 11
1924.0000
 21
 446.5000
  0
LINE
  8
410
  6
AUSGEZOGEN
 10
2167.2600
 20
 446.5000
 11
1924.0000
 21
 446.5000
  0
LINE
  8
410
  6
AUSGEZOGEN
 10
1300.0000
 20
 375.0000
 11
1300.0000
 21
 450.0000
  0
LINE
  8
410
  6
AUSGEZOGEN
 10
1300.0000
 20
 525.0000
 11
1300.0000
 21
 450.0000
  0
LINE
  8
410
  6
AUSGEZOGEN
 10
1225.0000
 20
 450.0000
 11
1300.0000
 21
 450.0000
  0
LINE
  8
410
  6
AUSGEZOGEN
 10
1375.0000
 20
 450.0000
 11
1300.0000
 21
 450.0000
  0
CIRCLE
  8
410
  6
AUSGEZOGEN
 10
1300.0000
 20
 450.0000
 40
  50.0000
  0
LINE
  8
420
  6
AUSGEZOGEN
 10
1300.0000
 20
 350.0000
 11
1924.0000
 21
 326.5000
  0
LINE
  8
420
  6
AUSGEZOGEN
 10
3228.9300
 20
 326.5000
 11
1924.0000
 21
 326.5000
  0
LINE
  8
420
  6
AUSGEZOGEN
 10
1300.0000
 20
 275.0000
 11
1300.0000
 21
 350.0000
  0
LINE
  8
420
  6
AUSGEZOGEN
 10
1300.0000
 20
 425.0000
 11
1300.0000
 21
 350.0000
  0
LINE
  8
420
  6
AUSGEZOGEN
 10
1225.0000
 20
 350.0000
 11
1300.0000
 21
 350.0000
  0
LINE
  8
420
  6
AUSGEZOGEN
 10
1375.0000
 20
 350.0000
 11
1300.0000
 21
 350.0000
  0
CIRCLE
  8
420
  6
AUSGEZOGEN
 10
1300.0000
 20
 350.0000
 40
  50.0000
  0
LINE
  8
200
  6
AUSGEZOGEN
 10
1131.0000
 20
 571.1600
 11
1131.0000
 21
 562.8400
  0
LINE
  8
200
  6
AUSGEZOGEN
 10
1126.8400
 20
 555.1600
 11
1131.0000
 21
 562.8400
  0
LINE
  8
200
  6
AUSGEZOGEN
 10
1119.1600
 20
 551.0000
 11
1126.8400
 21
 555.1600
  0
LINE
  8
200
  6
AUSGEZOGEN
 10
1110.8400
 20
 551.0000
 11
1119.1600
 21
 551.0000
  0
LINE
  8
200
  6
AUSGEZOGEN
 10
1103.1600
 20
 555.1600
 11
1110.8400
 21
 551.0000
  0
LINE
  8
200
  6
AUSGEZOGEN
 10
1099.0000
 20
 562.8400
 11
1103.1600
 21
 555.1600
  0
LINE
  8
200
  6
AUSGEZOGEN
 10
1103.1600
 20
 578.8400
 11
1099.0000
 21
 571.1600
  0
LINE
  8
200
  6
AUSGEZOGEN
 10
1110.8400
 20
 583.0000
 11
1103.1600
 21
 578.8400
  0
LINE
  8
200
  6
AUSGEZOGEN
 10
1126.8400
 20
 578.8400
 11
1119.1600
 21
 583.0000
  0
LINE
  8
200
  6
AUSGEZOGEN
 10
1131.0000
 20
 571.1600
 11
1126.8400
 21
 578.8400
  0
LINE
  8
200
  6
AUSGEZOGEN
 10
1099.0000
 20
 562.8400
 11
1099.0000
 21
 571.1600
  0
LINE
  8
200
  6
AUSGEZOGEN
 10
1119.1600
 20
 583.0000
 11
1110.8400
 21
 583.0000
  0
LINE
  8
200
  6
AUSGEZOGEN
 10
1049.5000
 20
  86.5000
 11
1056.0000
 21
  98.5000
  0
LINE
  8
200
  6
AUSGEZOGEN
 10
1037.5000
 20
  80.0000
 11
1049.5000
 21
  86.5000
  0
LINE
  8
200
  6
AUSGEZOGEN
 10
  62.5000
 20
  86.5000
 11
  74.5000
 21
  80.0000
  0
LINE
  8
200
  6
AUSGEZOGEN
 10
  56.0000
 20
  98.5000
 11
  62.5000
 21
  86.5000
  0
LINE
  8
200
  6
AUSGEZOGEN
 10
  56.0000
 20
 361.5000
 11
  56.0000
 21
  98.5000
  0
LINE
  8
200
  6
AUSGEZOGEN
 10
  62.5000
 20
 373.5000
 11
  56.0000
 21
 361.5000
  0
LINE
  8
200
  6
AUSGEZOGEN
 10
  74.5000
 20
 380.0000
 11
  62.5000
 21
 373.5000
  0
LINE
  8
200
  6
AUSGEZOGEN
 10
1037.5000
 20
 380.0000
 11
  74.5000
 21
 380.0000
  0
LINE
  8
200
  6
AUSGEZOGEN
 10
1049.5000
 20
 373.5000
 11
1037.5000
 21
 380.0000
  0
LINE
  8
200
  6
AUSGEZOGEN
 10
1056.0000
 20
 361.5000
 11
1049.5000
 21
 373.5000
  0
LINE
  8
200
  6
AUSGEZOGEN
 10
 101.0000
 20
 345.8600
 11
 101.0000
 21
 354.1400
  0
LINE
  8
200
  6
AUSGEZOGEN
 10
  86.8600
 20
 360.0000
 11
  95.1400
 21
 360.0000
  0
LINE
  8
200
  6
AUSGEZOGEN
 10
  81.0000
 20
 345.8600
 11
  81.0000
 21
 354.1400
  0
LINE
  8
200
  6
AUSGEZOGEN
 10
  95.1400
 20
 340.0000
 11
  86.8600
 21
 340.0000
  0
LINE
  8
200
  6
AUSGEZOGEN
 10
 521.0000
 20
 354.1400
 11
 521.0000
 21
 345.8600
  0
LINE
  8
200
  6
AUSGEZOGEN
 10
 506.8600
 20
 360.0000
 11
 515.1400
 21
 360.0000
  0
LINE
  8
200
  6
AUSGEZOGEN
 10
 501.0000
 20
 345.8600
 11
 501.0000
 21
 354.1400
  0
LINE
  8
200
  6
AUSGEZOGEN
 10
 515.1400
 20
 340.0000
 11
 506.8600
 21
 340.0000
  0
LINE
  8
200
  6
AUSGEZOGEN
 10
 491.0000
 20
 354.1400
 11
 491.0000
 21
 345.8600
  0
LINE
  8
200
  6
AUSGEZOGEN
 10
 476.8600
 20
 360.0000
 11
 485.1400
 21
 360.0000
  0
LINE
  8
200
  6
AUSGEZOGEN
 10
 471.0000
 20
 345.8600
 11
 471.0000
 21
 354.1400
  0
LINE
  8
200
  6
AUSGEZOGEN
 10
 485.1400
 20
 340.0000
 11
 476.8600
 21
 340.0000
  0
LINE
  8
200
  6
AUSGEZOGEN
 10
 461.0000
 20
 354.1400
 11
 461.0000
 21
 345.8600
  0
LINE
  8
200
  6
AUSGEZOGEN
 10
 446.8600
 20
 360.0000
 11
 455.1400
 21
 360.0000
  0
LINE
  8
200
  6
AUSGEZOGEN
 10
 441.0000
 20
 345.8600
 11
 441.0000
 21
 354.1400
  0
LINE
  8
200
  6
AUSGEZOGEN
 10
 455.1400
 20
 340.0000
 11
 446.8600
 21
 340.0000
  0
LINE
  8
200
  6
AUSGEZOGEN
 10
 431.0000
 20
 354.1400
 11
 431.0000
 21
 345.8600
  0
LINE
  8
200
  6
AUSGEZOGEN
 10
 416.8600
 20
 360.0000
 11
 425.1400
 21
 360.0000
  0
LINE
  8
200
  6
AUSGEZOGEN
 10
 411.0000
 20
 345.8600
 11
 411.0000
 21
 354.1400
  0
LINE
  8
200
  6
AUSGEZOGEN
 10
 425.1400
 20
 340.0000
 11
 416.8600
 21
 340.0000
  0
LINE
  8
200
  6
AUSGEZOGEN
 10
 401.0000
 20
 354.1400
 11
 401.0000
 21
 345.8600
  0
LINE
  8
200
  6
AUSGEZOGEN
 10
 386.8600
 20
 360.0000
 11
 395.1400
 21
 360.0000
  0
LINE
  8
200
  6
AUSGEZOGEN
 10
 381.0000
 20
 345.8600
 11
 381.0000
 21
 354.1400
  0
LINE
  8
200
  6
AUSGEZOGEN
 10
 395.1400
 20
 340.0000
 11
 386.8600
 21
 340.0000
  0
LINE
  8
200
  6
AUSGEZOGEN
 10
 371.0000
 20
 354.1400
 11
 371.0000
 21
 345.8600
  0
LINE
  8
200
  6
AUSGEZOGEN
 10
 356.8600
 20
 360.0000
 11
 365.1400
 21
 360.0000
  0
LINE
  8
200
  6
AUSGEZOGEN
 10
 351.0000
 20
 345.8600
 11
 351.0000
 21
 354.1400
  0
LINE
  8
200
  6
AUSGEZOGEN
 10
 365.1400
 20
 340.0000
 11
 356.8600
 21
 340.0000
  0
LINE
  8
200
  6
AUSGEZOGEN
 10
 341.0000
 20
 354.1400
 11
 341.0000
 21
 345.8600
  0
LINE
  8
200
  6
AUSGEZOGEN
 10
 326.8600
 20
 360.0000
 11
 335.1400
 21
 360.0000
  0
LINE
  8
200
  6
AUSGEZOGEN
 10
 321.0000
 20
 345.8600
 11
 321.0000
 21
 354.1400
  0
LINE
  8
200
  6
AUSGEZOGEN
 10
 335.1400
 20
 340.0000
 11
 326.8600
 21
 340.0000
  0
LINE
  8
200
  6
AUSGEZOGEN
 10
 311.0000
 20
 354.1400
 11
 311.0000
 21
 345.8600
  0
LINE
  8
200
  6
AUSGEZOGEN
 10
 296.8600
 20
 360.0000
 11
 305.1400
 21
 360.0000
  0
LINE
  8
200
  6
AUSGEZOGEN
 10
 291.0000
 20
 345.8600
 11
 291.0000
 21
 354.1400
  0
LINE
  8
200
  6
AUSGEZOGEN
 10
 305.1400
 20
 340.0000
 11
 296.8600
 21
 340.0000
  0
LINE
  8
200
  6
AUSGEZOGEN
 10
 281.0000
 20
 354.1400
 11
 281.0000
 21
 345.8600
  0
LINE
  8
200
  6
AUSGEZOGEN
 10
 266.8600
 20
 360.0000
 11
 275.1400
 21
 360.0000
  0
LINE
  8
200
  6
AUSGEZOGEN
 10
 261.0000
 20
 345.8600
 11
 261.0000
 21
 354.1400
  0
LINE
  8
200
  6
AUSGEZOGEN
 10
 275.1400
 20
 340.0000
 11
 266.8600
 21
 340.0000
  0
LINE
  8
200
  6
AUSGEZOGEN
 10
 251.0000
 20
 354.1400
 11
 251.0000
 21
 345.8600
  0
LINE
  8
200
  6
AUSGEZOGEN
 10
 236.8600
 20
 360.0000
 11
 245.1400
 21
 360.0000
  0
LINE
  8
200
  6
AUSGEZOGEN
 10
 231.0000
 20
 345.8600
 11
 231.0000
 21
 354.1400
  0
LINE
  8
200
  6
AUSGEZOGEN
 10
 245.1400
 20
 340.0000
 11
 236.8600
 21
 340.0000
  0
LINE
  8
200
  6
AUSGEZOGEN
 10
 221.0000
 20
 354.1400
 11
 221.0000
 21
 345.8600
  0
LINE
  8
200
  6
AUSGEZOGEN
 10
 206.8600
 20
 360.0000
 11
 215.1400
 21
 360.0000
  0
LINE
  8
200
  6
AUSGEZOGEN
 10
 201.0000
 20
 345.8600
 11
 201.0000
 21
 354.1400
  0
LINE
  8
200
  6
AUSGEZOGEN
 10
 215.1400
 20
 340.0000
 11
 206.8600
 21
 340.0000
  0
LINE
  8
200
  6
AUSGEZOGEN
 10
 191.0000
 20
 354.1400
 11
 191.0000
 21
 345.8600
  0
LINE
  8
200
  6
AUSGEZOGEN
 10
 176.8600
 20
 360.0000
 11
 185.1400
 21
 360.0000
  0
LINE
  8
200
  6
AUSGEZOGEN
 10
 171.0000
 20
 345.8600
 11
 171.0000
 21
 354.1400
  0
LINE
  8
200
  6
AUSGEZOGEN
 10
 185.1400
 20
 340.0000
 11
 176.8600
 21
 340.0000
  0
LINE
  8
200
  6
AUSGEZOGEN
 10
 161.0000
 20
 354.1400
 11
 161.0000
 21
 345.8600
  0
LINE
  8
200
  6
AUSGEZOGEN
 10
 146.8600
 20
 360.0000
 11
 155.1400
 21
 360.0000
  0
LINE
  8
200
  6
AUSGEZOGEN
 10
 141.0000
 20
 345.8600
 11
 141.0000
 21
 354.1400
  0
LINE
  8
200
  6
AUSGEZOGEN
 10
 155.1400
 20
 340.0000
 11
 146.8600
 21
 340.0000
  0
LINE
  8
200
  6
AUSGEZOGEN
 10
 131.0000
 20
 354.1400
 11
 131.0000
 21
 345.8600
  0
LINE
  8
200
  6
AUSGEZOGEN
 10
 116.8600
 20
 360.0000
 11
 125.1400
 21
 360.0000
  0
LINE
  8
200
  6
AUSGEZOGEN
 10
 111.0000
 20
 345.8600
 11
 111.0000
 21
 354.1400
  0
LINE
  8
200
  6
AUSGEZOGEN
 10
 125.1400
 20
 340.0000
 11
 116.8600
 21
 340.0000
  0
LINE
  8
200
  6
AUSGEZOGEN
 10
 101.0000
 20
 315.8600
 11
 101.0000
 21
 324.1400
  0
LINE
  8
200
  6
AUSGEZOGEN
 10
  86.8600
 20
 330.0000
 11
  95.1400
 21
 330.0000
  0
LINE
  8
200
  6
AUSGEZOGEN
 10
  81.0000
 20
 315.8600
 11
  81.0000
 21
 324.1400
  0
LINE
  8
200
  6
AUSGEZOGEN
 10
  95.1400
 20
 310.0000
 11
  86.8600
 21
 310.0000
  0
LINE
  8
200
  6
AUSGEZOGEN
 10
 521.0000
 20
 324.1400
 11
 521.0000
 21
 315.8600
  0
LINE
  8
200
  6
AUSGEZOGEN
 10
 506.8600
 20
 330.0000
 11
 515.1400
 21
 330.0000
  0
LINE
  8
200
  6
AUSGEZOGEN
 10
 501.0000
 20
 315.8600
 11
 501.0000
 21
 324.1400
  0
LINE
  8
200
  6
AUSGEZOGEN
 10
 515.1400
 20
 310.0000
 11
 506.8600
 21
 310.0000
  0
LINE
  8
200
  6
AUSGEZOGEN
 10
 491.0000
 20
 324.1400
 11
 491.0000
 21
 315.8600
  0
LINE
  8
200
  6
AUSGEZOGEN
 10
 476.8600
 20
 330.0000
 11
 485.1400
 21
 330.0000
  0
LINE
  8
200
  6
AUSGEZOGEN
 10
 471.0000
 20
 315.8600
 11
 471.0000
 21
 324.1400
  0
LINE
  8
200
  6
AUSGEZOGEN
 10
 485.1400
 20
 310.0000
 11
 476.8600
 21
 310.0000
  0
LINE
  8
200
  6
AUSGEZOGEN
 10
 461.0000
 20
 324.1400
 11
 461.0000
 21
 315.8600
  0
LINE
  8
200
  6
AUSGEZOGEN
 10
 446.8600
 20
 330.0000
 11
 455.1400
 21
 330.0000
  0
LINE
  8
200
  6
AUSGEZOGEN
 10
 441.0000
 20
 315.8600
 11
 441.0000
 21
 324.1400
  0
LINE
  8
200
  6
AUSGEZOGEN
 10
 455.1400
 20
 310.0000
 11
 446.8600
 21
 310.0000
  0
LINE
  8
200
  6
AUSGEZOGEN
 10
 431.0000
 20
 324.1400
 11
 431.0000
 21
 315.8600
  0
LINE
  8
200
  6
AUSGEZOGEN
 10
 416.8600
 20
 330.0000
 11
 425.1400
 21
 330.0000
  0
LINE
  8
200
  6
AUSGEZOGEN
 10
 411.0000
 20
 315.8600
 11
 411.0000
 21
 324.1400
  0
LINE
  8
200
  6
AUSGEZOGEN
 10
 425.1400
 20
 310.0000
 11
 416.8600
 21
 310.0000
  0
LINE
  8
200
  6
AUSGEZOGEN
 10
 401.0000
 20
 324.1400
 11
 401.0000
 21
 315.8600
  0
LINE
  8
200
  6
AUSGEZOGEN
 10
 386.8600
 20
 330.0000
 11
 395.1400
 21
 330.0000
  0
LINE
  8
200
  6
AUSGEZOGEN
 10
 381.0000
 20
 315.8600
 11
 381.0000
 21
 324.1400
  0
LINE
  8
200
  6
AUSGEZOGEN
 10
 395.1400
 20
 310.0000
 11
 386.8600
 21
 310.0000
  0
LINE
  8
200
  6
AUSGEZOGEN
 10
 371.0000
 20
 324.1400
 11
 371.0000
 21
 315.8600
  0
LINE
  8
200
  6
AUSGEZOGEN
 10
 356.8600
 20
 330.0000
 11
 365.1400
 21
 330.0000
  0
LINE
  8
200
  6
AUSGEZOGEN
 10
 351.0000
 20
 315.8600
 11
 351.0000
 21
 324.1400
  0
LINE
  8
200
  6
AUSGEZOGEN
 10
 365.1400
 20
 310.0000
 11
 356.8600
 21
 310.0000
  0
LINE
  8
200
  6
AUSGEZOGEN
 10
 341.0000
 20
 324.1400
 11
 341.0000
 21
 315.8600
  0
LINE
  8
200
  6
AUSGEZOGEN
 10
 326.8600
 20
 330.0000
 11
 335.1400
 21
 330.0000
  0
LINE
  8
200
  6
AUSGEZOGEN
 10
 321.0000
 20
 315.8600
 11
 321.0000
 21
 324.1400
  0
LINE
  8
200
  6
AUSGEZOGEN
 10
 335.1400
 20
 310.0000
 11
 326.8600
 21
 310.0000
  0
LINE
  8
200
  6
AUSGEZOGEN
 10
 311.0000
 20
 324.1400
 11
 311.0000
 21
 315.8600
  0
LINE
  8
200
  6
AUSGEZOGEN
 10
 296.8600
 20
 330.0000
 11
 305.1400
 21
 330.0000
  0
LINE
  8
200
  6
AUSGEZOGEN
 10
 291.0000
 20
 315.8600
 11
 291.0000
 21
 324.1400
  0
LINE
  8
200
  6
AUSGEZOGEN
 10
 305.1400
 20
 310.0000
 11
 296.8600
 21
 310.0000
  0
LINE
  8
200
  6
AUSGEZOGEN
 10
 281.0000
 20
 324.1400
 11
 281.0000
 21
 315.8600
  0
LINE
  8
200
  6
AUSGEZOGEN
 10
 266.8600
 20
 330.0000
 11
 275.1400
 21
 330.0000
  0
LINE
  8
200
  6
AUSGEZOGEN
 10
 261.0000
 20
 315.8600
 11
 261.0000
 21
 324.1400
  0
LINE
  8
200
  6
AUSGEZOGEN
 10
 275.1400
 20
 310.0000
 11
 266.8600
 21
 310.0000
  0
LINE
  8
200
  6
AUSGEZOGEN
 10
 251.0000
 20
 324.1400
 11
 251.0000
 21
 315.8600
  0
LINE
  8
200
  6
AUSGEZOGEN
 10
 236.8600
 20
 330.0000
 11
 245.1400
 21
 330.0000
  0
LINE
  8
200
  6
AUSGEZOGEN
 10
 231.0000
 20
 315.8600
 11
 231.0000
 21
 324.1400
  0
LINE
  8
200
  6
AUSGEZOGEN
 10
 245.1400
 20
 310.0000
 11
 236.8600
 21
 310.0000
  0
LINE
  8
200
  6
AUSGEZOGEN
 10
 221.0000
 20
 324.1400
 11
 221.0000
 21
 315.8600
  0
LINE
  8
200
  6
AUSGEZOGEN
 10
 206.8600
 20
 330.0000
 11
 215.1400
 21
 330.0000
  0
LINE
  8
200
  6
AUSGEZOGEN
 10
 201.0000
 20
 315.8600
 11
 201.0000
 21
 324.1400
  0
LINE
  8
200
  6
AUSGEZOGEN
 10
 215.1400
 20
 310.0000
 11
 206.8600
 21
 310.0000
  0
LINE
  8
200
  6
AUSGEZOGEN
 10
 191.0000
 20
 324.1400
 11
 191.0000
 21
 315.8600
  0
LINE
  8
200
  6
AUSGEZOGEN
 10
 176.8600
 20
 330.0000
 11
 185.1400
 21
 330.0000
  0
LINE
  8
200
  6
AUSGEZOGEN
 10
 171.0000
 20
 315.8600
 11
 171.0000
 21
 324.1400
  0
LINE
  8
200
  6
AUSGEZOGEN
 10
 185.1400
 20
 310.0000
 11
 176.8600
 21
 310.0000
  0
LINE
  8
200
  6
AUSGEZOGEN
 10
 161.0000
 20
 324.1400
 11
 161.0000
 21
 315.8600
  0
LINE
  8
200
  6
AUSGEZOGEN
 10
 146.8600
 20
 330.0000
 11
 155.1400
 21
 330.0000
  0
LINE
  8
200
  6
AUSGEZOGEN
 10
 141.0000
 20
 315.8600
 11
 141.0000
 21
 324.1400
  0
LINE
  8
200
  6
AUSGEZOGEN
 10
 155.1400
 20
 310.0000
 11
 146.8600
 21
 310.0000
  0
LINE
  8
200
  6
AUSGEZOGEN
 10
 131.0000
 20
 324.1400
 11
 131.0000
 21
 315.8600
  0
LINE
  8
200
  6
AUSGEZOGEN
 10
 116.8600
 20
 330.0000
 11
 125.1400
 21
 330.0000
  0
LINE
  8
200
  6
AUSGEZOGEN
 10
 111.0000
 20
 315.8600
 11
 111.0000
 21
 324.1400
  0
LINE
  8
200
  6
AUSGEZOGEN
 10
 125.1400
 20
 310.0000
 11
 116.8600
 21
 310.0000
  0
LINE
  8
200
  6
AUSGEZOGEN
 10
 101.0000
 20
 285.8600
 11
 101.0000
 21
 294.1400
  0
LINE
  8
200
  6
AUSGEZOGEN
 10
  86.8600
 20
 300.0000
 11
  95.1400
 21
 300.0000
  0
LINE
  8
200
  6
AUSGEZOGEN
 10
  81.0000
 20
 285.8600
 11
  81.0000
 21
 294.1400
  0
LINE
  8
200
  6
AUSGEZOGEN
 10
  95.1400
 20
 280.0000
 11
  86.8600
 21
 280.0000
  0
LINE
  8
200
  6
AUSGEZOGEN
 10
 521.0000
 20
 294.1400
 11
 521.0000
 21
 285.8600
  0
LINE
  8
200
  6
AUSGEZOGEN
 10
 506.8600
 20
 300.0000
 11
 515.1400
 21
 300.0000
  0
LINE
  8
200
  6
AUSGEZOGEN
 10
 501.0000
 20
 285.8600
 11
 501.0000
 21
 294.1400
  0
LINE
  8
200
  6
AUSGEZOGEN
 10
 515.1400
 20
 280.0000
 11
 506.8600
 21
 280.0000
  0
LINE
  8
200
  6
AUSGEZOGEN
 10
 491.0000
 20
 294.1400
 11
 491.0000
 21
 285.8600
  0
LINE
  8
200
  6
AUSGEZOGEN
 10
 476.8600
 20
 300.0000
 11
 485.1400
 21
 300.0000
  0
LINE
  8
200
  6
AUSGEZOGEN
 10
 471.0000
 20
 285.8600
 11
 471.0000
 21
 294.1400
  0
LINE
  8
200
  6
AUSGEZOGEN
 10
 485.1400
 20
 280.0000
 11
 476.8600
 21
 280.0000
  0
LINE
  8
200
  6
AUSGEZOGEN
 10
 461.0000
 20
 294.1400
 11
 461.0000
 21
 285.8600
  0
LINE
  8
200
  6
AUSGEZOGEN
 10
 446.8600
 20
 300.0000
 11
 455.1400
 21
 300.0000
  0
LINE
  8
200
  6
AUSGEZOGEN
 10
 441.0000
 20
 285.8600
 11
 441.0000
 21
 294.1400
  0
LINE
  8
200
  6
AUSGEZOGEN
 10
 455.1400
 20
 280.0000
 11
 446.8600
 21
 280.0000
  0
LINE
  8
200
  6
AUSGEZOGEN
 10
 431.0000
 20
 294.1400
 11
 431.0000
 21
 285.8600
  0
LINE
  8
200
  6
AUSGEZOGEN
 10
 416.8600
 20
 300.0000
 11
 425.1400
 21
 300.0000
  0
LINE
  8
200
  6
AUSGEZOGEN
 10
 411.0000
 20
 285.8600
 11
 411.0000
 21
 294.1400
  0
LINE
  8
200
  6
AUSGEZOGEN
 10
 425.1400
 20
 280.0000
 11
 416.8600
 21
 280.0000
  0
LINE
  8
200
  6
AUSGEZOGEN
 10
 401.0000
 20
 294.1400
 11
 401.0000
 21
 285.8600
  0
LINE
  8
200
  6
AUSGEZOGEN
 10
 386.8600
 20
 300.0000
 11
 395.1400
 21
 300.0000
  0
LINE
  8
200
  6
AUSGEZOGEN
 10
 381.0000
 20
 285.8600
 11
 381.0000
 21
 294.1400
  0
LINE
  8
200
  6
AUSGEZOGEN
 10
 395.1400
 20
 280.0000
 11
 386.8600
 21
 280.0000
  0
LINE
  8
200
  6
AUSGEZOGEN
 10
 371.0000
 20
 294.1400
 11
 371.0000
 21
 285.8600
  0
LINE
  8
200
  6
AUSGEZOGEN
 10
 356.8600
 20
 300.0000
 11
 365.1400
 21
 300.0000
  0
LINE
  8
200
  6
AUSGEZOGEN
 10
 351.0000
 20
 285.8600
 11
 351.0000
 21
 294.1400
  0
LINE
  8
200
  6
AUSGEZOGEN
 10
 365.1400
 20
 280.0000
 11
 356.8600
 21
 280.0000
  0
LINE
  8
200
  6
AUSGEZOGEN
 10
 341.0000
 20
 294.1400
 11
 341.0000
 21
 285.8600
  0
LINE
  8
200
  6
AUSGEZOGEN
 10
 326.8600
 20
 300.0000
 11
 335.1400
 21
 300.0000
  0
LINE
  8
200
  6
AUSGEZOGEN
 10
 321.0000
 20
 285.8600
 11
 321.0000
 21
 294.1400
  0
LINE
  8
200
  6
AUSGEZOGEN
 10
 335.1400
 20
 280.0000
 11
 326.8600
 21
 280.0000
  0
LINE
  8
200
  6
AUSGEZOGEN
 10
 311.0000
 20
 294.1400
 11
 311.0000
 21
 285.8600
  0
LINE
  8
200
  6
AUSGEZOGEN
 10
 296.8600
 20
 300.0000
 11
 305.1400
 21
 300.0000
  0
LINE
  8
200
  6
AUSGEZOGEN
 10
 291.0000
 20
 285.8600
 11
 291.0000
 21
 294.1400
  0
LINE
  8
200
  6
AUSGEZOGEN
 10
 305.1400
 20
 280.0000
 11
 296.8600
 21
 280.0000
  0
LINE
  8
200
  6
AUSGEZOGEN
 10
 281.0000
 20
 294.1400
 11
 281.0000
 21
 285.8600
  0
LINE
  8
200
  6
AUSGEZOGEN
 10
 266.8600
 20
 300.0000
 11
 275.1400
 21
 300.0000
  0
LINE
  8
200
  6
AUSGEZOGEN
 10
 261.0000
 20
 285.8600
 11
 261.0000
 21
 294.1400
  0
LINE
  8
200
  6
AUSGEZOGEN
 10
 275.1400
 20
 280.0000
 11
 266.8600
 21
 280.0000
  0
LINE
  8
200
  6
AUSGEZOGEN
 10
 251.0000
 20
 294.1400
 11
 251.0000
 21
 285.8600
  0
LINE
  8
200
  6
AUSGEZOGEN
 10
 236.8600
 20
 300.0000
 11
 245.1400
 21
 300.0000
  0
LINE
  8
200
  6
AUSGEZOGEN
 10
 231.0000
 20
 285.8600
 11
 231.0000
 21
 294.1400
  0
LINE
  8
200
  6
AUSGEZOGEN
 10
 245.1400
 20
 280.0000
 11
 236.8600
 21
 280.0000
  0
LINE
  8
200
  6
AUSGEZOGEN
 10
 221.0000
 20
 294.1400
 11
 221.0000
 21
 285.8600
  0
LINE
  8
200
  6
AUSGEZOGEN
 10
 206.8600
 20
 300.0000
 11
 215.1400
 21
 300.0000
  0
LINE
  8
200
  6
AUSGEZOGEN
 10
 201.0000
 20
 285.8600
 11
 201.0000
 21
 294.1400
  0
LINE
  8
200
  6
AUSGEZOGEN
 10
 215.1400
 20
 280.0000
 11
 206.8600
 21
 280.0000
  0
LINE
  8
200
  6
AUSGEZOGEN
 10
 191.0000
 20
 294.1400
 11
 191.0000
 21
 285.8600
  0
LINE
  8
200
  6
AUSGEZOGEN
 10
 176.8600
 20
 300.0000
 11
 185.1400
 21
 300.0000
  0
LINE
  8
200
  6
AUSGEZOGEN
 10
 171.0000
 20
 285.8600
 11
 171.0000
 21
 294.1400
  0
LINE
  8
200
  6
AUSGEZOGEN
 10
 185.1400
 20
 280.0000
 11
 176.8600
 21
 280.0000
  0
LINE
  8
200
  6
AUSGEZOGEN
 10
 161.0000
 20
 294.1400
 11
 161.0000
 21
 285.8600
  0
LINE
  8
200
  6
AUSGEZOGEN
 10
 146.8600
 20
 300.0000
 11
 155.1400
 21
 300.0000
  0
LINE
  8
200
  6
AUSGEZOGEN
 10
 141.0000
 20
 285.8600
 11
 141.0000
 21
 294.1400
  0
LINE
  8
200
  6
AUSGEZOGEN
 10
 155.1400
 20
 280.0000
 11
 146.8600
 21
 280.0000
  0
LINE
  8
200
  6
AUSGEZOGEN
 10
 131.0000
 20
 294.1400
 11
 131.0000
 21
 285.8600
  0
LINE
  8
200
  6
AUSGEZOGEN
 10
 116.8600
 20
 300.0000
 11
 125.1400
 21
 300.0000
  0
LINE
  8
200
  6
AUSGEZOGEN
 10
 111.0000
 20
 285.8600
 11
 111.0000
 21
 294.1400
  0
LINE
  8
200
  6
AUSGEZOGEN
 10
 125.1400
 20
 280.0000
 11
 116.8600
 21
 280.0000
  0
LINE
  8
200
  6
AUSGEZOGEN
 10
 521.0000
 20
 105.8600
 11
 521.0000
 21
 114.1400
  0
LINE
  8
200
  6
AUSGEZOGEN
 10
 506.8600
 20
 120.0000
 11
 515.1400
 21
 120.0000
  0
LINE
  8
200
  6
AUSGEZOGEN
 10
 501.0000
 20
 105.8600
 11
 501.0000
 21
 114.1400
  0
LINE
  8
200
  6
AUSGEZOGEN
 10
 515.1400
 20
 100.0000
 11
 506.8600
 21
 100.0000
  0
LINE
  8
200
  6
AUSGEZOGEN
 10
 491.0000
 20
 114.1400
 11
 491.0000
 21
 105.8600
  0
LINE
  8
200
  6
AUSGEZOGEN
 10
 476.8600
 20
 120.0000
 11
 485.1400
 21
 120.0000
  0
LINE
  8
200
  6
AUSGEZOGEN
 10
 471.0000
 20
 105.8600
 11
 471.0000
 21
 114.1400
  0
LINE
  8
200
  6
AUSGEZOGEN
 10
 485.1400
 20
 100.0000
 11
 476.8600
 21
 100.0000
  0
LINE
  8
200
  6
AUSGEZOGEN
 10
 461.0000
 20
 114.1400
 11
 461.0000
 21
 105.8600
  0
LINE
  8
200
  6
AUSGEZOGEN
 10
 446.8600
 20
 120.0000
 11
 455.1400
 21
 120.0000
  0
LINE
  8
200
  6
AUSGEZOGEN
 10
 441.0000
 20
 105.8600
 11
 441.0000
 21
 114.1400
  0
LINE
  8
200
  6
AUSGEZOGEN
 10
 455.1400
 20
 100.0000
 11
 446.8600
 21
 100.0000
  0
LINE
  8
200
  6
AUSGEZOGEN
 10
 431.0000
 20
 114.1400
 11
 431.0000
 21
 105.8600
  0
LINE
  8
200
  6
AUSGEZOGEN
 10
 416.8600
 20
 120.0000
 11
 425.1400
 21
 120.0000
  0
LINE
  8
200
  6
AUSGEZOGEN
 10
 411.0000
 20
 105.8600
 11
 411.0000
 21
 114.1400
  0
LINE
  8
200
  6
AUSGEZOGEN
 10
 425.1400
 20
 100.0000
 11
 416.8600
 21
 100.0000
  0
LINE
  8
200
  6
AUSGEZOGEN
 10
 401.0000
 20
 114.1400
 11
 401.0000
 21
 105.8600
  0
LINE
  8
200
  6
AUSGEZOGEN
 10
 386.8600
 20
 120.0000
 11
 395.1400
 21
 120.0000
  0
LINE
  8
200
  6
AUSGEZOGEN
 10
 381.0000
 20
 105.8600
 11
 381.0000
 21
 114.1400
  0
LINE
  8
200
  6
AUSGEZOGEN
 10
 395.1400
 20
 100.0000
 11
 386.8600
 21
 100.0000
  0
LINE
  8
200
  6
AUSGEZOGEN
 10
 371.0000
 20
 114.1400
 11
 371.0000
 21
 105.8600
  0
LINE
  8
200
  6
AUSGEZOGEN
 10
 356.8600
 20
 120.0000
 11
 365.1400
 21
 120.0000
  0
LINE
  8
200
  6
AUSGEZOGEN
 10
 351.0000
 20
 105.8600
 11
 351.0000
 21
 114.1400
  0
LINE
  8
200
  6
AUSGEZOGEN
 10
 365.1400
 20
 100.0000
 11
 356.8600
 21
 100.0000
  0
LINE
  8
200
  6
AUSGEZOGEN
 10
 341.0000
 20
 114.1400
 11
 341.0000
 21
 105.8600
  0
LINE
  8
200
  6
AUSGEZOGEN
 10
 326.8600
 20
 120.0000
 11
 335.1400
 21
 120.0000
  0
LINE
  8
200
  6
AUSGEZOGEN
 10
 321.0000
 20
 105.8600
 11
 321.0000
 21
 114.1400
  0
LINE
  8
200
  6
AUSGEZOGEN
 10
 335.1400
 20
 100.0000
 11
 326.8600
 21
 100.0000
  0
LINE
  8
200
  6
AUSGEZOGEN
 10
 311.0000
 20
 114.1400
 11
 311.0000
 21
 105.8600
  0
LINE
  8
200
  6
AUSGEZOGEN
 10
 296.8600
 20
 120.0000
 11
 305.1400
 21
 120.0000
  0
LINE
  8
200
  6
AUSGEZOGEN
 10
 291.0000
 20
 105.8600
 11
 291.0000
 21
 114.1400
  0
LINE
  8
200
  6
AUSGEZOGEN
 10
 305.1400
 20
 100.0000
 11
 296.8600
 21
 100.0000
  0
LINE
  8
200
  6
AUSGEZOGEN
 10
 281.0000
 20
 114.1400
 11
 281.0000
 21
 105.8600
  0
LINE
  8
200
  6
AUSGEZOGEN
 10
 266.8600
 20
 120.0000
 11
 275.1400
 21
 120.0000
  0
LINE
  8
200
  6
AUSGEZOGEN
 10
 261.0000
 20
 105.8600
 11
 261.0000
 21
 114.1400
  0
LINE
  8
200
  6
AUSGEZOGEN
 10
 275.1400
 20
 100.0000
 11
 266.8600
 21
 100.0000
  0
LINE
  8
200
  6
AUSGEZOGEN
 10
 251.0000
 20
 114.1400
 11
 251.0000
 21
 105.8600
  0
LINE
  8
200
  6
AUSGEZOGEN
 10
 236.8600
 20
 120.0000
 11
 245.1400
 21
 120.0000
  0
LINE
  8
200
  6
AUSGEZOGEN
 10
 231.0000
 20
 105.8600
 11
 231.0000
 21
 114.1400
  0
LINE
  8
200
  6
AUSGEZOGEN
 10
 245.1400
 20
 100.0000
 11
 236.8600
 21
 100.0000
  0
LINE
  8
200
  6
AUSGEZOGEN
 10
 221.0000
 20
 114.1400
 11
 221.0000
 21
 105.8600
  0
LINE
  8
200
  6
AUSGEZOGEN
 10
 206.8600
 20
 120.0000
 11
 215.1400
 21
 120.0000
  0
LINE
  8
200
  6
AUSGEZOGEN
 10
 201.0000
 20
 105.8600
 11
 201.0000
 21
 114.1400
  0
LINE
  8
200
  6
AUSGEZOGEN
 10
 215.1400
 20
 100.0000
 11
 206.8600
 21
 100.0000
  0
LINE
  8
200
  6
AUSGEZOGEN
 10
 191.0000
 20
 114.1400
 11
 191.0000
 21
 105.8600
  0
LINE
  8
200
  6
AUSGEZOGEN
 10
 176.8600
 20
 120.0000
 11
 185.1400
 21
 120.0000
  0
LINE
  8
200
  6
AUSGEZOGEN
 10
 171.0000
 20
 105.8600
 11
 171.0000
 21
 114.1400
  0
LINE
  8
200
  6
AUSGEZOGEN
 10
 185.1400
 20
 100.0000
 11
 176.8600
 21
 100.0000
  0
LINE
  8
200
  6
AUSGEZOGEN
 10
 161.0000
 20
 114.1400
 11
 161.0000
 21
 105.8600
  0
LINE
  8
200
  6
AUSGEZOGEN
 10
 146.8600
 20
 120.0000
 11
 155.1400
 21
 120.0000
  0
LINE
  8
200
  6
AUSGEZOGEN
 10
 141.0000
 20
 105.8600
 11
 141.0000
 21
 114.1400
  0
LINE
  8
200
  6
AUSGEZOGEN
 10
 155.1400
 20
 100.0000
 11
 146.8600
 21
 100.0000
  0
LINE
  8
200
  6
AUSGEZOGEN
 10
 131.0000
 20
 114.1400
 11
 131.0000
 21
 105.8600
  0
LINE
  8
200
  6
AUSGEZOGEN
 10
 116.8600
 20
 120.0000
 11
 125.1400
 21
 120.0000
  0
LINE
  8
200
  6
AUSGEZOGEN
 10
 111.0000
 20
 105.8600
 11
 111.0000
 21
 114.1400
  0
LINE
  8
200
  6
AUSGEZOGEN
 10
 125.1400
 20
 100.0000
 11
 116.8600
 21
 100.0000
  0
LINE
  8
200
  6
AUSGEZOGEN
 10
 101.0000
 20
 114.1400
 11
 101.0000
 21
 105.8600
  0
LINE
  8
200
  6
AUSGEZOGEN
 10
  86.8600
 20
 120.0000
 11
  95.1400
 21
 120.0000
  0
LINE
  8
200
  6
AUSGEZOGEN
 10
  81.0000
 20
 105.8600
 11
  81.0000
 21
 114.1400
  0
LINE
  8
200
  6
AUSGEZOGEN
 10
  95.1400
 20
 100.0000
 11
  86.8600
 21
 100.0000
  0
LINE
  8
200
  6
AUSGEZOGEN
 10
 101.0000
 20
 144.1400
 11
 101.0000
 21
 135.8600
  0
LINE
  8
200
  6
AUSGEZOGEN
 10
  86.8600
 20
 150.0000
 11
  95.1400
 21
 150.0000
  0
LINE
  8
200
  6
AUSGEZOGEN
 10
  81.0000
 20
 135.8600
 11
  81.0000
 21
 144.1400
  0
LINE
  8
200
  6
AUSGEZOGEN
 10
  95.1400
 20
 130.0000
 11
  86.8600
 21
 130.0000
  0
LINE
  8
200
  6
AUSGEZOGEN
 10
 101.0000
 20
 174.1400
 11
 101.0000
 21
 165.8600
  0
LINE
  8
200
  6
AUSGEZOGEN
 10
  86.8600
 20
 180.0000
 11
  95.1400
 21
 180.0000
  0
LINE
  8
200
  6
AUSGEZOGEN
 10
  81.0000
 20
 165.8600
 11
  81.0000
 21
 174.1400
  0
LINE
  8
200
  6
AUSGEZOGEN
 10
  95.1400
 20
 160.0000
 11
  86.8600
 21
 160.0000
  0
LINE
  8
200
  6
AUSGEZOGEN
 10
 101.0000
 20
 204.1400
 11
 101.0000
 21
 195.8600
  0
LINE
  8
200
  6
AUSGEZOGEN
 10
  86.8600
 20
 210.0000
 11
  95.1400
 21
 210.0000
  0
LINE
  8
200
  6
AUSGEZOGEN
 10
  81.0000
 20
 195.8600
 11
  81.0000
 21
 204.1400
  0
LINE
  8
200
  6
AUSGEZOGEN
 10
  95.1400
 20
 190.0000
 11
  86.8600
 21
 190.0000
  0
LINE
  8
200
  6
AUSGEZOGEN
 10
 101.0000
 20
 234.1400
 11
 101.0000
 21
 225.8600
  0
LINE
  8
200
  6
AUSGEZOGEN
 10
  86.8600
 20
 240.0000
 11
  95.1400
 21
 240.0000
  0
LINE
  8
200
  6
AUSGEZOGEN
 10
  81.0000
 20
 225.8600
 11
  81.0000
 21
 234.1400
  0
LINE
  8
200
  6
AUSGEZOGEN
 10
  95.1400
 20
 220.0000
 11
  86.8600
 21
 220.0000
  0
LINE
  8
200
  6
AUSGEZOGEN
 10
 521.0000
 20
 135.8600
 11
 521.0000
 21
 144.1400
  0
LINE
  8
200
  6
AUSGEZOGEN
 10
 506.8600
 20
 150.0000
 11
 515.1400
 21
 150.0000
  0
LINE
  8
200
  6
AUSGEZOGEN
 10
 501.0000
 20
 135.8600
 11
 501.0000
 21
 144.1400
  0
LINE
  8
200
  6
AUSGEZOGEN
 10
 515.1400
 20
 130.0000
 11
 506.8600
 21
 130.0000
  0
LINE
  8
200
  6
AUSGEZOGEN
 10
 491.0000
 20
 144.1400
 11
 491.0000
 21
 135.8600
  0
LINE
  8
200
  6
AUSGEZOGEN
 10
 476.8600
 20
 150.0000
 11
 485.1400
 21
 150.0000
  0
LINE
  8
200
  6
AUSGEZOGEN
 10
 471.0000
 20
 135.8600
 11
 471.0000
 21
 144.1400
  0
LINE
  8
200
  6
AUSGEZOGEN
 10
 485.1400
 20
 130.0000
 11
 476.8600
 21
 130.0000
  0
LINE
  8
200
  6
AUSGEZOGEN
 10
 461.0000
 20
 144.1400
 11
 461.0000
 21
 135.8600
  0
LINE
  8
200
  6
AUSGEZOGEN
 10
 446.8600
 20
 150.0000
 11
 455.1400
 21
 150.0000
  0
LINE
  8
200
  6
AUSGEZOGEN
 10
 441.0000
 20
 135.8600
 11
 441.0000
 21
 144.1400
  0
LINE
  8
200
  6
AUSGEZOGEN
 10
 455.1400
 20
 130.0000
 11
 446.8600
 21
 130.0000
  0
LINE
  8
200
  6
AUSGEZOGEN
 10
 431.0000
 20
 144.1400
 11
 431.0000
 21
 135.8600
  0
LINE
  8
200
  6
AUSGEZOGEN
 10
 416.8600
 20
 150.0000
 11
 425.1400
 21
 150.0000
  0
LINE
  8
200
  6
AUSGEZOGEN
 10
 411.0000
 20
 135.8600
 11
 411.0000
 21
 144.1400
  0
LINE
  8
200
  6
AUSGEZOGEN
 10
 425.1400
 20
 130.0000
 11
 416.8600
 21
 130.0000
  0
LINE
  8
200
  6
AUSGEZOGEN
 10
 401.0000
 20
 144.1400
 11
 401.0000
 21
 135.8600
  0
LINE
  8
200
  6
AUSGEZOGEN
 10
 386.8600
 20
 150.0000
 11
 395.1400
 21
 150.0000
  0
LINE
  8
200
  6
AUSGEZOGEN
 10
 381.0000
 20
 135.8600
 11
 381.0000
 21
 144.1400
  0
LINE
  8
200
  6
AUSGEZOGEN
 10
 395.1400
 20
 130.0000
 11
 386.8600
 21
 130.0000
  0
LINE
  8
200
  6
AUSGEZOGEN
 10
 371.0000
 20
 144.1400
 11
 371.0000
 21
 135.8600
  0
LINE
  8
200
  6
AUSGEZOGEN
 10
 356.8600
 20
 150.0000
 11
 365.1400
 21
 150.0000
  0
LINE
  8
200
  6
AUSGEZOGEN
 10
 351.0000
 20
 135.8600
 11
 351.0000
 21
 144.1400
  0
LINE
  8
200
  6
AUSGEZOGEN
 10
 365.1400
 20
 130.0000
 11
 356.8600
 21
 130.0000
  0
LINE
  8
200
  6
AUSGEZOGEN
 10
 341.0000
 20
 144.1400
 11
 341.0000
 21
 135.8600
  0
LINE
  8
200
  6
AUSGEZOGEN
 10
 326.8600
 20
 150.0000
 11
 335.1400
 21
 150.0000
  0
LINE
  8
200
  6
AUSGEZOGEN
 10
 321.0000
 20
 135.8600
 11
 321.0000
 21
 144.1400
  0
LINE
  8
200
  6
AUSGEZOGEN
 10
 335.1400
 20
 130.0000
 11
 326.8600
 21
 130.0000
  0
LINE
  8
200
  6
AUSGEZOGEN
 10
 311.0000
 20
 144.1400
 11
 311.0000
 21
 135.8600
  0
LINE
  8
200
  6
AUSGEZOGEN
 10
 296.8600
 20
 150.0000
 11
 305.1400
 21
 150.0000
  0
LINE
  8
200
  6
AUSGEZOGEN
 10
 291.0000
 20
 135.8600
 11
 291.0000
 21
 144.1400
  0
LINE
  8
200
  6
AUSGEZOGEN
 10
 305.1400
 20
 130.0000
 11
 296.8600
 21
 130.0000
  0
LINE
  8
200
  6
AUSGEZOGEN
 10
 281.0000
 20
 144.1400
 11
 281.0000
 21
 135.8600
  0
LINE
  8
200
  6
AUSGEZOGEN
 10
 266.8600
 20
 150.0000
 11
 275.1400
 21
 150.0000
  0
LINE
  8
200
  6
AUSGEZOGEN
 10
 261.0000
 20
 135.8600
 11
 261.0000
 21
 144.1400
  0
LINE
  8
200
  6
AUSGEZOGEN
 10
 275.1400
 20
 130.0000
 11
 266.8600
 21
 130.0000
  0
LINE
  8
200
  6
AUSGEZOGEN
 10
 251.0000
 20
 144.1400
 11
 251.0000
 21
 135.8600
  0
LINE
  8
200
  6
AUSGEZOGEN
 10
 236.8600
 20
 150.0000
 11
 245.1400
 21
 150.0000
  0
LINE
  8
200
  6
AUSGEZOGEN
 10
 231.0000
 20
 135.8600
 11
 231.0000
 21
 144.1400
  0
LINE
  8
200
  6
AUSGEZOGEN
 10
 245.1400
 20
 130.0000
 11
 236.8600
 21
 130.0000
  0
LINE
  8
200
  6
AUSGEZOGEN
 10
 221.0000
 20
 144.1400
 11
 221.0000
 21
 135.8600
  0
LINE
  8
200
  6
AUSGEZOGEN
 10
 206.8600
 20
 150.0000
 11
 215.1400
 21
 150.0000
  0
LINE
  8
200
  6
AUSGEZOGEN
 10
 201.0000
 20
 135.8600
 11
 201.0000
 21
 144.1400
  0
LINE
  8
200
  6
AUSGEZOGEN
 10
 215.1400
 20
 130.0000
 11
 206.8600
 21
 130.0000
  0
LINE
  8
200
  6
AUSGEZOGEN
 10
 191.0000
 20
 144.1400
 11
 191.0000
 21
 135.8600
  0
LINE
  8
200
  6
AUSGEZOGEN
 10
 176.8600
 20
 150.0000
 11
 185.1400
 21
 150.0000
  0
LINE
  8
200
  6
AUSGEZOGEN
 10
 171.0000
 20
 135.8600
 11
 171.0000
 21
 144.1400
  0
LINE
  8
200
  6
AUSGEZOGEN
 10
 185.1400
 20
 130.0000
 11
 176.8600
 21
 130.0000
  0
LINE
  8
200
  6
AUSGEZOGEN
 10
 161.0000
 20
 144.1400
 11
 161.0000
 21
 135.8600
  0
LINE
  8
200
  6
AUSGEZOGEN
 10
 146.8600
 20
 150.0000
 11
 155.1400
 21
 150.0000
  0
LINE
  8
200
  6
AUSGEZOGEN
 10
 141.0000
 20
 135.8600
 11
 141.0000
 21
 144.1400
  0
LINE
  8
200
  6
AUSGEZOGEN
 10
 155.1400
 20
 130.0000
 11
 146.8600
 21
 130.0000
  0
LINE
  8
200
  6
AUSGEZOGEN
 10
 131.0000
 20
 144.1400
 11
 131.0000
 21
 135.8600
  0
LINE
  8
200
  6
AUSGEZOGEN
 10
 116.8600
 20
 150.0000
 11
 125.1400
 21
 150.0000
  0
LINE
  8
200
  6
AUSGEZOGEN
 10
 111.0000
 20
 135.8600
 11
 111.0000
 21
 144.1400
  0
LINE
  8
200
  6
AUSGEZOGEN
 10
 125.1400
 20
 130.0000
 11
 116.8600
 21
 130.0000
  0
LINE
  8
200
  6
AUSGEZOGEN
 10
 521.0000
 20
 174.1400
 11
 521.0000
 21
 165.8600
  0
LINE
  8
200
  6
AUSGEZOGEN
 10
 506.8600
 20
 180.0000
 11
 515.1400
 21
 180.0000
  0
LINE
  8
200
  6
AUSGEZOGEN
 10
 501.0000
 20
 165.8600
 11
 501.0000
 21
 174.1400
  0
LINE
  8
200
  6
AUSGEZOGEN
 10
 515.1400
 20
 160.0000
 11
 506.8600
 21
 160.0000
  0
LINE
  8
200
  6
AUSGEZOGEN
 10
 491.0000
 20
 174.1400
 11
 491.0000
 21
 165.8600
  0
LINE
  8
200
  6
AUSGEZOGEN
 10
 476.8600
 20
 180.0000
 11
 485.1400
 21
 180.0000
  0
LINE
  8
200
  6
AUSGEZOGEN
 10
 471.0000
 20
 165.8600
 11
 471.0000
 21
 174.1400
  0
LINE
  8
200
  6
AUSGEZOGEN
 10
 485.1400
 20
 160.0000
 11
 476.8600
 21
 160.0000
  0
LINE
  8
200
  6
AUSGEZOGEN
 10
 461.0000
 20
 174.1400
 11
 461.0000
 21
 165.8600
  0
LINE
  8
200
  6
AUSGEZOGEN
 10
 446.8600
 20
 180.0000
 11
 455.1400
 21
 180.0000
  0
LINE
  8
200
  6
AUSGEZOGEN
 10
 441.0000
 20
 165.8600
 11
 441.0000
 21
 174.1400
  0
LINE
  8
200
  6
AUSGEZOGEN
 10
 455.1400
 20
 160.0000
 11
 446.8600
 21
 160.0000
  0
LINE
  8
200
  6
AUSGEZOGEN
 10
 431.0000
 20
 174.1400
 11
 431.0000
 21
 165.8600
  0
LINE
  8
200
  6
AUSGEZOGEN
 10
 416.8600
 20
 180.0000
 11
 425.1400
 21
 180.0000
  0
LINE
  8
200
  6
AUSGEZOGEN
 10
 411.0000
 20
 165.8600
 11
 411.0000
 21
 174.1400
  0
LINE
  8
200
  6
AUSGEZOGEN
 10
 425.1400
 20
 160.0000
 11
 416.8600
 21
 160.0000
  0
LINE
  8
200
  6
AUSGEZOGEN
 10
 401.0000
 20
 174.1400
 11
 401.0000
 21
 165.8600
  0
LINE
  8
200
  6
AUSGEZOGEN
 10
 386.8600
 20
 180.0000
 11
 395.1400
 21
 180.0000
  0
LINE
  8
200
  6
AUSGEZOGEN
 10
 381.0000
 20
 165.8600
 11
 381.0000
 21
 174.1400
  0
LINE
  8
200
  6
AUSGEZOGEN
 10
 395.1400
 20
 160.0000
 11
 386.8600
 21
 160.0000
  0
LINE
  8
200
  6
AUSGEZOGEN
 10
 371.0000
 20
 174.1400
 11
 371.0000
 21
 165.8600
  0
LINE
  8
200
  6
AUSGEZOGEN
 10
 356.8600
 20
 180.0000
 11
 365.1400
 21
 180.0000
  0
LINE
  8
200
  6
AUSGEZOGEN
 10
 351.0000
 20
 165.8600
 11
 351.0000
 21
 174.1400
  0
LINE
  8
200
  6
AUSGEZOGEN
 10
 365.1400
 20
 160.0000
 11
 356.8600
 21
 160.0000
  0
LINE
  8
200
  6
AUSGEZOGEN
 10
 341.0000
 20
 174.1400
 11
 341.0000
 21
 165.8600
  0
LINE
  8
200
  6
AUSGEZOGEN
 10
 326.8600
 20
 180.0000
 11
 335.1400
 21
 180.0000
  0
LINE
  8
200
  6
AUSGEZOGEN
 10
 321.0000
 20
 165.8600
 11
 321.0000
 21
 174.1400
  0
LINE
  8
200
  6
AUSGEZOGEN
 10
 335.1400
 20
 160.0000
 11
 326.8600
 21
 160.0000
  0
LINE
  8
200
  6
AUSGEZOGEN
 10
 311.0000
 20
 174.1400
 11
 311.0000
 21
 165.8600
  0
LINE
  8
200
  6
AUSGEZOGEN
 10
 296.8600
 20
 180.0000
 11
 305.1400
 21
 180.0000
  0
LINE
  8
200
  6
AUSGEZOGEN
 10
 291.0000
 20
 165.8600
 11
 291.0000
 21
 174.1400
  0
LINE
  8
200
  6
AUSGEZOGEN
 10
 305.1400
 20
 160.0000
 11
 296.8600
 21
 160.0000
  0
LINE
  8
200
  6
AUSGEZOGEN
 10
 281.0000
 20
 174.1400
 11
 281.0000
 21
 165.8600
  0
LINE
  8
200
  6
AUSGEZOGEN
 10
 266.8600
 20
 180.0000
 11
 275.1400
 21
 180.0000
  0
LINE
  8
200
  6
AUSGEZOGEN
 10
 261.0000
 20
 165.8600
 11
 261.0000
 21
 174.1400
  0
LINE
  8
200
  6
AUSGEZOGEN
 10
 275.1400
 20
 160.0000
 11
 266.8600
 21
 160.0000
  0
LINE
  8
200
  6
AUSGEZOGEN
 10
 251.0000
 20
 174.1400
 11
 251.0000
 21
 165.8600
  0
LINE
  8
200
  6
AUSGEZOGEN
 10
 236.8600
 20
 180.0000
 11
 245.1400
 21
 180.0000
  0
LINE
  8
200
  6
AUSGEZOGEN
 10
 231.0000
 20
 165.8600
 11
 231.0000
 21
 174.1400
  0
LINE
  8
200
  6
AUSGEZOGEN
 10
 245.1400
 20
 160.0000
 11
 236.8600
 21
 160.0000
  0
LINE
  8
200
  6
AUSGEZOGEN
 10
 221.0000
 20
 174.1400
 11
 221.0000
 21
 165.8600
  0
LINE
  8
200
  6
AUSGEZOGEN
 10
 206.8600
 20
 180.0000
 11
 215.1400
 21
 180.0000
  0
LINE
  8
200
  6
AUSGEZOGEN
 10
 201.0000
 20
 165.8600
 11
 201.0000
 21
 174.1400
  0
LINE
  8
200
  6
AUSGEZOGEN
 10
 215.1400
 20
 160.0000
 11
 206.8600
 21
 160.0000
  0
LINE
  8
200
  6
AUSGEZOGEN
 10
 191.0000
 20
 174.1400
 11
 191.0000
 21
 165.8600
  0
LINE
  8
200
  6
AUSGEZOGEN
 10
 176.8600
 20
 180.0000
 11
 185.1400
 21
 180.0000
  0
LINE
  8
200
  6
AUSGEZOGEN
 10
 171.0000
 20
 165.8600
 11
 171.0000
 21
 174.1400
  0
LINE
  8
200
  6
AUSGEZOGEN
 10
 185.1400
 20
 160.0000
 11
 176.8600
 21
 160.0000
  0
LINE
  8
200
  6
AUSGEZOGEN
 10
 161.0000
 20
 174.1400
 11
 161.0000
 21
 165.8600
  0
LINE
  8
200
  6
AUSGEZOGEN
 10
 146.8600
 20
 180.0000
 11
 155.1400
 21
 180.0000
  0
LINE
  8
200
  6
AUSGEZOGEN
 10
 141.0000
 20
 165.8600
 11
 141.0000
 21
 174.1400
  0
LINE
  8
200
  6
AUSGEZOGEN
 10
 155.1400
 20
 160.0000
 11
 146.8600
 21
 160.0000
  0
LINE
  8
200
  6
AUSGEZOGEN
 10
 131.0000
 20
 174.1400
 11
 131.0000
 21
 165.8600
  0
LINE
  8
200
  6
AUSGEZOGEN
 10
 116.8600
 20
 180.0000
 11
 125.1400
 21
 180.0000
  0
LINE
  8
200
  6
AUSGEZOGEN
 10
 111.0000
 20
 165.8600
 11
 111.0000
 21
 174.1400
  0
LINE
  8
200
  6
AUSGEZOGEN
 10
 125.1400
 20
 160.0000
 11
 116.8600
 21
 160.0000
  0
LINE
  8
200
  6
AUSGEZOGEN
 10
 521.0000
 20
 204.1400
 11
 521.0000
 21
 195.8600
  0
LINE
  8
200
  6
AUSGEZOGEN
 10
 506.8600
 20
 210.0000
 11
 515.1400
 21
 210.0000
  0
LINE
  8
200
  6
AUSGEZOGEN
 10
 501.0000
 20
 195.8600
 11
 501.0000
 21
 204.1400
  0
LINE
  8
200
  6
AUSGEZOGEN
 10
 515.1400
 20
 190.0000
 11
 506.8600
 21
 190.0000
  0
LINE
  8
200
  6
AUSGEZOGEN
 10
 491.0000
 20
 204.1400
 11
 491.0000
 21
 195.8600
  0
LINE
  8
200
  6
AUSGEZOGEN
 10
 476.8600
 20
 210.0000
 11
 485.1400
 21
 210.0000
  0
LINE
  8
200
  6
AUSGEZOGEN
 10
 471.0000
 20
 195.8600
 11
 471.0000
 21
 204.1400
  0
LINE
  8
200
  6
AUSGEZOGEN
 10
 485.1400
 20
 190.0000
 11
 476.8600
 21
 190.0000
  0
LINE
  8
200
  6
AUSGEZOGEN
 10
 461.0000
 20
 204.1400
 11
 461.0000
 21
 195.8600
  0
LINE
  8
200
  6
AUSGEZOGEN
 10
 446.8600
 20
 210.0000
 11
 455.1400
 21
 210.0000
  0
LINE
  8
200
  6
AUSGEZOGEN
 10
 441.0000
 20
 195.8600
 11
 441.0000
 21
 204.1400
  0
LINE
  8
200
  6
AUSGEZOGEN
 10
 455.1400
 20
 190.0000
 11
 446.8600
 21
 190.0000
  0
LINE
  8
200
  6
AUSGEZOGEN
 10
 431.0000
 20
 204.1400
 11
 431.0000
 21
 195.8600
  0
LINE
  8
200
  6
AUSGEZOGEN
 10
 416.8600
 20
 210.0000
 11
 425.1400
 21
 210.0000
  0
LINE
  8
200
  6
AUSGEZOGEN
 10
 411.0000
 20
 195.8600
 11
 411.0000
 21
 204.1400
  0
LINE
  8
200
  6
AUSGEZOGEN
 10
 425.1400
 20
 190.0000
 11
 416.8600
 21
 190.0000
  0
LINE
  8
200
  6
AUSGEZOGEN
 10
 401.0000
 20
 204.1400
 11
 401.0000
 21
 195.8600
  0
LINE
  8
200
  6
AUSGEZOGEN
 10
 386.8600
 20
 210.0000
 11
 395.1400
 21
 210.0000
  0
LINE
  8
200
  6
AUSGEZOGEN
 10
 381.0000
 20
 195.8600
 11
 381.0000
 21
 204.1400
  0
LINE
  8
200
  6
AUSGEZOGEN
 10
 395.1400
 20
 190.0000
 11
 386.8600
 21
 190.0000
  0
LINE
  8
200
  6
AUSGEZOGEN
 10
 371.0000
 20
 204.1400
 11
 371.0000
 21
 195.8600
  0
LINE
  8
200
  6
AUSGEZOGEN
 10
 356.8600
 20
 210.0000
 11
 365.1400
 21
 210.0000
  0
LINE
  8
200
  6
AUSGEZOGEN
 10
 351.0000
 20
 195.8600
 11
 351.0000
 21
 204.1400
  0
LINE
  8
200
  6
AUSGEZOGEN
 10
 365.1400
 20
 190.0000
 11
 356.8600
 21
 190.0000
  0
LINE
  8
200
  6
AUSGEZOGEN
 10
 341.0000
 20
 204.1400
 11
 341.0000
 21
 195.8600
  0
LINE
  8
200
  6
AUSGEZOGEN
 10
 326.8600
 20
 210.0000
 11
 335.1400
 21
 210.0000
  0
LINE
  8
200
  6
AUSGEZOGEN
 10
 321.0000
 20
 195.8600
 11
 321.0000
 21
 204.1400
  0
LINE
  8
200
  6
AUSGEZOGEN
 10
 335.1400
 20
 190.0000
 11
 326.8600
 21
 190.0000
  0
LINE
  8
200
  6
AUSGEZOGEN
 10
 311.0000
 20
 204.1400
 11
 311.0000
 21
 195.8600
  0
LINE
  8
200
  6
AUSGEZOGEN
 10
 296.8600
 20
 210.0000
 11
 305.1400
 21
 210.0000
  0
LINE
  8
200
  6
AUSGEZOGEN
 10
 291.0000
 20
 195.8600
 11
 291.0000
 21
 204.1400
  0
LINE
  8
200
  6
AUSGEZOGEN
 10
 305.1400
 20
 190.0000
 11
 296.8600
 21
 190.0000
  0
LINE
  8
200
  6
AUSGEZOGEN
 10
 281.0000
 20
 204.1400
 11
 281.0000
 21
 195.8600
  0
LINE
  8
200
  6
AUSGEZOGEN
 10
 266.8600
 20
 210.0000
 11
 275.1400
 21
 210.0000
  0
LINE
  8
200
  6
AUSGEZOGEN
 10
 261.0000
 20
 195.8600
 11
 261.0000
 21
 204.1400
  0
LINE
  8
200
  6
AUSGEZOGEN
 10
 275.1400
 20
 190.0000
 11
 266.8600
 21
 190.0000
  0
LINE
  8
200
  6
AUSGEZOGEN
 10
 251.0000
 20
 204.1400
 11
 251.0000
 21
 195.8600
  0
LINE
  8
200
  6
AUSGEZOGEN
 10
 236.8600
 20
 210.0000
 11
 245.1400
 21
 210.0000
  0
LINE
  8
200
  6
AUSGEZOGEN
 10
 231.0000
 20
 195.8600
 11
 231.0000
 21
 204.1400
  0
LINE
  8
200
  6
AUSGEZOGEN
 10
 245.1400
 20
 190.0000
 11
 236.8600
 21
 190.0000
  0
LINE
  8
200
  6
AUSGEZOGEN
 10
 221.0000
 20
 204.1400
 11
 221.0000
 21
 195.8600
  0
LINE
  8
200
  6
AUSGEZOGEN
 10
 206.8600
 20
 210.0000
 11
 215.1400
 21
 210.0000
  0
LINE
  8
200
  6
AUSGEZOGEN
 10
 201.0000
 20
 195.8600
 11
 201.0000
 21
 204.1400
  0
LINE
  8
200
  6
AUSGEZOGEN
 10
 215.1400
 20
 190.0000
 11
 206.8600
 21
 190.0000
  0
LINE
  8
200
  6
AUSGEZOGEN
 10
 191.0000
 20
 204.1400
 11
 191.0000
 21
 195.8600
  0
LINE
  8
200
  6
AUSGEZOGEN
 10
 176.8600
 20
 210.0000
 11
 185.1400
 21
 210.0000
  0
LINE
  8
200
  6
AUSGEZOGEN
 10
 171.0000
 20
 195.8600
 11
 171.0000
 21
 204.1400
  0
LINE
  8
200
  6
AUSGEZOGEN
 10
 185.1400
 20
 190.0000
 11
 176.8600
 21
 190.0000
  0
LINE
  8
200
  6
AUSGEZOGEN
 10
 161.0000
 20
 204.1400
 11
 161.0000
 21
 195.8600
  0
LINE
  8
200
  6
AUSGEZOGEN
 10
 146.8600
 20
 210.0000
 11
 155.1400
 21
 210.0000
  0
LINE
  8
200
  6
AUSGEZOGEN
 10
 141.0000
 20
 195.8600
 11
 141.0000
 21
 204.1400
  0
LINE
  8
200
  6
AUSGEZOGEN
 10
 155.1400
 20
 190.0000
 11
 146.8600
 21
 190.0000
  0
LINE
  8
200
  6
AUSGEZOGEN
 10
 131.0000
 20
 204.1400
 11
 131.0000
 21
 195.8600
  0
LINE
  8
200
  6
AUSGEZOGEN
 10
 116.8600
 20
 210.0000
 11
 125.1400
 21
 210.0000
  0
LINE
  8
200
  6
AUSGEZOGEN
 10
 111.0000
 20
 195.8600
 11
 111.0000
 21
 204.1400
  0
LINE
  8
200
  6
AUSGEZOGEN
 10
 125.1400
 20
 190.0000
 11
 116.8600
 21
 190.0000
  0
LINE
  8
200
  6
AUSGEZOGEN
 10
 521.0000
 20
 234.1400
 11
 521.0000
 21
 225.8600
  0
LINE
  8
200
  6
AUSGEZOGEN
 10
 506.8600
 20
 240.0000
 11
 515.1400
 21
 240.0000
  0
LINE
  8
200
  6
AUSGEZOGEN
 10
 501.0000
 20
 225.8600
 11
 501.0000
 21
 234.1400
  0
LINE
  8
200
  6
AUSGEZOGEN
 10
 515.1400
 20
 220.0000
 11
 506.8600
 21
 220.0000
  0
LINE
  8
200
  6
AUSGEZOGEN
 10
 491.0000
 20
 234.1400
 11
 491.0000
 21
 225.8600
  0
LINE
  8
200
  6
AUSGEZOGEN
 10
 476.8600
 20
 240.0000
 11
 485.1400
 21
 240.0000
  0
LINE
  8
200
  6
AUSGEZOGEN
 10
 471.0000
 20
 225.8600
 11
 471.0000
 21
 234.1400
  0
LINE
  8
200
  6
AUSGEZOGEN
 10
 485.1400
 20
 220.0000
 11
 476.8600
 21
 220.0000
  0
LINE
  8
200
  6
AUSGEZOGEN
 10
 461.0000
 20
 234.1400
 11
 461.0000
 21
 225.8600
  0
LINE
  8
200
  6
AUSGEZOGEN
 10
 446.8600
 20
 240.0000
 11
 455.1400
 21
 240.0000
  0
LINE
  8
200
  6
AUSGEZOGEN
 10
 441.0000
 20
 225.8600
 11
 441.0000
 21
 234.1400
  0
LINE
  8
200
  6
AUSGEZOGEN
 10
 455.1400
 20
 220.0000
 11
 446.8600
 21
 220.0000
  0
LINE
  8
200
  6
AUSGEZOGEN
 10
 431.0000
 20
 234.1400
 11
 431.0000
 21
 225.8600
  0
LINE
  8
200
  6
AUSGEZOGEN
 10
 416.8600
 20
 240.0000
 11
 425.1400
 21
 240.0000
  0
LINE
  8
200
  6
AUSGEZOGEN
 10
 411.0000
 20
 225.8600
 11
 411.0000
 21
 234.1400
  0
LINE
  8
200
  6
AUSGEZOGEN
 10
 425.1400
 20
 220.0000
 11
 416.8600
 21
 220.0000
  0
LINE
  8
200
  6
AUSGEZOGEN
 10
 401.0000
 20
 234.1400
 11
 401.0000
 21
 225.8600
  0
LINE
  8
200
  6
AUSGEZOGEN
 10
 386.8600
 20
 240.0000
 11
 395.1400
 21
 240.0000
  0
LINE
  8
200
  6
AUSGEZOGEN
 10
 381.0000
 20
 225.8600
 11
 381.0000
 21
 234.1400
  0
LINE
  8
200
  6
AUSGEZOGEN
 10
 395.1400
 20
 220.0000
 11
 386.8600
 21
 220.0000
  0
LINE
  8
200
  6
AUSGEZOGEN
 10
 371.0000
 20
 234.1400
 11
 371.0000
 21
 225.8600
  0
LINE
  8
200
  6
AUSGEZOGEN
 10
 356.8600
 20
 240.0000
 11
 365.1400
 21
 240.0000
  0
LINE
  8
200
  6
AUSGEZOGEN
 10
 351.0000
 20
 225.8600
 11
 351.0000
 21
 234.1400
  0
LINE
  8
200
  6
AUSGEZOGEN
 10
 365.1400
 20
 220.0000
 11
 356.8600
 21
 220.0000
  0
LINE
  8
200
  6
AUSGEZOGEN
 10
 341.0000
 20
 234.1400
 11
 341.0000
 21
 225.8600
  0
LINE
  8
200
  6
AUSGEZOGEN
 10
 326.8600
 20
 240.0000
 11
 335.1400
 21
 240.0000
  0
LINE
  8
200
  6
AUSGEZOGEN
 10
 321.0000
 20
 225.8600
 11
 321.0000
 21
 234.1400
  0
LINE
  8
200
  6
AUSGEZOGEN
 10
 335.1400
 20
 220.0000
 11
 326.8600
 21
 220.0000
  0
LINE
  8
200
  6
AUSGEZOGEN
 10
 311.0000
 20
 234.1400
 11
 311.0000
 21
 225.8600
  0
LINE
  8
200
  6
AUSGEZOGEN
 10
 296.8600
 20
 240.0000
 11
 305.1400
 21
 240.0000
  0
LINE
  8
200
  6
AUSGEZOGEN
 10
 291.0000
 20
 225.8600
 11
 291.0000
 21
 234.1400
  0
LINE
  8
200
  6
AUSGEZOGEN
 10
 305.1400
 20
 220.0000
 11
 296.8600
 21
 220.0000
  0
LINE
  8
200
  6
AUSGEZOGEN
 10
 281.0000
 20
 234.1400
 11
 281.0000
 21
 225.8600
  0
LINE
  8
200
  6
AUSGEZOGEN
 10
 266.8600
 20
 240.0000
 11
 275.1400
 21
 240.0000
  0
LINE
  8
200
  6
AUSGEZOGEN
 10
 261.0000
 20
 225.8600
 11
 261.0000
 21
 234.1400
  0
LINE
  8
200
  6
AUSGEZOGEN
 10
 275.1400
 20
 220.0000
 11
 266.8600
 21
 220.0000
  0
LINE
  8
200
  6
AUSGEZOGEN
 10
 251.0000
 20
 234.1400
 11
 251.0000
 21
 225.8600
  0
LINE
  8
200
  6
AUSGEZOGEN
 10
 236.8600
 20
 240.0000
 11
 245.1400
 21
 240.0000
  0
LINE
  8
200
  6
AUSGEZOGEN
 10
 231.0000
 20
 225.8600
 11
 231.0000
 21
 234.1400
  0
LINE
  8
200
  6
AUSGEZOGEN
 10
 245.1400
 20
 220.0000
 11
 236.8600
 21
 220.0000
  0
LINE
  8
200
  6
AUSGEZOGEN
 10
 221.0000
 20
 234.1400
 11
 221.0000
 21
 225.8600
  0
LINE
  8
200
  6
AUSGEZOGEN
 10
 206.8600
 20
 240.0000
 11
 215.1400
 21
 240.0000
  0
LINE
  8
200
  6
AUSGEZOGEN
 10
 201.0000
 20
 225.8600
 11
 201.0000
 21
 234.1400
  0
LINE
  8
200
  6
AUSGEZOGEN
 10
 215.1400
 20
 220.0000
 11
 206.8600
 21
 220.0000
  0
LINE
  8
200
  6
AUSGEZOGEN
 10
 191.0000
 20
 234.1400
 11
 191.0000
 21
 225.8600
  0
LINE
  8
200
  6
AUSGEZOGEN
 10
 176.8600
 20
 240.0000
 11
 185.1400
 21
 240.0000
  0
LINE
  8
200
  6
AUSGEZOGEN
 10
 171.0000
 20
 225.8600
 11
 171.0000
 21
 234.1400
  0
LINE
  8
200
  6
AUSGEZOGEN
 10
 185.1400
 20
 220.0000
 11
 176.8600
 21
 220.0000
  0
LINE
  8
200
  6
AUSGEZOGEN
 10
 161.0000
 20
 234.1400
 11
 161.0000
 21
 225.8600
  0
LINE
  8
200
  6
AUSGEZOGEN
 10
 146.8600
 20
 240.0000
 11
 155.1400
 21
 240.0000
  0
LINE
  8
200
  6
AUSGEZOGEN
 10
 141.0000
 20
 225.8600
 11
 141.0000
 21
 234.1400
  0
LINE
  8
200
  6
AUSGEZOGEN
 10
 155.1400
 20
 220.0000
 11
 146.8600
 21
 220.0000
  0
LINE
  8
200
  6
AUSGEZOGEN
 10
 131.0000
 20
 234.1400
 11
 131.0000
 21
 225.8600
  0
LINE
  8
200
  6
AUSGEZOGEN
 10
 116.8600
 20
 240.0000
 11
 125.1400
 21
 240.0000
  0
LINE
  8
200
  6
AUSGEZOGEN
 10
 111.0000
 20
 225.8600
 11
 111.0000
 21
 234.1400
  0
LINE
  8
200
  6
AUSGEZOGEN
 10
 125.1400
 20
 220.0000
 11
 116.8600
 21
 220.0000
  0
LINE
  8
200
  6
AUSGEZOGEN
 10
 101.0000
 20
 264.1400
 11
 101.0000
 21
 255.8600
  0
LINE
  8
200
  6
AUSGEZOGEN
 10
  86.8600
 20
 270.0000
 11
  95.1400
 21
 270.0000
  0
LINE
  8
200
  6
AUSGEZOGEN
 10
  81.0000
 20
 255.8600
 11
  81.0000
 21
 264.1400
  0
LINE
  8
200
  6
AUSGEZOGEN
 10
  95.1400
 20
 250.0000
 11
  86.8600
 21
 250.0000
  0
LINE
  8
200
  6
AUSGEZOGEN
 10
 521.0000
 20
 264.1400
 11
 521.0000
 21
 255.8600
  0
LINE
  8
200
  6
AUSGEZOGEN
 10
 506.8600
 20
 270.0000
 11
 515.1400
 21
 270.0000
  0
LINE
  8
200
  6
AUSGEZOGEN
 10
 501.0000
 20
 255.8600
 11
 501.0000
 21
 264.1400
  0
LINE
  8
200
  6
AUSGEZOGEN
 10
 515.1400
 20
 250.0000
 11
 506.8600
 21
 250.0000
  0
LINE
  8
200
  6
AUSGEZOGEN
 10
 491.0000
 20
 264.1400
 11
 491.0000
 21
 255.8600
  0
LINE
  8
200
  6
AUSGEZOGEN
 10
 476.8600
 20
 270.0000
 11
 485.1400
 21
 270.0000
  0
LINE
  8
200
  6
AUSGEZOGEN
 10
 471.0000
 20
 255.8600
 11
 471.0000
 21
 264.1400
  0
LINE
  8
200
  6
AUSGEZOGEN
 10
 485.1400
 20
 250.0000
 11
 476.8600
 21
 250.0000
  0
LINE
  8
200
  6
AUSGEZOGEN
 10
 461.0000
 20
 264.1400
 11
 461.0000
 21
 255.8600
  0
LINE
  8
200
  6
AUSGEZOGEN
 10
 446.8600
 20
 270.0000
 11
 455.1400
 21
 270.0000
  0
LINE
  8
200
  6
AUSGEZOGEN
 10
 441.0000
 20
 255.8600
 11
 441.0000
 21
 264.1400
  0
LINE
  8
200
  6
AUSGEZOGEN
 10
 455.1400
 20
 250.0000
 11
 446.8600
 21
 250.0000
  0
LINE
  8
200
  6
AUSGEZOGEN
 10
 431.0000
 20
 264.1400
 11
 431.0000
 21
 255.8600
  0
LINE
  8
200
  6
AUSGEZOGEN
 10
 416.8600
 20
 270.0000
 11
 425.1400
 21
 270.0000
  0
LINE
  8
200
  6
AUSGEZOGEN
 10
 411.0000
 20
 255.8600
 11
 411.0000
 21
 264.1400
  0
LINE
  8
200
  6
AUSGEZOGEN
 10
 425.1400
 20
 250.0000
 11
 416.8600
 21
 250.0000
  0
LINE
  8
200
  6
AUSGEZOGEN
 10
 401.0000
 20
 264.1400
 11
 401.0000
 21
 255.8600
  0
LINE
  8
200
  6
AUSGEZOGEN
 10
 386.8600
 20
 270.0000
 11
 395.1400
 21
 270.0000
  0
LINE
  8
200
  6
AUSGEZOGEN
 10
 381.0000
 20
 255.8600
 11
 381.0000
 21
 264.1400
  0
LINE
  8
200
  6
AUSGEZOGEN
 10
 395.1400
 20
 250.0000
 11
 386.8600
 21
 250.0000
  0
LINE
  8
200
  6
AUSGEZOGEN
 10
 371.0000
 20
 264.1400
 11
 371.0000
 21
 255.8600
  0
LINE
  8
200
  6
AUSGEZOGEN
 10
 356.8600
 20
 270.0000
 11
 365.1400
 21
 270.0000
  0
LINE
  8
200
  6
AUSGEZOGEN
 10
 351.0000
 20
 255.8600
 11
 351.0000
 21
 264.1400
  0
LINE
  8
200
  6
AUSGEZOGEN
 10
 365.1400
 20
 250.0000
 11
 356.8600
 21
 250.0000
  0
LINE
  8
200
  6
AUSGEZOGEN
 10
 341.0000
 20
 264.1400
 11
 341.0000
 21
 255.8600
  0
LINE
  8
200
  6
AUSGEZOGEN
 10
 326.8600
 20
 270.0000
 11
 335.1400
 21
 270.0000
  0
LINE
  8
200
  6
AUSGEZOGEN
 10
 321.0000
 20
 255.8600
 11
 321.0000
 21
 264.1400
  0
LINE
  8
200
  6
AUSGEZOGEN
 10
 335.1400
 20
 250.0000
 11
 326.8600
 21
 250.0000
  0
LINE
  8
200
  6
AUSGEZOGEN
 10
 311.0000
 20
 264.1400
 11
 311.0000
 21
 255.8600
  0
LINE
  8
200
  6
AUSGEZOGEN
 10
 296.8600
 20
 270.0000
 11
 305.1400
 21
 270.0000
  0
LINE
  8
200
  6
AUSGEZOGEN
 10
 291.0000
 20
 255.8600
 11
 291.0000
 21
 264.1400
  0
LINE
  8
200
  6
AUSGEZOGEN
 10
 305.1400
 20
 250.0000
 11
 296.8600
 21
 250.0000
  0
LINE
  8
200
  6
AUSGEZOGEN
 10
 281.0000
 20
 264.1400
 11
 281.0000
 21
 255.8600
  0
LINE
  8
200
  6
AUSGEZOGEN
 10
 266.8600
 20
 270.0000
 11
 275.1400
 21
 270.0000
  0
LINE
  8
200
  6
AUSGEZOGEN
 10
 261.0000
 20
 255.8600
 11
 261.0000
 21
 264.1400
  0
LINE
  8
200
  6
AUSGEZOGEN
 10
 275.1400
 20
 250.0000
 11
 266.8600
 21
 250.0000
  0
LINE
  8
200
  6
AUSGEZOGEN
 10
 251.0000
 20
 264.1400
 11
 251.0000
 21
 255.8600
  0
LINE
  8
200
  6
AUSGEZOGEN
 10
 236.8600
 20
 270.0000
 11
 245.1400
 21
 270.0000
  0
LINE
  8
200
  6
AUSGEZOGEN
 10
 231.0000
 20
 255.8600
 11
 231.0000
 21
 264.1400
  0
LINE
  8
200
  6
AUSGEZOGEN
 10
 245.1400
 20
 250.0000
 11
 236.8600
 21
 250.0000
  0
LINE
  8
200
  6
AUSGEZOGEN
 10
 221.0000
 20
 264.1400
 11
 221.0000
 21
 255.8600
  0
LINE
  8
200
  6
AUSGEZOGEN
 10
 206.8600
 20
 270.0000
 11
 215.1400
 21
 270.0000
  0
LINE
  8
200
  6
AUSGEZOGEN
 10
 201.0000
 20
 255.8600
 11
 201.0000
 21
 264.1400
  0
LINE
  8
200
  6
AUSGEZOGEN
 10
 215.1400
 20
 250.0000
 11
 206.8600
 21
 250.0000
  0
LINE
  8
200
  6
AUSGEZOGEN
 10
 191.0000
 20
 264.1400
 11
 191.0000
 21
 255.8600
  0
LINE
  8
200
  6
AUSGEZOGEN
 10
 176.8600
 20
 270.0000
 11
 185.1400
 21
 270.0000
  0
LINE
  8
200
  6
AUSGEZOGEN
 10
 171.0000
 20
 255.8600
 11
 171.0000
 21
 264.1400
  0
LINE
  8
200
  6
AUSGEZOGEN
 10
 185.1400
 20
 250.0000
 11
 176.8600
 21
 250.0000
  0
LINE
  8
200
  6
AUSGEZOGEN
 10
 161.0000
 20
 264.1400
 11
 161.0000
 21
 255.8600
  0
LINE
  8
200
  6
AUSGEZOGEN
 10
 146.8600
 20
 270.0000
 11
 155.1400
 21
 270.0000
  0
LINE
  8
200
  6
AUSGEZOGEN
 10
 141.0000
 20
 255.8600
 11
 141.0000
 21
 264.1400
  0
LINE
  8
200
  6
AUSGEZOGEN
 10
 155.1400
 20
 250.0000
 11
 146.8600
 21
 250.0000
  0
LINE
  8
200
  6
AUSGEZOGEN
 10
 131.0000
 20
 264.1400
 11
 131.0000
 21
 255.8600
  0
LINE
  8
200
  6
AUSGEZOGEN
 10
 116.8600
 20
 270.0000
 11
 125.1400
 21
 270.0000
  0
LINE
  8
200
  6
AUSGEZOGEN
 10
 111.0000
 20
 255.8600
 11
 111.0000
 21
 264.1400
  0
LINE
  8
200
  6
AUSGEZOGEN
 10
 125.1400
 20
 250.0000
 11
 116.8600
 21
 250.0000
  0
LINE
  8
200
  6
AUSGEZOGEN
 10
1031.0000
 20
 354.1400
 11
1031.0000
 21
 345.8600
  0
LINE
  8
200
  6
AUSGEZOGEN
 10
1016.8600
 20
 360.0000
 11
1025.1400
 21
 360.0000
  0
LINE
  8
200
  6
AUSGEZOGEN
 10
1011.0000
 20
 345.8600
 11
1011.0000
 21
 354.1400
  0
LINE
  8
200
  6
AUSGEZOGEN
 10
1025.1400
 20
 340.0000
 11
1016.8600
 21
 340.0000
  0
LINE
  8
200
  6
AUSGEZOGEN
 10
1001.0000
 20
 354.1400
 11
1001.0000
 21
 345.8600
  0
LINE
  8
200
  6
AUSGEZOGEN
 10
 986.8600
 20
 360.0000
 11
 995.1400
 21
 360.0000
  0
LINE
  8
200
  6
AUSGEZOGEN
 10
 981.0000
 20
 345.8600
 11
 981.0000
 21
 354.1400
  0
LINE
  8
200
  6
AUSGEZOGEN
 10
 995.1400
 20
 340.0000
 11
 986.8600
 21
 340.0000
  0
LINE
  8
200
  6
AUSGEZOGEN
 10
 971.0000
 20
 354.1400
 11
 971.0000
 21
 345.8600
  0
LINE
  8
200
  6
AUSGEZOGEN
 10
 956.8600
 20
 360.0000
 11
 965.1400
 21
 360.0000
  0
LINE
  8
200
  6
AUSGEZOGEN
 10
 951.0000
 20
 345.8600
 11
 951.0000
 21
 354.1400
  0
LINE
  8
200
  6
AUSGEZOGEN
 10
 965.1400
 20
 340.0000
 11
 956.8600
 21
 340.0000
  0
LINE
  8
200
  6
AUSGEZOGEN
 10
 941.0000
 20
 354.1400
 11
 941.0000
 21
 345.8600
  0
LINE
  8
200
  6
AUSGEZOGEN
 10
 926.8600
 20
 360.0000
 11
 935.1400
 21
 360.0000
  0
LINE
  8
200
  6
AUSGEZOGEN
 10
 921.0000
 20
 345.8600
 11
 921.0000
 21
 354.1400
  0
LINE
  8
200
  6
AUSGEZOGEN
 10
 935.1400
 20
 340.0000
 11
 926.8600
 21
 340.0000
  0
LINE
  8
200
  6
AUSGEZOGEN
 10
 911.0000
 20
 354.1400
 11
 911.0000
 21
 345.8600
  0
LINE
  8
200
  6
AUSGEZOGEN
 10
 896.8600
 20
 360.0000
 11
 905.1400
 21
 360.0000
  0
LINE
  8
200
  6
AUSGEZOGEN
 10
 891.0000
 20
 345.8600
 11
 891.0000
 21
 354.1400
  0
LINE
  8
200
  6
AUSGEZOGEN
 10
 905.1400
 20
 340.0000
 11
 896.8600
 21
 340.0000
  0
LINE
  8
200
  6
AUSGEZOGEN
 10
 881.0000
 20
 354.1400
 11
 881.0000
 21
 345.8600
  0
LINE
  8
200
  6
AUSGEZOGEN
 10
 866.8600
 20
 360.0000
 11
 875.1400
 21
 360.0000
  0
LINE
  8
200
  6
AUSGEZOGEN
 10
 861.0000
 20
 345.8600
 11
 861.0000
 21
 354.1400
  0
LINE
  8
200
  6
AUSGEZOGEN
 10
 875.1400
 20
 340.0000
 11
 866.8600
 21
 340.0000
  0
LINE
  8
200
  6
AUSGEZOGEN
 10
 851.0000
 20
 354.1400
 11
 851.0000
 21
 345.8600
  0
LINE
  8
200
  6
AUSGEZOGEN
 10
 836.8600
 20
 360.0000
 11
 845.1400
 21
 360.0000
  0
LINE
  8
200
  6
AUSGEZOGEN
 10
 831.0000
 20
 345.8600
 11
 831.0000
 21
 354.1400
  0
LINE
  8
200
  6
AUSGEZOGEN
 10
 845.1400
 20
 340.0000
 11
 836.8600
 21
 340.0000
  0
LINE
  8
200
  6
AUSGEZOGEN
 10
 821.0000
 20
 354.1400
 11
 821.0000
 21
 345.8600
  0
LINE
  8
200
  6
AUSGEZOGEN
 10
 806.8600
 20
 360.0000
 11
 815.1400
 21
 360.0000
  0
LINE
  8
200
  6
AUSGEZOGEN
 10
 801.0000
 20
 345.8600
 11
 801.0000
 21
 354.1400
  0
LINE
  8
200
  6
AUSGEZOGEN
 10
 815.1400
 20
 340.0000
 11
 806.8600
 21
 340.0000
  0
LINE
  8
200
  6
AUSGEZOGEN
 10
 791.0000
 20
 354.1400
 11
 791.0000
 21
 345.8600
  0
LINE
  8
200
  6
AUSGEZOGEN
 10
 776.8600
 20
 360.0000
 11
 785.1400
 21
 360.0000
  0
LINE
  8
200
  6
AUSGEZOGEN
 10
 771.0000
 20
 345.8600
 11
 771.0000
 21
 354.1400
  0
LINE
  8
200
  6
AUSGEZOGEN
 10
 785.1400
 20
 340.0000
 11
 776.8600
 21
 340.0000
  0
LINE
  8
200
  6
AUSGEZOGEN
 10
 761.0000
 20
 354.1400
 11
 761.0000
 21
 345.8600
  0
LINE
  8
200
  6
AUSGEZOGEN
 10
 746.8600
 20
 360.0000
 11
 755.1400
 21
 360.0000
  0
LINE
  8
200
  6
AUSGEZOGEN
 10
 741.0000
 20
 345.8600
 11
 741.0000
 21
 354.1400
  0
LINE
  8
200
  6
AUSGEZOGEN
 10
 755.1400
 20
 340.0000
 11
 746.8600
 21
 340.0000
  0
LINE
  8
200
  6
AUSGEZOGEN
 10
 731.0000
 20
 354.1400
 11
 731.0000
 21
 345.8600
  0
LINE
  8
200
  6
AUSGEZOGEN
 10
 716.8600
 20
 360.0000
 11
 725.1400
 21
 360.0000
  0
LINE
  8
200
  6
AUSGEZOGEN
 10
 711.0000
 20
 345.8600
 11
 711.0000
 21
 354.1400
  0
LINE
  8
200
  6
AUSGEZOGEN
 10
 725.1400
 20
 340.0000
 11
 716.8600
 21
 340.0000
  0
LINE
  8
200
  6
AUSGEZOGEN
 10
 701.0000
 20
 354.1400
 11
 701.0000
 21
 345.8600
  0
LINE
  8
200
  6
AUSGEZOGEN
 10
 686.8600
 20
 360.0000
 11
 695.1400
 21
 360.0000
  0
LINE
  8
200
  6
AUSGEZOGEN
 10
 681.0000
 20
 345.8600
 11
 681.0000
 21
 354.1400
  0
LINE
  8
200
  6
AUSGEZOGEN
 10
 695.1400
 20
 340.0000
 11
 686.8600
 21
 340.0000
  0
LINE
  8
200
  6
AUSGEZOGEN
 10
 671.0000
 20
 354.1400
 11
 671.0000
 21
 345.8600
  0
LINE
  8
200
  6
AUSGEZOGEN
 10
 656.8600
 20
 360.0000
 11
 665.1400
 21
 360.0000
  0
LINE
  8
200
  6
AUSGEZOGEN
 10
 651.0000
 20
 345.8600
 11
 651.0000
 21
 354.1400
  0
LINE
  8
200
  6
AUSGEZOGEN
 10
 665.1400
 20
 340.0000
 11
 656.8600
 21
 340.0000
  0
LINE
  8
200
  6
AUSGEZOGEN
 10
 641.0000
 20
 354.1400
 11
 641.0000
 21
 345.8600
  0
LINE
  8
200
  6
AUSGEZOGEN
 10
 626.8600
 20
 360.0000
 11
 635.1400
 21
 360.0000
  0
LINE
  8
200
  6
AUSGEZOGEN
 10
 621.0000
 20
 345.8600
 11
 621.0000
 21
 354.1400
  0
LINE
  8
200
  6
AUSGEZOGEN
 10
 635.1400
 20
 340.0000
 11
 626.8600
 21
 340.0000
  0
LINE
  8
200
  6
AUSGEZOGEN
 10
 611.0000
 20
 354.1400
 11
 611.0000
 21
 345.8600
  0
LINE
  8
200
  6
AUSGEZOGEN
 10
 596.8600
 20
 360.0000
 11
 605.1400
 21
 360.0000
  0
LINE
  8
200
  6
AUSGEZOGEN
 10
 591.0000
 20
 345.8600
 11
 591.0000
 21
 354.1400
  0
LINE
  8
200
  6
AUSGEZOGEN
 10
 605.1400
 20
 340.0000
 11
 596.8600
 21
 340.0000
  0
LINE
  8
200
  6
AUSGEZOGEN
 10
 581.0000
 20
 354.1400
 11
 581.0000
 21
 345.8600
  0
LINE
  8
200
  6
AUSGEZOGEN
 10
 566.8600
 20
 360.0000
 11
 575.1400
 21
 360.0000
  0
LINE
  8
200
  6
AUSGEZOGEN
 10
 561.0000
 20
 345.8600
 11
 561.0000
 21
 354.1400
  0
LINE
  8
200
  6
AUSGEZOGEN
 10
 575.1400
 20
 340.0000
 11
 566.8600
 21
 340.0000
  0
LINE
  8
200
  6
AUSGEZOGEN
 10
 551.0000
 20
 354.1400
 11
 551.0000
 21
 345.8600
  0
LINE
  8
200
  6
AUSGEZOGEN
 10
 536.8600
 20
 360.0000
 11
 545.1400
 21
 360.0000
  0
LINE
  8
200
  6
AUSGEZOGEN
 10
 531.0000
 20
 345.8600
 11
 531.0000
 21
 354.1400
  0
LINE
  8
200
  6
AUSGEZOGEN
 10
 545.1400
 20
 340.0000
 11
 536.8600
 21
 340.0000
  0
LINE
  8
200
  6
AUSGEZOGEN
 10
1031.0000
 20
 315.8600
 11
1031.0000
 21
 324.1400
  0
LINE
  8
200
  6
AUSGEZOGEN
 10
1016.8600
 20
 330.0000
 11
1025.1400
 21
 330.0000
  0
LINE
  8
200
  6
AUSGEZOGEN
 10
1011.0000
 20
 315.8600
 11
1011.0000
 21
 324.1400
  0
LINE
  8
200
  6
AUSGEZOGEN
 10
1025.1400
 20
 310.0000
 11
1016.8600
 21
 310.0000
  0
LINE
  8
200
  6
AUSGEZOGEN
 10
1001.0000
 20
 324.1400
 11
1001.0000
 21
 315.8600
  0
LINE
  8
200
  6
AUSGEZOGEN
 10
 986.8600
 20
 330.0000
 11
 995.1400
 21
 330.0000
  0
LINE
  8
200
  6
AUSGEZOGEN
 10
 981.0000
 20
 315.8600
 11
 981.0000
 21
 324.1400
  0
LINE
  8
200
  6
AUSGEZOGEN
 10
 995.1400
 20
 310.0000
 11
 986.8600
 21
 310.0000
  0
LINE
  8
200
  6
AUSGEZOGEN
 10
 971.0000
 20
 324.1400
 11
 971.0000
 21
 315.8600
  0
LINE
  8
200
  6
AUSGEZOGEN
 10
 956.8600
 20
 330.0000
 11
 965.1400
 21
 330.0000
  0
LINE
  8
200
  6
AUSGEZOGEN
 10
 951.0000
 20
 315.8600
 11
 951.0000
 21
 324.1400
  0
LINE
  8
200
  6
AUSGEZOGEN
 10
 965.1400
 20
 310.0000
 11
 956.8600
 21
 310.0000
  0
LINE
  8
200
  6
AUSGEZOGEN
 10
 941.0000
 20
 324.1400
 11
 941.0000
 21
 315.8600
  0
LINE
  8
200
  6
AUSGEZOGEN
 10
 926.8600
 20
 330.0000
 11
 935.1400
 21
 330.0000
  0
LINE
  8
200
  6
AUSGEZOGEN
 10
 921.0000
 20
 315.8600
 11
 921.0000
 21
 324.1400
  0
LINE
  8
200
  6
AUSGEZOGEN
 10
 935.1400
 20
 310.0000
 11
 926.8600
 21
 310.0000
  0
LINE
  8
200
  6
AUSGEZOGEN
 10
 911.0000
 20
 324.1400
 11
 911.0000
 21
 315.8600
  0
LINE
  8
200
  6
AUSGEZOGEN
 10
 896.8600
 20
 330.0000
 11
 905.1400
 21
 330.0000
  0
LINE
  8
200
  6
AUSGEZOGEN
 10
 891.0000
 20
 315.8600
 11
 891.0000
 21
 324.1400
  0
LINE
  8
200
  6
AUSGEZOGEN
 10
 905.1400
 20
 310.0000
 11
 896.8600
 21
 310.0000
  0
LINE
  8
200
  6
AUSGEZOGEN
 10
 881.0000
 20
 324.1400
 11
 881.0000
 21
 315.8600
  0
LINE
  8
200
  6
AUSGEZOGEN
 10
 866.8600
 20
 330.0000
 11
 875.1400
 21
 330.0000
  0
LINE
  8
200
  6
AUSGEZOGEN
 10
 861.0000
 20
 315.8600
 11
 861.0000
 21
 324.1400
  0
LINE
  8
200
  6
AUSGEZOGEN
 10
 875.1400
 20
 310.0000
 11
 866.8600
 21
 310.0000
  0
LINE
  8
200
  6
AUSGEZOGEN
 10
 851.0000
 20
 324.1400
 11
 851.0000
 21
 315.8600
  0
LINE
  8
200
  6
AUSGEZOGEN
 10
 836.8600
 20
 330.0000
 11
 845.1400
 21
 330.0000
  0
LINE
  8
200
  6
AUSGEZOGEN
 10
 831.0000
 20
 315.8600
 11
 831.0000
 21
 324.1400
  0
LINE
  8
200
  6
AUSGEZOGEN
 10
 845.1400
 20
 310.0000
 11
 836.8600
 21
 310.0000
  0
LINE
  8
200
  6
AUSGEZOGEN
 10
 821.0000
 20
 324.1400
 11
 821.0000
 21
 315.8600
  0
LINE
  8
200
  6
AUSGEZOGEN
 10
 806.8600
 20
 330.0000
 11
 815.1400
 21
 330.0000
  0
LINE
  8
200
  6
AUSGEZOGEN
 10
 801.0000
 20
 315.8600
 11
 801.0000
 21
 324.1400
  0
LINE
  8
200
  6
AUSGEZOGEN
 10
 815.1400
 20
 310.0000
 11
 806.8600
 21
 310.0000
  0
LINE
  8
200
  6
AUSGEZOGEN
 10
 791.0000
 20
 324.1400
 11
 791.0000
 21
 315.8600
  0
LINE
  8
200
  6
AUSGEZOGEN
 10
 776.8600
 20
 330.0000
 11
 785.1400
 21
 330.0000
  0
LINE
  8
200
  6
AUSGEZOGEN
 10
 771.0000
 20
 315.8600
 11
 771.0000
 21
 324.1400
  0
LINE
  8
200
  6
AUSGEZOGEN
 10
 785.1400
 20
 310.0000
 11
 776.8600
 21
 310.0000
  0
LINE
  8
200
  6
AUSGEZOGEN
 10
 761.0000
 20
 324.1400
 11
 761.0000
 21
 315.8600
  0
LINE
  8
200
  6
AUSGEZOGEN
 10
 746.8600
 20
 330.0000
 11
 755.1400
 21
 330.0000
  0
LINE
  8
200
  6
AUSGEZOGEN
 10
 741.0000
 20
 315.8600
 11
 741.0000
 21
 324.1400
  0
LINE
  8
200
  6
AUSGEZOGEN
 10
 755.1400
 20
 310.0000
 11
 746.8600
 21
 310.0000
  0
LINE
  8
200
  6
AUSGEZOGEN
 10
 731.0000
 20
 324.1400
 11
 731.0000
 21
 315.8600
  0
LINE
  8
200
  6
AUSGEZOGEN
 10
 716.8600
 20
 330.0000
 11
 725.1400
 21
 330.0000
  0
LINE
  8
200
  6
AUSGEZOGEN
 10
 711.0000
 20
 315.8600
 11
 711.0000
 21
 324.1400
  0
LINE
  8
200
  6
AUSGEZOGEN
 10
 725.1400
 20
 310.0000
 11
 716.8600
 21
 310.0000
  0
LINE
  8
200
  6
AUSGEZOGEN
 10
 701.0000
 20
 324.1400
 11
 701.0000
 21
 315.8600
  0
LINE
  8
200
  6
AUSGEZOGEN
 10
 686.8600
 20
 330.0000
 11
 695.1400
 21
 330.0000
  0
LINE
  8
200
  6
AUSGEZOGEN
 10
 681.0000
 20
 315.8600
 11
 681.0000
 21
 324.1400
  0
LINE
  8
200
  6
AUSGEZOGEN
 10
 695.1400
 20
 310.0000
 11
 686.8600
 21
 310.0000
  0
LINE
  8
200
  6
AUSGEZOGEN
 10
 671.0000
 20
 324.1400
 11
 671.0000
 21
 315.8600
  0
LINE
  8
200
  6
AUSGEZOGEN
 10
 656.8600
 20
 330.0000
 11
 665.1400
 21
 330.0000
  0
LINE
  8
200
  6
AUSGEZOGEN
 10
 651.0000
 20
 315.8600
 11
 651.0000
 21
 324.1400
  0
LINE
  8
200
  6
AUSGEZOGEN
 10
 665.1400
 20
 310.0000
 11
 656.8600
 21
 310.0000
  0
LINE
  8
200
  6
AUSGEZOGEN
 10
 641.0000
 20
 324.1400
 11
 641.0000
 21
 315.8600
  0
LINE
  8
200
  6
AUSGEZOGEN
 10
 626.8600
 20
 330.0000
 11
 635.1400
 21
 330.0000
  0
LINE
  8
200
  6
AUSGEZOGEN
 10
 621.0000
 20
 315.8600
 11
 621.0000
 21
 324.1400
  0
LINE
  8
200
  6
AUSGEZOGEN
 10
 635.1400
 20
 310.0000
 11
 626.8600
 21
 310.0000
  0
LINE
  8
200
  6
AUSGEZOGEN
 10
 611.0000
 20
 324.1400
 11
 611.0000
 21
 315.8600
  0
LINE
  8
200
  6
AUSGEZOGEN
 10
 596.8600
 20
 330.0000
 11
 605.1400
 21
 330.0000
  0
LINE
  8
200
  6
AUSGEZOGEN
 10
 591.0000
 20
 315.8600
 11
 591.0000
 21
 324.1400
  0
LINE
  8
200
  6
AUSGEZOGEN
 10
 605.1400
 20
 310.0000
 11
 596.8600
 21
 310.0000
  0
LINE
  8
200
  6
AUSGEZOGEN
 10
 581.0000
 20
 324.1400
 11
 581.0000
 21
 315.8600
  0
LINE
  8
200
  6
AUSGEZOGEN
 10
 566.8600
 20
 330.0000
 11
 575.1400
 21
 330.0000
  0
LINE
  8
200
  6
AUSGEZOGEN
 10
 561.0000
 20
 315.8600
 11
 561.0000
 21
 324.1400
  0
LINE
  8
200
  6
AUSGEZOGEN
 10
 575.1400
 20
 310.0000
 11
 566.8600
 21
 310.0000
  0
LINE
  8
200
  6
AUSGEZOGEN
 10
 551.0000
 20
 324.1400
 11
 551.0000
 21
 315.8600
  0
LINE
  8
200
  6
AUSGEZOGEN
 10
 536.8600
 20
 330.0000
 11
 545.1400
 21
 330.0000
  0
LINE
  8
200
  6
AUSGEZOGEN
 10
 531.0000
 20
 315.8600
 11
 531.0000
 21
 324.1400
  0
LINE
  8
200
  6
AUSGEZOGEN
 10
 545.1400
 20
 310.0000
 11
 536.8600
 21
 310.0000
  0
LINE
  8
200
  6
AUSGEZOGEN
 10
1031.0000
 20
 285.8600
 11
1031.0000
 21
 294.1400
  0
LINE
  8
200
  6
AUSGEZOGEN
 10
1016.8600
 20
 300.0000
 11
1025.1400
 21
 300.0000
  0
LINE
  8
200
  6
AUSGEZOGEN
 10
1011.0000
 20
 285.8600
 11
1011.0000
 21
 294.1400
  0
LINE
  8
200
  6
AUSGEZOGEN
 10
1025.1400
 20
 280.0000
 11
1016.8600
 21
 280.0000
  0
LINE
  8
200
  6
AUSGEZOGEN
 10
1001.0000
 20
 294.1400
 11
1001.0000
 21
 285.8600
  0
LINE
  8
200
  6
AUSGEZOGEN
 10
 986.8600
 20
 300.0000
 11
 995.1400
 21
 300.0000
  0
LINE
  8
200
  6
AUSGEZOGEN
 10
 981.0000
 20
 285.8600
 11
 981.0000
 21
 294.1400
  0
LINE
  8
200
  6
AUSGEZOGEN
 10
 995.1400
 20
 280.0000
 11
 986.8600
 21
 280.0000
  0
LINE
  8
200
  6
AUSGEZOGEN
 10
 971.0000
 20
 294.1400
 11
 971.0000
 21
 285.8600
  0
LINE
  8
200
  6
AUSGEZOGEN
 10
 956.8600
 20
 300.0000
 11
 965.1400
 21
 300.0000
  0
LINE
  8
200
  6
AUSGEZOGEN
 10
 951.0000
 20
 285.8600
 11
 951.0000
 21
 294.1400
  0
LINE
  8
200
  6
AUSGEZOGEN
 10
 965.1400
 20
 280.0000
 11
 956.8600
 21
 280.0000
  0
LINE
  8
200
  6
AUSGEZOGEN
 10
 941.0000
 20
 294.1400
 11
 941.0000
 21
 285.8600
  0
LINE
  8
200
  6
AUSGEZOGEN
 10
 926.8600
 20
 300.0000
 11
 935.1400
 21
 300.0000
  0
LINE
  8
200
  6
AUSGEZOGEN
 10
 921.0000
 20
 285.8600
 11
 921.0000
 21
 294.1400
  0
LINE
  8
200
  6
AUSGEZOGEN
 10
 935.1400
 20
 280.0000
 11
 926.8600
 21
 280.0000
  0
LINE
  8
200
  6
AUSGEZOGEN
 10
 911.0000
 20
 294.1400
 11
 911.0000
 21
 285.8600
  0
LINE
  8
200
  6
AUSGEZOGEN
 10
 896.8600
 20
 300.0000
 11
 905.1400
 21
 300.0000
  0
LINE
  8
200
  6
AUSGEZOGEN
 10
 891.0000
 20
 285.8600
 11
 891.0000
 21
 294.1400
  0
LINE
  8
200
  6
AUSGEZOGEN
 10
 905.1400
 20
 280.0000
 11
 896.8600
 21
 280.0000
  0
LINE
  8
200
  6
AUSGEZOGEN
 10
 881.0000
 20
 294.1400
 11
 881.0000
 21
 285.8600
  0
LINE
  8
200
  6
AUSGEZOGEN
 10
 866.8600
 20
 300.0000
 11
 875.1400
 21
 300.0000
  0
LINE
  8
200
  6
AUSGEZOGEN
 10
 861.0000
 20
 285.8600
 11
 861.0000
 21
 294.1400
  0
LINE
  8
200
  6
AUSGEZOGEN
 10
 875.1400
 20
 280.0000
 11
 866.8600
 21
 280.0000
  0
LINE
  8
200
  6
AUSGEZOGEN
 10
 851.0000
 20
 294.1400
 11
 851.0000
 21
 285.8600
  0
LINE
  8
200
  6
AUSGEZOGEN
 10
 836.8600
 20
 300.0000
 11
 845.1400
 21
 300.0000
  0
LINE
  8
200
  6
AUSGEZOGEN
 10
 831.0000
 20
 285.8600
 11
 831.0000
 21
 294.1400
  0
LINE
  8
200
  6
AUSGEZOGEN
 10
 845.1400
 20
 280.0000
 11
 836.8600
 21
 280.0000
  0
LINE
  8
200
  6
AUSGEZOGEN
 10
 821.0000
 20
 294.1400
 11
 821.0000
 21
 285.8600
  0
LINE
  8
200
  6
AUSGEZOGEN
 10
 806.8600
 20
 300.0000
 11
 815.1400
 21
 300.0000
  0
LINE
  8
200
  6
AUSGEZOGEN
 10
 801.0000
 20
 285.8600
 11
 801.0000
 21
 294.1400
  0
LINE
  8
200
  6
AUSGEZOGEN
 10
 815.1400
 20
 280.0000
 11
 806.8600
 21
 280.0000
  0
LINE
  8
200
  6
AUSGEZOGEN
 10
 791.0000
 20
 294.1400
 11
 791.0000
 21
 285.8600
  0
LINE
  8
200
  6
AUSGEZOGEN
 10
 776.8600
 20
 300.0000
 11
 785.1400
 21
 300.0000
  0
LINE
  8
200
  6
AUSGEZOGEN
 10
 771.0000
 20
 285.8600
 11
 771.0000
 21
 294.1400
  0
LINE
  8
200
  6
AUSGEZOGEN
 10
 785.1400
 20
 280.0000
 11
 776.8600
 21
 280.0000
  0
LINE
  8
200
  6
AUSGEZOGEN
 10
 761.0000
 20
 294.1400
 11
 761.0000
 21
 285.8600
  0
LINE
  8
200
  6
AUSGEZOGEN
 10
 746.8600
 20
 300.0000
 11
 755.1400
 21
 300.0000
  0
LINE
  8
200
  6
AUSGEZOGEN
 10
 741.0000
 20
 285.8600
 11
 741.0000
 21
 294.1400
  0
LINE
  8
200
  6
AUSGEZOGEN
 10
 755.1400
 20
 280.0000
 11
 746.8600
 21
 280.0000
  0
LINE
  8
200
  6
AUSGEZOGEN
 10
 731.0000
 20
 294.1400
 11
 731.0000
 21
 285.8600
  0
LINE
  8
200
  6
AUSGEZOGEN
 10
 716.8600
 20
 300.0000
 11
 725.1400
 21
 300.0000
  0
LINE
  8
200
  6
AUSGEZOGEN
 10
 711.0000
 20
 285.8600
 11
 711.0000
 21
 294.1400
  0
LINE
  8
200
  6
AUSGEZOGEN
 10
 725.1400
 20
 280.0000
 11
 716.8600
 21
 280.0000
  0
LINE
  8
200
  6
AUSGEZOGEN
 10
 701.0000
 20
 294.1400
 11
 701.0000
 21
 285.8600
  0
LINE
  8
200
  6
AUSGEZOGEN
 10
 686.8600
 20
 300.0000
 11
 695.1400
 21
 300.0000
  0
LINE
  8
200
  6
AUSGEZOGEN
 10
 681.0000
 20
 285.8600
 11
 681.0000
 21
 294.1400
  0
LINE
  8
200
  6
AUSGEZOGEN
 10
 695.1400
 20
 280.0000
 11
 686.8600
 21
 280.0000
  0
LINE
  8
200
  6
AUSGEZOGEN
 10
 671.0000
 20
 294.1400
 11
 671.0000
 21
 285.8600
  0
LINE
  8
200
  6
AUSGEZOGEN
 10
 656.8600
 20
 300.0000
 11
 665.1400
 21
 300.0000
  0
LINE
  8
200
  6
AUSGEZOGEN
 10
 651.0000
 20
 285.8600
 11
 651.0000
 21
 294.1400
  0
LINE
  8
200
  6
AUSGEZOGEN
 10
 665.1400
 20
 280.0000
 11
 656.8600
 21
 280.0000
  0
LINE
  8
200
  6
AUSGEZOGEN
 10
 641.0000
 20
 294.1400
 11
 641.0000
 21
 285.8600
  0
LINE
  8
200
  6
AUSGEZOGEN
 10
 626.8600
 20
 300.0000
 11
 635.1400
 21
 300.0000
  0
LINE
  8
200
  6
AUSGEZOGEN
 10
 621.0000
 20
 285.8600
 11
 621.0000
 21
 294.1400
  0
LINE
  8
200
  6
AUSGEZOGEN
 10
 635.1400
 20
 280.0000
 11
 626.8600
 21
 280.0000
  0
LINE
  8
200
  6
AUSGEZOGEN
 10
 611.0000
 20
 294.1400
 11
 611.0000
 21
 285.8600
  0
LINE
  8
200
  6
AUSGEZOGEN
 10
 596.8600
 20
 300.0000
 11
 605.1400
 21
 300.0000
  0
LINE
  8
200
  6
AUSGEZOGEN
 10
 591.0000
 20
 285.8600
 11
 591.0000
 21
 294.1400
  0
LINE
  8
200
  6
AUSGEZOGEN
 10
 605.1400
 20
 280.0000
 11
 596.8600
 21
 280.0000
  0
LINE
  8
200
  6
AUSGEZOGEN
 10
 581.0000
 20
 294.1400
 11
 581.0000
 21
 285.8600
  0
LINE
  8
200
  6
AUSGEZOGEN
 10
 566.8600
 20
 300.0000
 11
 575.1400
 21
 300.0000
  0
LINE
  8
200
  6
AUSGEZOGEN
 10
 561.0000
 20
 285.8600
 11
 561.0000
 21
 294.1400
  0
LINE
  8
200
  6
AUSGEZOGEN
 10
 575.1400
 20
 280.0000
 11
 566.8600
 21
 280.0000
  0
LINE
  8
200
  6
AUSGEZOGEN
 10
 551.0000
 20
 294.1400
 11
 551.0000
 21
 285.8600
  0
LINE
  8
200
  6
AUSGEZOGEN
 10
 536.8600
 20
 300.0000
 11
 545.1400
 21
 300.0000
  0
LINE
  8
200
  6
AUSGEZOGEN
 10
 531.0000
 20
 285.8600
 11
 531.0000
 21
 294.1400
  0
LINE
  8
200
  6
AUSGEZOGEN
 10
 545.1400
 20
 280.0000
 11
 536.8600
 21
 280.0000
  0
LINE
  8
200
  6
AUSGEZOGEN
 10
1031.0000
 20
 105.8600
 11
1031.0000
 21
 114.1400
  0
LINE
  8
200
  6
AUSGEZOGEN
 10
1016.8600
 20
 120.0000
 11
1025.1400
 21
 120.0000
  0
LINE
  8
200
  6
AUSGEZOGEN
 10
1011.0000
 20
 105.8600
 11
1011.0000
 21
 114.1400
  0
LINE
  8
200
  6
AUSGEZOGEN
 10
1025.1400
 20
 100.0000
 11
1016.8600
 21
 100.0000
  0
LINE
  8
200
  6
AUSGEZOGEN
 10
1001.0000
 20
 114.1400
 11
1001.0000
 21
 105.8600
  0
LINE
  8
200
  6
AUSGEZOGEN
 10
 986.8600
 20
 120.0000
 11
 995.1400
 21
 120.0000
  0
LINE
  8
200
  6
AUSGEZOGEN
 10
 981.0000
 20
 105.8600
 11
 981.0000
 21
 114.1400
  0
LINE
  8
200
  6
AUSGEZOGEN
 10
 995.1400
 20
 100.0000
 11
 986.8600
 21
 100.0000
  0
LINE
  8
200
  6
AUSGEZOGEN
 10
 971.0000
 20
 114.1400
 11
 971.0000
 21
 105.8600
  0
LINE
  8
200
  6
AUSGEZOGEN
 10
 956.8600
 20
 120.0000
 11
 965.1400
 21
 120.0000
  0
LINE
  8
200
  6
AUSGEZOGEN
 10
 951.0000
 20
 105.8600
 11
 951.0000
 21
 114.1400
  0
LINE
  8
200
  6
AUSGEZOGEN
 10
 965.1400
 20
 100.0000
 11
 956.8600
 21
 100.0000
  0
LINE
  8
200
  6
AUSGEZOGEN
 10
 941.0000
 20
 114.1400
 11
 941.0000
 21
 105.8600
  0
LINE
  8
200
  6
AUSGEZOGEN
 10
 926.8600
 20
 120.0000
 11
 935.1400
 21
 120.0000
  0
LINE
  8
200
  6
AUSGEZOGEN
 10
 921.0000
 20
 105.8600
 11
 921.0000
 21
 114.1400
  0
LINE
  8
200
  6
AUSGEZOGEN
 10
 935.1400
 20
 100.0000
 11
 926.8600
 21
 100.0000
  0
LINE
  8
200
  6
AUSGEZOGEN
 10
 911.0000
 20
 114.1400
 11
 911.0000
 21
 105.8600
  0
LINE
  8
200
  6
AUSGEZOGEN
 10
 896.8600
 20
 120.0000
 11
 905.1400
 21
 120.0000
  0
LINE
  8
200
  6
AUSGEZOGEN
 10
 891.0000
 20
 105.8600
 11
 891.0000
 21
 114.1400
  0
LINE
  8
200
  6
AUSGEZOGEN
 10
 905.1400
 20
 100.0000
 11
 896.8600
 21
 100.0000
  0
LINE
  8
200
  6
AUSGEZOGEN
 10
 881.0000
 20
 114.1400
 11
 881.0000
 21
 105.8600
  0
LINE
  8
200
  6
AUSGEZOGEN
 10
 866.8600
 20
 120.0000
 11
 875.1400
 21
 120.0000
  0
LINE
  8
200
  6
AUSGEZOGEN
 10
 861.0000
 20
 105.8600
 11
 861.0000
 21
 114.1400
  0
LINE
  8
200
  6
AUSGEZOGEN
 10
 875.1400
 20
 100.0000
 11
 866.8600
 21
 100.0000
  0
LINE
  8
200
  6
AUSGEZOGEN
 10
 851.0000
 20
 114.1400
 11
 851.0000
 21
 105.8600
  0
LINE
  8
200
  6
AUSGEZOGEN
 10
 836.8600
 20
 120.0000
 11
 845.1400
 21
 120.0000
  0
LINE
  8
200
  6
AUSGEZOGEN
 10
 831.0000
 20
 105.8600
 11
 831.0000
 21
 114.1400
  0
LINE
  8
200
  6
AUSGEZOGEN
 10
 845.1400
 20
 100.0000
 11
 836.8600
 21
 100.0000
  0
LINE
  8
200
  6
AUSGEZOGEN
 10
 821.0000
 20
 114.1400
 11
 821.0000
 21
 105.8600
  0
LINE
  8
200
  6
AUSGEZOGEN
 10
 806.8600
 20
 120.0000
 11
 815.1400
 21
 120.0000
  0
LINE
  8
200
  6
AUSGEZOGEN
 10
 801.0000
 20
 105.8600
 11
 801.0000
 21
 114.1400
  0
LINE
  8
200
  6
AUSGEZOGEN
 10
 815.1400
 20
 100.0000
 11
 806.8600
 21
 100.0000
  0
LINE
  8
200
  6
AUSGEZOGEN
 10
 791.0000
 20
 114.1400
 11
 791.0000
 21
 105.8600
  0
LINE
  8
200
  6
AUSGEZOGEN
 10
 776.8600
 20
 120.0000
 11
 785.1400
 21
 120.0000
  0
LINE
  8
200
  6
AUSGEZOGEN
 10
 771.0000
 20
 105.8600
 11
 771.0000
 21
 114.1400
  0
LINE
  8
200
  6
AUSGEZOGEN
 10
 785.1400
 20
 100.0000
 11
 776.8600
 21
 100.0000
  0
LINE
  8
200
  6
AUSGEZOGEN
 10
 761.0000
 20
 114.1400
 11
 761.0000
 21
 105.8600
  0
LINE
  8
200
  6
AUSGEZOGEN
 10
 746.8600
 20
 120.0000
 11
 755.1400
 21
 120.0000
  0
LINE
  8
200
  6
AUSGEZOGEN
 10
 741.0000
 20
 105.8600
 11
 741.0000
 21
 114.1400
  0
LINE
  8
200
  6
AUSGEZOGEN
 10
 755.1400
 20
 100.0000
 11
 746.8600
 21
 100.0000
  0
LINE
  8
200
  6
AUSGEZOGEN
 10
 731.0000
 20
 114.1400
 11
 731.0000
 21
 105.8600
  0
LINE
  8
200
  6
AUSGEZOGEN
 10
 716.8600
 20
 120.0000
 11
 725.1400
 21
 120.0000
  0
LINE
  8
200
  6
AUSGEZOGEN
 10
 711.0000
 20
 105.8600
 11
 711.0000
 21
 114.1400
  0
LINE
  8
200
  6
AUSGEZOGEN
 10
 725.1400
 20
 100.0000
 11
 716.8600
 21
 100.0000
  0
LINE
  8
200
  6
AUSGEZOGEN
 10
 701.0000
 20
 114.1400
 11
 701.0000
 21
 105.8600
  0
LINE
  8
200
  6
AUSGEZOGEN
 10
 686.8600
 20
 120.0000
 11
 695.1400
 21
 120.0000
  0
LINE
  8
200
  6
AUSGEZOGEN
 10
 681.0000
 20
 105.8600
 11
 681.0000
 21
 114.1400
  0
LINE
  8
200
  6
AUSGEZOGEN
 10
 695.1400
 20
 100.0000
 11
 686.8600
 21
 100.0000
  0
LINE
  8
200
  6
AUSGEZOGEN
 10
 671.0000
 20
 114.1400
 11
 671.0000
 21
 105.8600
  0
LINE
  8
200
  6
AUSGEZOGEN
 10
 656.8600
 20
 120.0000
 11
 665.1400
 21
 120.0000
  0
LINE
  8
200
  6
AUSGEZOGEN
 10
 651.0000
 20
 105.8600
 11
 651.0000
 21
 114.1400
  0
LINE
  8
200
  6
AUSGEZOGEN
 10
 665.1400
 20
 100.0000
 11
 656.8600
 21
 100.0000
  0
LINE
  8
200
  6
AUSGEZOGEN
 10
 641.0000
 20
 114.1400
 11
 641.0000
 21
 105.8600
  0
LINE
  8
200
  6
AUSGEZOGEN
 10
 626.8600
 20
 120.0000
 11
 635.1400
 21
 120.0000
  0
LINE
  8
200
  6
AUSGEZOGEN
 10
 621.0000
 20
 105.8600
 11
 621.0000
 21
 114.1400
  0
LINE
  8
200
  6
AUSGEZOGEN
 10
 635.1400
 20
 100.0000
 11
 626.8600
 21
 100.0000
  0
LINE
  8
200
  6
AUSGEZOGEN
 10
 611.0000
 20
 114.1400
 11
 611.0000
 21
 105.8600
  0
LINE
  8
200
  6
AUSGEZOGEN
 10
 596.8600
 20
 120.0000
 11
 605.1400
 21
 120.0000
  0
LINE
  8
200
  6
AUSGEZOGEN
 10
 591.0000
 20
 105.8600
 11
 591.0000
 21
 114.1400
  0
LINE
  8
200
  6
AUSGEZOGEN
 10
 605.1400
 20
 100.0000
 11
 596.8600
 21
 100.0000
  0
LINE
  8
200
  6
AUSGEZOGEN
 10
 581.0000
 20
 114.1400
 11
 581.0000
 21
 105.8600
  0
LINE
  8
200
  6
AUSGEZOGEN
 10
 566.8600
 20
 120.0000
 11
 575.1400
 21
 120.0000
  0
LINE
  8
200
  6
AUSGEZOGEN
 10
 561.0000
 20
 105.8600
 11
 561.0000
 21
 114.1400
  0
LINE
  8
200
  6
AUSGEZOGEN
 10
 575.1400
 20
 100.0000
 11
 566.8600
 21
 100.0000
  0
LINE
  8
200
  6
AUSGEZOGEN
 10
 551.0000
 20
 114.1400
 11
 551.0000
 21
 105.8600
  0
LINE
  8
200
  6
AUSGEZOGEN
 10
 536.8600
 20
 120.0000
 11
 545.1400
 21
 120.0000
  0
LINE
  8
200
  6
AUSGEZOGEN
 10
 531.0000
 20
 105.8600
 11
 531.0000
 21
 114.1400
  0
LINE
  8
200
  6
AUSGEZOGEN
 10
 545.1400
 20
 100.0000
 11
 536.8600
 21
 100.0000
  0
LINE
  8
200
  6
AUSGEZOGEN
 10
1031.0000
 20
 144.1400
 11
1031.0000
 21
 135.8600
  0
LINE
  8
200
  6
AUSGEZOGEN
 10
1016.8600
 20
 150.0000
 11
1025.1400
 21
 150.0000
  0
LINE
  8
200
  6
AUSGEZOGEN
 10
1011.0000
 20
 135.8600
 11
1011.0000
 21
 144.1400
  0
LINE
  8
200
  6
AUSGEZOGEN
 10
1025.1400
 20
 130.0000
 11
1016.8600
 21
 130.0000
  0
LINE
  8
200
  6
AUSGEZOGEN
 10
1001.0000
 20
 144.1400
 11
1001.0000
 21
 135.8600
  0
LINE
  8
200
  6
AUSGEZOGEN
 10
 986.8600
 20
 150.0000
 11
 995.1400
 21
 150.0000
  0
LINE
  8
200
  6
AUSGEZOGEN
 10
 981.0000
 20
 135.8600
 11
 981.0000
 21
 144.1400
  0
LINE
  8
200
  6
AUSGEZOGEN
 10
 995.1400
 20
 130.0000
 11
 986.8600
 21
 130.0000
  0
LINE
  8
200
  6
AUSGEZOGEN
 10
 971.0000
 20
 144.1400
 11
 971.0000
 21
 135.8600
  0
LINE
  8
200
  6
AUSGEZOGEN
 10
 956.8600
 20
 150.0000
 11
 965.1400
 21
 150.0000
  0
LINE
  8
200
  6
AUSGEZOGEN
 10
 951.0000
 20
 135.8600
 11
 951.0000
 21
 144.1400
  0
LINE
  8
200
  6
AUSGEZOGEN
 10
 965.1400
 20
 130.0000
 11
 956.8600
 21
 130.0000
  0
LINE
  8
200
  6
AUSGEZOGEN
 10
 941.0000
 20
 144.1400
 11
 941.0000
 21
 135.8600
  0
LINE
  8
200
  6
AUSGEZOGEN
 10
 926.8600
 20
 150.0000
 11
 935.1400
 21
 150.0000
  0
LINE
  8
200
  6
AUSGEZOGEN
 10
 921.0000
 20
 135.8600
 11
 921.0000
 21
 144.1400
  0
LINE
  8
200
  6
AUSGEZOGEN
 10
 935.1400
 20
 130.0000
 11
 926.8600
 21
 130.0000
  0
LINE
  8
200
  6
AUSGEZOGEN
 10
 911.0000
 20
 144.1400
 11
 911.0000
 21
 135.8600
  0
LINE
  8
200
  6
AUSGEZOGEN
 10
 896.8600
 20
 150.0000
 11
 905.1400
 21
 150.0000
  0
LINE
  8
200
  6
AUSGEZOGEN
 10
 891.0000
 20
 135.8600
 11
 891.0000
 21
 144.1400
  0
LINE
  8
200
  6
AUSGEZOGEN
 10
 905.1400
 20
 130.0000
 11
 896.8600
 21
 130.0000
  0
LINE
  8
200
  6
AUSGEZOGEN
 10
 881.0000
 20
 144.1400
 11
 881.0000
 21
 135.8600
  0
LINE
  8
200
  6
AUSGEZOGEN
 10
 866.8600
 20
 150.0000
 11
 875.1400
 21
 150.0000
  0
LINE
  8
200
  6
AUSGEZOGEN
 10
 861.0000
 20
 135.8600
 11
 861.0000
 21
 144.1400
  0
LINE
  8
200
  6
AUSGEZOGEN
 10
 875.1400
 20
 130.0000
 11
 866.8600
 21
 130.0000
  0
LINE
  8
200
  6
AUSGEZOGEN
 10
 851.0000
 20
 144.1400
 11
 851.0000
 21
 135.8600
  0
LINE
  8
200
  6
AUSGEZOGEN
 10
 836.8600
 20
 150.0000
 11
 845.1400
 21
 150.0000
  0
LINE
  8
200
  6
AUSGEZOGEN
 10
 831.0000
 20
 135.8600
 11
 831.0000
 21
 144.1400
  0
LINE
  8
200
  6
AUSGEZOGEN
 10
 845.1400
 20
 130.0000
 11
 836.8600
 21
 130.0000
  0
LINE
  8
200
  6
AUSGEZOGEN
 10
 821.0000
 20
 144.1400
 11
 821.0000
 21
 135.8600
  0
LINE
  8
200
  6
AUSGEZOGEN
 10
 806.8600
 20
 150.0000
 11
 815.1400
 21
 150.0000
  0
LINE
  8
200
  6
AUSGEZOGEN
 10
 801.0000
 20
 135.8600
 11
 801.0000
 21
 144.1400
  0
LINE
  8
200
  6
AUSGEZOGEN
 10
 815.1400
 20
 130.0000
 11
 806.8600
 21
 130.0000
  0
LINE
  8
200
  6
AUSGEZOGEN
 10
 791.0000
 20
 144.1400
 11
 791.0000
 21
 135.8600
  0
LINE
  8
200
  6
AUSGEZOGEN
 10
 776.8600
 20
 150.0000
 11
 785.1400
 21
 150.0000
  0
LINE
  8
200
  6
AUSGEZOGEN
 10
 771.0000
 20
 135.8600
 11
 771.0000
 21
 144.1400
  0
LINE
  8
200
  6
AUSGEZOGEN
 10
 785.1400
 20
 130.0000
 11
 776.8600
 21
 130.0000
  0
LINE
  8
200
  6
AUSGEZOGEN
 10
 761.0000
 20
 144.1400
 11
 761.0000
 21
 135.8600
  0
LINE
  8
200
  6
AUSGEZOGEN
 10
 746.8600
 20
 150.0000
 11
 755.1400
 21
 150.0000
  0
LINE
  8
200
  6
AUSGEZOGEN
 10
 741.0000
 20
 135.8600
 11
 741.0000
 21
 144.1400
  0
LINE
  8
200
  6
AUSGEZOGEN
 10
 755.1400
 20
 130.0000
 11
 746.8600
 21
 130.0000
  0
LINE
  8
200
  6
AUSGEZOGEN
 10
 731.0000
 20
 144.1400
 11
 731.0000
 21
 135.8600
  0
LINE
  8
200
  6
AUSGEZOGEN
 10
 716.8600
 20
 150.0000
 11
 725.1400
 21
 150.0000
  0
LINE
  8
200
  6
AUSGEZOGEN
 10
 711.0000
 20
 135.8600
 11
 711.0000
 21
 144.1400
  0
LINE
  8
200
  6
AUSGEZOGEN
 10
 725.1400
 20
 130.0000
 11
 716.8600
 21
 130.0000
  0
LINE
  8
200
  6
AUSGEZOGEN
 10
 701.0000
 20
 144.1400
 11
 701.0000
 21
 135.8600
  0
LINE
  8
200
  6
AUSGEZOGEN
 10
 686.8600
 20
 150.0000
 11
 695.1400
 21
 150.0000
  0
LINE
  8
200
  6
AUSGEZOGEN
 10
 681.0000
 20
 135.8600
 11
 681.0000
 21
 144.1400
  0
LINE
  8
200
  6
AUSGEZOGEN
 10
 695.1400
 20
 130.0000
 11
 686.8600
 21
 130.0000
  0
LINE
  8
200
  6
AUSGEZOGEN
 10
 671.0000
 20
 144.1400
 11
 671.0000
 21
 135.8600
  0
LINE
  8
200
  6
AUSGEZOGEN
 10
 656.8600
 20
 150.0000
 11
 665.1400
 21
 150.0000
  0
LINE
  8
200
  6
AUSGEZOGEN
 10
 651.0000
 20
 135.8600
 11
 651.0000
 21
 144.1400
  0
LINE
  8
200
  6
AUSGEZOGEN
 10
 665.1400
 20
 130.0000
 11
 656.8600
 21
 130.0000
  0
LINE
  8
200
  6
AUSGEZOGEN
 10
 641.0000
 20
 144.1400
 11
 641.0000
 21
 135.8600
  0
LINE
  8
200
  6
AUSGEZOGEN
 10
 626.8600
 20
 150.0000
 11
 635.1400
 21
 150.0000
  0
LINE
  8
200
  6
AUSGEZOGEN
 10
 621.0000
 20
 135.8600
 11
 621.0000
 21
 144.1400
  0
LINE
  8
200
  6
AUSGEZOGEN
 10
 635.1400
 20
 130.0000
 11
 626.8600
 21
 130.0000
  0
LINE
  8
200
  6
AUSGEZOGEN
 10
 611.0000
 20
 144.1400
 11
 611.0000
 21
 135.8600
  0
LINE
  8
200
  6
AUSGEZOGEN
 10
 596.8600
 20
 150.0000
 11
 605.1400
 21
 150.0000
  0
LINE
  8
200
  6
AUSGEZOGEN
 10
 591.0000
 20
 135.8600
 11
 591.0000
 21
 144.1400
  0
LINE
  8
200
  6
AUSGEZOGEN
 10
 605.1400
 20
 130.0000
 11
 596.8600
 21
 130.0000
  0
LINE
  8
200
  6
AUSGEZOGEN
 10
 581.0000
 20
 144.1400
 11
 581.0000
 21
 135.8600
  0
LINE
  8
200
  6
AUSGEZOGEN
 10
 566.8600
 20
 150.0000
 11
 575.1400
 21
 150.0000
  0
LINE
  8
200
  6
AUSGEZOGEN
 10
 561.0000
 20
 135.8600
 11
 561.0000
 21
 144.1400
  0
LINE
  8
200
  6
AUSGEZOGEN
 10
 575.1400
 20
 130.0000
 11
 566.8600
 21
 130.0000
  0
LINE
  8
200
  6
AUSGEZOGEN
 10
 551.0000
 20
 144.1400
 11
 551.0000
 21
 135.8600
  0
LINE
  8
200
  6
AUSGEZOGEN
 10
 536.8600
 20
 150.0000
 11
 545.1400
 21
 150.0000
  0
LINE
  8
200
  6
AUSGEZOGEN
 10
 531.0000
 20
 135.8600
 11
 531.0000
 21
 144.1400
  0
LINE
  8
200
  6
AUSGEZOGEN
 10
 545.1400
 20
 130.0000
 11
 536.8600
 21
 130.0000
  0
LINE
  8
200
  6
AUSGEZOGEN
 10
1031.0000
 20
 174.1400
 11
1031.0000
 21
 165.8600
  0
LINE
  8
200
  6
AUSGEZOGEN
 10
1016.8600
 20
 180.0000
 11
1025.1400
 21
 180.0000
  0
LINE
  8
200
  6
AUSGEZOGEN
 10
1011.0000
 20
 165.8600
 11
1011.0000
 21
 174.1400
  0
LINE
  8
200
  6
AUSGEZOGEN
 10
1025.1400
 20
 160.0000
 11
1016.8600
 21
 160.0000
  0
LINE
  8
200
  6
AUSGEZOGEN
 10
1001.0000
 20
 174.1400
 11
1001.0000
 21
 165.8600
  0
LINE
  8
200
  6
AUSGEZOGEN
 10
 986.8600
 20
 180.0000
 11
 995.1400
 21
 180.0000
  0
LINE
  8
200
  6
AUSGEZOGEN
 10
 981.0000
 20
 165.8600
 11
 981.0000
 21
 174.1400
  0
LINE
  8
200
  6
AUSGEZOGEN
 10
 995.1400
 20
 160.0000
 11
 986.8600
 21
 160.0000
  0
LINE
  8
200
  6
AUSGEZOGEN
 10
 971.0000
 20
 174.1400
 11
 971.0000
 21
 165.8600
  0
LINE
  8
200
  6
AUSGEZOGEN
 10
 956.8600
 20
 180.0000
 11
 965.1400
 21
 180.0000
  0
LINE
  8
200
  6
AUSGEZOGEN
 10
 951.0000
 20
 165.8600
 11
 951.0000
 21
 174.1400
  0
LINE
  8
200
  6
AUSGEZOGEN
 10
 965.1400
 20
 160.0000
 11
 956.8600
 21
 160.0000
  0
LINE
  8
200
  6
AUSGEZOGEN
 10
 941.0000
 20
 174.1400
 11
 941.0000
 21
 165.8600
  0
LINE
  8
200
  6
AUSGEZOGEN
 10
 926.8600
 20
 180.0000
 11
 935.1400
 21
 180.0000
  0
LINE
  8
200
  6
AUSGEZOGEN
 10
 921.0000
 20
 165.8600
 11
 921.0000
 21
 174.1400
  0
LINE
  8
200
  6
AUSGEZOGEN
 10
 935.1400
 20
 160.0000
 11
 926.8600
 21
 160.0000
  0
LINE
  8
200
  6
AUSGEZOGEN
 10
 911.0000
 20
 174.1400
 11
 911.0000
 21
 165.8600
  0
LINE
  8
200
  6
AUSGEZOGEN
 10
 896.8600
 20
 180.0000
 11
 905.1400
 21
 180.0000
  0
LINE
  8
200
  6
AUSGEZOGEN
 10
 891.0000
 20
 165.8600
 11
 891.0000
 21
 174.1400
  0
LINE
  8
200
  6
AUSGEZOGEN
 10
 905.1400
 20
 160.0000
 11
 896.8600
 21
 160.0000
  0
LINE
  8
200
  6
AUSGEZOGEN
 10
 881.0000
 20
 174.1400
 11
 881.0000
 21
 165.8600
  0
LINE
  8
200
  6
AUSGEZOGEN
 10
 866.8600
 20
 180.0000
 11
 875.1400
 21
 180.0000
  0
LINE
  8
200
  6
AUSGEZOGEN
 10
 861.0000
 20
 165.8600
 11
 861.0000
 21
 174.1400
  0
LINE
  8
200
  6
AUSGEZOGEN
 10
 875.1400
 20
 160.0000
 11
 866.8600
 21
 160.0000
  0
LINE
  8
200
  6
AUSGEZOGEN
 10
 851.0000
 20
 174.1400
 11
 851.0000
 21
 165.8600
  0
LINE
  8
200
  6
AUSGEZOGEN
 10
 836.8600
 20
 180.0000
 11
 845.1400
 21
 180.0000
  0
LINE
  8
200
  6
AUSGEZOGEN
 10
 831.0000
 20
 165.8600
 11
 831.0000
 21
 174.1400
  0
LINE
  8
200
  6
AUSGEZOGEN
 10
 845.1400
 20
 160.0000
 11
 836.8600
 21
 160.0000
  0
LINE
  8
200
  6
AUSGEZOGEN
 10
 821.0000
 20
 174.1400
 11
 821.0000
 21
 165.8600
  0
LINE
  8
200
  6
AUSGEZOGEN
 10
 806.8600
 20
 180.0000
 11
 815.1400
 21
 180.0000
  0
LINE
  8
200
  6
AUSGEZOGEN
 10
 801.0000
 20
 165.8600
 11
 801.0000
 21
 174.1400
  0
LINE
  8
200
  6
AUSGEZOGEN
 10
 815.1400
 20
 160.0000
 11
 806.8600
 21
 160.0000
  0
LINE
  8
200
  6
AUSGEZOGEN
 10
 791.0000
 20
 174.1400
 11
 791.0000
 21
 165.8600
  0
LINE
  8
200
  6
AUSGEZOGEN
 10
 776.8600
 20
 180.0000
 11
 785.1400
 21
 180.0000
  0
LINE
  8
200
  6
AUSGEZOGEN
 10
 771.0000
 20
 165.8600
 11
 771.0000
 21
 174.1400
  0
LINE
  8
200
  6
AUSGEZOGEN
 10
 785.1400
 20
 160.0000
 11
 776.8600
 21
 160.0000
  0
LINE
  8
200
  6
AUSGEZOGEN
 10
 761.0000
 20
 174.1400
 11
 761.0000
 21
 165.8600
  0
LINE
  8
200
  6
AUSGEZOGEN
 10
 746.8600
 20
 180.0000
 11
 755.1400
 21
 180.0000
  0
LINE
  8
200
  6
AUSGEZOGEN
 10
 741.0000
 20
 165.8600
 11
 741.0000
 21
 174.1400
  0
LINE
  8
200
  6
AUSGEZOGEN
 10
 755.1400
 20
 160.0000
 11
 746.8600
 21
 160.0000
  0
LINE
  8
200
  6
AUSGEZOGEN
 10
 731.0000
 20
 174.1400
 11
 731.0000
 21
 165.8600
  0
LINE
  8
200
  6
AUSGEZOGEN
 10
 716.8600
 20
 180.0000
 11
 725.1400
 21
 180.0000
  0
LINE
  8
200
  6
AUSGEZOGEN
 10
 711.0000
 20
 165.8600
 11
 711.0000
 21
 174.1400
  0
LINE
  8
200
  6
AUSGEZOGEN
 10
 725.1400
 20
 160.0000
 11
 716.8600
 21
 160.0000
  0
LINE
  8
200
  6
AUSGEZOGEN
 10
 701.0000
 20
 174.1400
 11
 701.0000
 21
 165.8600
  0
LINE
  8
200
  6
AUSGEZOGEN
 10
 686.8600
 20
 180.0000
 11
 695.1400
 21
 180.0000
  0
LINE
  8
200
  6
AUSGEZOGEN
 10
 681.0000
 20
 165.8600
 11
 681.0000
 21
 174.1400
  0
LINE
  8
200
  6
AUSGEZOGEN
 10
 695.1400
 20
 160.0000
 11
 686.8600
 21
 160.0000
  0
LINE
  8
200
  6
AUSGEZOGEN
 10
 671.0000
 20
 174.1400
 11
 671.0000
 21
 165.8600
  0
LINE
  8
200
  6
AUSGEZOGEN
 10
 656.8600
 20
 180.0000
 11
 665.1400
 21
 180.0000
  0
LINE
  8
200
  6
AUSGEZOGEN
 10
 651.0000
 20
 165.8600
 11
 651.0000
 21
 174.1400
  0
LINE
  8
200
  6
AUSGEZOGEN
 10
 665.1400
 20
 160.0000
 11
 656.8600
 21
 160.0000
  0
LINE
  8
200
  6
AUSGEZOGEN
 10
 641.0000
 20
 174.1400
 11
 641.0000
 21
 165.8600
  0
LINE
  8
200
  6
AUSGEZOGEN
 10
 626.8600
 20
 180.0000
 11
 635.1400
 21
 180.0000
  0
LINE
  8
200
  6
AUSGEZOGEN
 10
 621.0000
 20
 165.8600
 11
 621.0000
 21
 174.1400
  0
LINE
  8
200
  6
AUSGEZOGEN
 10
 635.1400
 20
 160.0000
 11
 626.8600
 21
 160.0000
  0
LINE
  8
200
  6
AUSGEZOGEN
 10
 611.0000
 20
 174.1400
 11
 611.0000
 21
 165.8600
  0
LINE
  8
200
  6
AUSGEZOGEN
 10
 596.8600
 20
 180.0000
 11
 605.1400
 21
 180.0000
  0
LINE
  8
200
  6
AUSGEZOGEN
 10
 591.0000
 20
 165.8600
 11
 591.0000
 21
 174.1400
  0
LINE
  8
200
  6
AUSGEZOGEN
 10
 605.1400
 20
 160.0000
 11
 596.8600
 21
 160.0000
  0
LINE
  8
200
  6
AUSGEZOGEN
 10
 581.0000
 20
 174.1400
 11
 581.0000
 21
 165.8600
  0
LINE
  8
200
  6
AUSGEZOGEN
 10
 566.8600
 20
 180.0000
 11
 575.1400
 21
 180.0000
  0
LINE
  8
200
  6
AUSGEZOGEN
 10
 561.0000
 20
 165.8600
 11
 561.0000
 21
 174.1400
  0
LINE
  8
200
  6
AUSGEZOGEN
 10
 575.1400
 20
 160.0000
 11
 566.8600
 21
 160.0000
  0
LINE
  8
200
  6
AUSGEZOGEN
 10
 551.0000
 20
 174.1400
 11
 551.0000
 21
 165.8600
  0
LINE
  8
200
  6
AUSGEZOGEN
 10
 536.8600
 20
 180.0000
 11
 545.1400
 21
 180.0000
  0
LINE
  8
200
  6
AUSGEZOGEN
 10
 531.0000
 20
 165.8600
 11
 531.0000
 21
 174.1400
  0
LINE
  8
200
  6
AUSGEZOGEN
 10
 545.1400
 20
 160.0000
 11
 536.8600
 21
 160.0000
  0
LINE
  8
200
  6
AUSGEZOGEN
 10
1031.0000
 20
 204.1400
 11
1031.0000
 21
 195.8600
  0
LINE
  8
200
  6
AUSGEZOGEN
 10
1016.8600
 20
 210.0000
 11
1025.1400
 21
 210.0000
  0
LINE
  8
200
  6
AUSGEZOGEN
 10
1011.0000
 20
 195.8600
 11
1011.0000
 21
 204.1400
  0
LINE
  8
200
  6
AUSGEZOGEN
 10
1025.1400
 20
 190.0000
 11
1016.8600
 21
 190.0000
  0
LINE
  8
200
  6
AUSGEZOGEN
 10
1001.0000
 20
 204.1400
 11
1001.0000
 21
 195.8600
  0
LINE
  8
200
  6
AUSGEZOGEN
 10
 986.8600
 20
 210.0000
 11
 995.1400
 21
 210.0000
  0
LINE
  8
200
  6
AUSGEZOGEN
 10
 981.0000
 20
 195.8600
 11
 981.0000
 21
 204.1400
  0
LINE
  8
200
  6
AUSGEZOGEN
 10
 995.1400
 20
 190.0000
 11
 986.8600
 21
 190.0000
  0
LINE
  8
200
  6
AUSGEZOGEN
 10
 971.0000
 20
 204.1400
 11
 971.0000
 21
 195.8600
  0
LINE
  8
200
  6
AUSGEZOGEN
 10
 956.8600
 20
 210.0000
 11
 965.1400
 21
 210.0000
  0
LINE
  8
200
  6
AUSGEZOGEN
 10
 951.0000
 20
 195.8600
 11
 951.0000
 21
 204.1400
  0
LINE
  8
200
  6
AUSGEZOGEN
 10
 965.1400
 20
 190.0000
 11
 956.8600
 21
 190.0000
  0
LINE
  8
200
  6
AUSGEZOGEN
 10
 941.0000
 20
 204.1400
 11
 941.0000
 21
 195.8600
  0
LINE
  8
200
  6
AUSGEZOGEN
 10
 926.8600
 20
 210.0000
 11
 935.1400
 21
 210.0000
  0
LINE
  8
200
  6
AUSGEZOGEN
 10
 921.0000
 20
 195.8600
 11
 921.0000
 21
 204.1400
  0
LINE
  8
200
  6
AUSGEZOGEN
 10
 935.1400
 20
 190.0000
 11
 926.8600
 21
 190.0000
  0
LINE
  8
200
  6
AUSGEZOGEN
 10
 911.0000
 20
 204.1400
 11
 911.0000
 21
 195.8600
  0
LINE
  8
200
  6
AUSGEZOGEN
 10
 896.8600
 20
 210.0000
 11
 905.1400
 21
 210.0000
  0
LINE
  8
200
  6
AUSGEZOGEN
 10
 891.0000
 20
 195.8600
 11
 891.0000
 21
 204.1400
  0
LINE
  8
200
  6
AUSGEZOGEN
 10
 905.1400
 20
 190.0000
 11
 896.8600
 21
 190.0000
  0
LINE
  8
200
  6
AUSGEZOGEN
 10
 881.0000
 20
 204.1400
 11
 881.0000
 21
 195.8600
  0
LINE
  8
200
  6
AUSGEZOGEN
 10
 866.8600
 20
 210.0000
 11
 875.1400
 21
 210.0000
  0
LINE
  8
200
  6
AUSGEZOGEN
 10
 861.0000
 20
 195.8600
 11
 861.0000
 21
 204.1400
  0
LINE
  8
200
  6
AUSGEZOGEN
 10
 875.1400
 20
 190.0000
 11
 866.8600
 21
 190.0000
  0
LINE
  8
200
  6
AUSGEZOGEN
 10
 851.0000
 20
 204.1400
 11
 851.0000
 21
 195.8600
  0
LINE
  8
200
  6
AUSGEZOGEN
 10
 836.8600
 20
 210.0000
 11
 845.1400
 21
 210.0000
  0
LINE
  8
200
  6
AUSGEZOGEN
 10
 831.0000
 20
 195.8600
 11
 831.0000
 21
 204.1400
  0
LINE
  8
200
  6
AUSGEZOGEN
 10
 845.1400
 20
 190.0000
 11
 836.8600
 21
 190.0000
  0
LINE
  8
200
  6
AUSGEZOGEN
 10
 821.0000
 20
 204.1400
 11
 821.0000
 21
 195.8600
  0
LINE
  8
200
  6
AUSGEZOGEN
 10
 806.8600
 20
 210.0000
 11
 815.1400
 21
 210.0000
  0
LINE
  8
200
  6
AUSGEZOGEN
 10
 801.0000
 20
 195.8600
 11
 801.0000
 21
 204.1400
  0
LINE
  8
200
  6
AUSGEZOGEN
 10
 815.1400
 20
 190.0000
 11
 806.8600
 21
 190.0000
  0
LINE
  8
200
  6
AUSGEZOGEN
 10
 791.0000
 20
 204.1400
 11
 791.0000
 21
 195.8600
  0
LINE
  8
200
  6
AUSGEZOGEN
 10
 776.8600
 20
 210.0000
 11
 785.1400
 21
 210.0000
  0
LINE
  8
200
  6
AUSGEZOGEN
 10
 771.0000
 20
 195.8600
 11
 771.0000
 21
 204.1400
  0
LINE
  8
200
  6
AUSGEZOGEN
 10
 785.1400
 20
 190.0000
 11
 776.8600
 21
 190.0000
  0
LINE
  8
200
  6
AUSGEZOGEN
 10
 761.0000
 20
 204.1400
 11
 761.0000
 21
 195.8600
  0
LINE
  8
200
  6
AUSGEZOGEN
 10
 746.8600
 20
 210.0000
 11
 755.1400
 21
 210.0000
  0
LINE
  8
200
  6
AUSGEZOGEN
 10
 741.0000
 20
 195.8600
 11
 741.0000
 21
 204.1400
  0
LINE
  8
200
  6
AUSGEZOGEN
 10
 755.1400
 20
 190.0000
 11
 746.8600
 21
 190.0000
  0
LINE
  8
200
  6
AUSGEZOGEN
 10
 731.0000
 20
 204.1400
 11
 731.0000
 21
 195.8600
  0
LINE
  8
200
  6
AUSGEZOGEN
 10
 716.8600
 20
 210.0000
 11
 725.1400
 21
 210.0000
  0
LINE
  8
200
  6
AUSGEZOGEN
 10
 711.0000
 20
 195.8600
 11
 711.0000
 21
 204.1400
  0
LINE
  8
200
  6
AUSGEZOGEN
 10
 725.1400
 20
 190.0000
 11
 716.8600
 21
 190.0000
  0
LINE
  8
200
  6
AUSGEZOGEN
 10
 701.0000
 20
 204.1400
 11
 701.0000
 21
 195.8600
  0
LINE
  8
200
  6
AUSGEZOGEN
 10
 686.8600
 20
 210.0000
 11
 695.1400
 21
 210.0000
  0
LINE
  8
200
  6
AUSGEZOGEN
 10
 681.0000
 20
 195.8600
 11
 681.0000
 21
 204.1400
  0
LINE
  8
200
  6
AUSGEZOGEN
 10
 695.1400
 20
 190.0000
 11
 686.8600
 21
 190.0000
  0
LINE
  8
200
  6
AUSGEZOGEN
 10
 671.0000
 20
 204.1400
 11
 671.0000
 21
 195.8600
  0
LINE
  8
200
  6
AUSGEZOGEN
 10
 656.8600
 20
 210.0000
 11
 665.1400
 21
 210.0000
  0
LINE
  8
200
  6
AUSGEZOGEN
 10
 651.0000
 20
 195.8600
 11
 651.0000
 21
 204.1400
  0
LINE
  8
200
  6
AUSGEZOGEN
 10
 665.1400
 20
 190.0000
 11
 656.8600
 21
 190.0000
  0
LINE
  8
200
  6
AUSGEZOGEN
 10
 641.0000
 20
 204.1400
 11
 641.0000
 21
 195.8600
  0
LINE
  8
200
  6
AUSGEZOGEN
 10
 626.8600
 20
 210.0000
 11
 635.1400
 21
 210.0000
  0
LINE
  8
200
  6
AUSGEZOGEN
 10
 621.0000
 20
 195.8600
 11
 621.0000
 21
 204.1400
  0
LINE
  8
200
  6
AUSGEZOGEN
 10
 635.1400
 20
 190.0000
 11
 626.8600
 21
 190.0000
  0
LINE
  8
200
  6
AUSGEZOGEN
 10
 611.0000
 20
 204.1400
 11
 611.0000
 21
 195.8600
  0
LINE
  8
200
  6
AUSGEZOGEN
 10
 596.8600
 20
 210.0000
 11
 605.1400
 21
 210.0000
  0
LINE
  8
200
  6
AUSGEZOGEN
 10
 591.0000
 20
 195.8600
 11
 591.0000
 21
 204.1400
  0
LINE
  8
200
  6
AUSGEZOGEN
 10
 605.1400
 20
 190.0000
 11
 596.8600
 21
 190.0000
  0
LINE
  8
200
  6
AUSGEZOGEN
 10
 581.0000
 20
 204.1400
 11
 581.0000
 21
 195.8600
  0
LINE
  8
200
  6
AUSGEZOGEN
 10
 566.8600
 20
 210.0000
 11
 575.1400
 21
 210.0000
  0
LINE
  8
200
  6
AUSGEZOGEN
 10
 561.0000
 20
 195.8600
 11
 561.0000
 21
 204.1400
  0
LINE
  8
200
  6
AUSGEZOGEN
 10
 575.1400
 20
 190.0000
 11
 566.8600
 21
 190.0000
  0
LINE
  8
200
  6
AUSGEZOGEN
 10
 551.0000
 20
 204.1400
 11
 551.0000
 21
 195.8600
  0
LINE
  8
200
  6
AUSGEZOGEN
 10
 536.8600
 20
 210.0000
 11
 545.1400
 21
 210.0000
  0
LINE
  8
200
  6
AUSGEZOGEN
 10
 531.0000
 20
 195.8600
 11
 531.0000
 21
 204.1400
  0
LINE
  8
200
  6
AUSGEZOGEN
 10
 545.1400
 20
 190.0000
 11
 536.8600
 21
 190.0000
  0
LINE
  8
200
  6
AUSGEZOGEN
 10
1031.0000
 20
 234.1400
 11
1031.0000
 21
 225.8600
  0
LINE
  8
200
  6
AUSGEZOGEN
 10
1016.8600
 20
 240.0000
 11
1025.1400
 21
 240.0000
  0
LINE
  8
200
  6
AUSGEZOGEN
 10
1011.0000
 20
 225.8600
 11
1011.0000
 21
 234.1400
  0
LINE
  8
200
  6
AUSGEZOGEN
 10
1025.1400
 20
 220.0000
 11
1016.8600
 21
 220.0000
  0
LINE
  8
200
  6
AUSGEZOGEN
 10
1001.0000
 20
 234.1400
 11
1001.0000
 21
 225.8600
  0
LINE
  8
200
  6
AUSGEZOGEN
 10
 986.8600
 20
 240.0000
 11
 995.1400
 21
 240.0000
  0
LINE
  8
200
  6
AUSGEZOGEN
 10
 981.0000
 20
 225.8600
 11
 981.0000
 21
 234.1400
  0
LINE
  8
200
  6
AUSGEZOGEN
 10
 995.1400
 20
 220.0000
 11
 986.8600
 21
 220.0000
  0
LINE
  8
200
  6
AUSGEZOGEN
 10
 971.0000
 20
 234.1400
 11
 971.0000
 21
 225.8600
  0
LINE
  8
200
  6
AUSGEZOGEN
 10
 956.8600
 20
 240.0000
 11
 965.1400
 21
 240.0000
  0
LINE
  8
200
  6
AUSGEZOGEN
 10
 951.0000
 20
 225.8600
 11
 951.0000
 21
 234.1400
  0
LINE
  8
200
  6
AUSGEZOGEN
 10
 965.1400
 20
 220.0000
 11
 956.8600
 21
 220.0000
  0
LINE
  8
200
  6
AUSGEZOGEN
 10
 941.0000
 20
 234.1400
 11
 941.0000
 21
 225.8600
  0
LINE
  8
200
  6
AUSGEZOGEN
 10
 926.8600
 20
 240.0000
 11
 935.1400
 21
 240.0000
  0
LINE
  8
200
  6
AUSGEZOGEN
 10
 921.0000
 20
 225.8600
 11
 921.0000
 21
 234.1400
  0
LINE
  8
200
  6
AUSGEZOGEN
 10
 935.1400
 20
 220.0000
 11
 926.8600
 21
 220.0000
  0
LINE
  8
200
  6
AUSGEZOGEN
 10
 911.0000
 20
 234.1400
 11
 911.0000
 21
 225.8600
  0
LINE
  8
200
  6
AUSGEZOGEN
 10
 896.8600
 20
 240.0000
 11
 905.1400
 21
 240.0000
  0
LINE
  8
200
  6
AUSGEZOGEN
 10
 891.0000
 20
 225.8600
 11
 891.0000
 21
 234.1400
  0
LINE
  8
200
  6
AUSGEZOGEN
 10
 905.1400
 20
 220.0000
 11
 896.8600
 21
 220.0000
  0
LINE
  8
200
  6
AUSGEZOGEN
 10
 881.0000
 20
 234.1400
 11
 881.0000
 21
 225.8600
  0
LINE
  8
200
  6
AUSGEZOGEN
 10
 866.8600
 20
 240.0000
 11
 875.1400
 21
 240.0000
  0
LINE
  8
200
  6
AUSGEZOGEN
 10
 861.0000
 20
 225.8600
 11
 861.0000
 21
 234.1400
  0
LINE
  8
200
  6
AUSGEZOGEN
 10
 875.1400
 20
 220.0000
 11
 866.8600
 21
 220.0000
  0
LINE
  8
200
  6
AUSGEZOGEN
 10
 851.0000
 20
 234.1400
 11
 851.0000
 21
 225.8600
  0
LINE
  8
200
  6
AUSGEZOGEN
 10
 836.8600
 20
 240.0000
 11
 845.1400
 21
 240.0000
  0
LINE
  8
200
  6
AUSGEZOGEN
 10
 831.0000
 20
 225.8600
 11
 831.0000
 21
 234.1400
  0
LINE
  8
200
  6
AUSGEZOGEN
 10
 845.1400
 20
 220.0000
 11
 836.8600
 21
 220.0000
  0
LINE
  8
200
  6
AUSGEZOGEN
 10
 821.0000
 20
 234.1400
 11
 821.0000
 21
 225.8600
  0
LINE
  8
200
  6
AUSGEZOGEN
 10
 806.8600
 20
 240.0000
 11
 815.1400
 21
 240.0000
  0
LINE
  8
200
  6
AUSGEZOGEN
 10
 801.0000
 20
 225.8600
 11
 801.0000
 21
 234.1400
  0
LINE
  8
200
  6
AUSGEZOGEN
 10
 815.1400
 20
 220.0000
 11
 806.8600
 21
 220.0000
  0
LINE
  8
200
  6
AUSGEZOGEN
 10
 791.0000
 20
 234.1400
 11
 791.0000
 21
 225.8600
  0
LINE
  8
200
  6
AUSGEZOGEN
 10
 776.8600
 20
 240.0000
 11
 785.1400
 21
 240.0000
  0
LINE
  8
200
  6
AUSGEZOGEN
 10
 771.0000
 20
 225.8600
 11
 771.0000
 21
 234.1400
  0
LINE
  8
200
  6
AUSGEZOGEN
 10
 785.1400
 20
 220.0000
 11
 776.8600
 21
 220.0000
  0
LINE
  8
200
  6
AUSGEZOGEN
 10
 761.0000
 20
 234.1400
 11
 761.0000
 21
 225.8600
  0
LINE
  8
200
  6
AUSGEZOGEN
 10
 746.8600
 20
 240.0000
 11
 755.1400
 21
 240.0000
  0
LINE
  8
200
  6
AUSGEZOGEN
 10
 741.0000
 20
 225.8600
 11
 741.0000
 21
 234.1400
  0
LINE
  8
200
  6
AUSGEZOGEN
 10
 755.1400
 20
 220.0000
 11
 746.8600
 21
 220.0000
  0
LINE
  8
200
  6
AUSGEZOGEN
 10
 731.0000
 20
 234.1400
 11
 731.0000
 21
 225.8600
  0
LINE
  8
200
  6
AUSGEZOGEN
 10
 716.8600
 20
 240.0000
 11
 725.1400
 21
 240.0000
  0
LINE
  8
200
  6
AUSGEZOGEN
 10
 711.0000
 20
 225.8600
 11
 711.0000
 21
 234.1400
  0
LINE
  8
200
  6
AUSGEZOGEN
 10
 725.1400
 20
 220.0000
 11
 716.8600
 21
 220.0000
  0
LINE
  8
200
  6
AUSGEZOGEN
 10
 701.0000
 20
 234.1400
 11
 701.0000
 21
 225.8600
  0
LINE
  8
200
  6
AUSGEZOGEN
 10
 686.8600
 20
 240.0000
 11
 695.1400
 21
 240.0000
  0
LINE
  8
200
  6
AUSGEZOGEN
 10
 681.0000
 20
 225.8600
 11
 681.0000
 21
 234.1400
  0
LINE
  8
200
  6
AUSGEZOGEN
 10
 695.1400
 20
 220.0000
 11
 686.8600
 21
 220.0000
  0
LINE
  8
200
  6
AUSGEZOGEN
 10
 671.0000
 20
 234.1400
 11
 671.0000
 21
 225.8600
  0
LINE
  8
200
  6
AUSGEZOGEN
 10
 656.8600
 20
 240.0000
 11
 665.1400
 21
 240.0000
  0
LINE
  8
200
  6
AUSGEZOGEN
 10
 651.0000
 20
 225.8600
 11
 651.0000
 21
 234.1400
  0
LINE
  8
200
  6
AUSGEZOGEN
 10
 665.1400
 20
 220.0000
 11
 656.8600
 21
 220.0000
  0
LINE
  8
200
  6
AUSGEZOGEN
 10
 641.0000
 20
 234.1400
 11
 641.0000
 21
 225.8600
  0
LINE
  8
200
  6
AUSGEZOGEN
 10
 626.8600
 20
 240.0000
 11
 635.1400
 21
 240.0000
  0
LINE
  8
200
  6
AUSGEZOGEN
 10
 621.0000
 20
 225.8600
 11
 621.0000
 21
 234.1400
  0
LINE
  8
200
  6
AUSGEZOGEN
 10
 635.1400
 20
 220.0000
 11
 626.8600
 21
 220.0000
  0
LINE
  8
200
  6
AUSGEZOGEN
 10
 611.0000
 20
 234.1400
 11
 611.0000
 21
 225.8600
  0
LINE
  8
200
  6
AUSGEZOGEN
 10
 596.8600
 20
 240.0000
 11
 605.1400
 21
 240.0000
  0
LINE
  8
200
  6
AUSGEZOGEN
 10
 591.0000
 20
 225.8600
 11
 591.0000
 21
 234.1400
  0
LINE
  8
200
  6
AUSGEZOGEN
 10
 605.1400
 20
 220.0000
 11
 596.8600
 21
 220.0000
  0
LINE
  8
200
  6
AUSGEZOGEN
 10
 581.0000
 20
 234.1400
 11
 581.0000
 21
 225.8600
  0
LINE
  8
200
  6
AUSGEZOGEN
 10
 566.8600
 20
 240.0000
 11
 575.1400
 21
 240.0000
  0
LINE
  8
200
  6
AUSGEZOGEN
 10
 561.0000
 20
 225.8600
 11
 561.0000
 21
 234.1400
  0
LINE
  8
200
  6
AUSGEZOGEN
 10
 575.1400
 20
 220.0000
 11
 566.8600
 21
 220.0000
  0
LINE
  8
200
  6
AUSGEZOGEN
 10
 551.0000
 20
 234.1400
 11
 551.0000
 21
 225.8600
  0
LINE
  8
200
  6
AUSGEZOGEN
 10
 536.8600
 20
 240.0000
 11
 545.1400
 21
 240.0000
  0
LINE
  8
200
  6
AUSGEZOGEN
 10
 531.0000
 20
 225.8600
 11
 531.0000
 21
 234.1400
  0
LINE
  8
200
  6
AUSGEZOGEN
 10
 545.1400
 20
 220.0000
 11
 536.8600
 21
 220.0000
  0
LINE
  8
200
  6
AUSGEZOGEN
 10
1031.0000
 20
 264.1400
 11
1031.0000
 21
 255.8600
  0
LINE
  8
200
  6
AUSGEZOGEN
 10
1016.8600
 20
 270.0000
 11
1025.1400
 21
 270.0000
  0
LINE
  8
200
  6
AUSGEZOGEN
 10
1011.0000
 20
 255.8600
 11
1011.0000
 21
 264.1400
  0
LINE
  8
200
  6
AUSGEZOGEN
 10
1025.1400
 20
 250.0000
 11
1016.8600
 21
 250.0000
  0
LINE
  8
200
  6
AUSGEZOGEN
 10
1001.0000
 20
 264.1400
 11
1001.0000
 21
 255.8600
  0
LINE
  8
200
  6
AUSGEZOGEN
 10
 986.8600
 20
 270.0000
 11
 995.1400
 21
 270.0000
  0
LINE
  8
200
  6
AUSGEZOGEN
 10
 981.0000
 20
 255.8600
 11
 981.0000
 21
 264.1400
  0
LINE
  8
200
  6
AUSGEZOGEN
 10
 995.1400
 20
 250.0000
 11
 986.8600
 21
 250.0000
  0
LINE
  8
200
  6
AUSGEZOGEN
 10
 971.0000
 20
 264.1400
 11
 971.0000
 21
 255.8600
  0
LINE
  8
200
  6
AUSGEZOGEN
 10
 956.8600
 20
 270.0000
 11
 965.1400
 21
 270.0000
  0
LINE
  8
200
  6
AUSGEZOGEN
 10
 951.0000
 20
 255.8600
 11
 951.0000
 21
 264.1400
  0
LINE
  8
200
  6
AUSGEZOGEN
 10
 965.1400
 20
 250.0000
 11
 956.8600
 21
 250.0000
  0
LINE
  8
200
  6
AUSGEZOGEN
 10
 941.0000
 20
 264.1400
 11
 941.0000
 21
 255.8600
  0
LINE
  8
200
  6
AUSGEZOGEN
 10
 926.8600
 20
 270.0000
 11
 935.1400
 21
 270.0000
  0
LINE
  8
200
  6
AUSGEZOGEN
 10
 921.0000
 20
 255.8600
 11
 921.0000
 21
 264.1400
  0
LINE
  8
200
  6
AUSGEZOGEN
 10
 935.1400
 20
 250.0000
 11
 926.8600
 21
 250.0000
  0
LINE
  8
200
  6
AUSGEZOGEN
 10
 911.0000
 20
 264.1400
 11
 911.0000
 21
 255.8600
  0
LINE
  8
200
  6
AUSGEZOGEN
 10
 896.8600
 20
 270.0000
 11
 905.1400
 21
 270.0000
  0
LINE
  8
200
  6
AUSGEZOGEN
 10
 891.0000
 20
 255.8600
 11
 891.0000
 21
 264.1400
  0
LINE
  8
200
  6
AUSGEZOGEN
 10
 905.1400
 20
 250.0000
 11
 896.8600
 21
 250.0000
  0
LINE
  8
200
  6
AUSGEZOGEN
 10
 881.0000
 20
 264.1400
 11
 881.0000
 21
 255.8600
  0
LINE
  8
200
  6
AUSGEZOGEN
 10
 866.8600
 20
 270.0000
 11
 875.1400
 21
 270.0000
  0
LINE
  8
200
  6
AUSGEZOGEN
 10
 861.0000
 20
 255.8600
 11
 861.0000
 21
 264.1400
  0
LINE
  8
200
  6
AUSGEZOGEN
 10
 875.1400
 20
 250.0000
 11
 866.8600
 21
 250.0000
  0
LINE
  8
200
  6
AUSGEZOGEN
 10
 851.0000
 20
 264.1400
 11
 851.0000
 21
 255.8600
  0
LINE
  8
200
  6
AUSGEZOGEN
 10
 836.8600
 20
 270.0000
 11
 845.1400
 21
 270.0000
  0
LINE
  8
200
  6
AUSGEZOGEN
 10
 831.0000
 20
 255.8600
 11
 831.0000
 21
 264.1400
  0
LINE
  8
200
  6
AUSGEZOGEN
 10
 845.1400
 20
 250.0000
 11
 836.8600
 21
 250.0000
  0
LINE
  8
200
  6
AUSGEZOGEN
 10
 821.0000
 20
 264.1400
 11
 821.0000
 21
 255.8600
  0
LINE
  8
200
  6
AUSGEZOGEN
 10
 806.8600
 20
 270.0000
 11
 815.1400
 21
 270.0000
  0
LINE
  8
200
  6
AUSGEZOGEN
 10
 801.0000
 20
 255.8600
 11
 801.0000
 21
 264.1400
  0
LINE
  8
200
  6
AUSGEZOGEN
 10
 815.1400
 20
 250.0000
 11
 806.8600
 21
 250.0000
  0
LINE
  8
200
  6
AUSGEZOGEN
 10
 791.0000
 20
 264.1400
 11
 791.0000
 21
 255.8600
  0
LINE
  8
200
  6
AUSGEZOGEN
 10
 776.8600
 20
 270.0000
 11
 785.1400
 21
 270.0000
  0
LINE
  8
200
  6
AUSGEZOGEN
 10
 771.0000
 20
 255.8600
 11
 771.0000
 21
 264.1400
  0
LINE
  8
200
  6
AUSGEZOGEN
 10
 785.1400
 20
 250.0000
 11
 776.8600
 21
 250.0000
  0
LINE
  8
200
  6
AUSGEZOGEN
 10
 761.0000
 20
 264.1400
 11
 761.0000
 21
 255.8600
  0
LINE
  8
200
  6
AUSGEZOGEN
 10
 746.8600
 20
 270.0000
 11
 755.1400
 21
 270.0000
  0
LINE
  8
200
  6
AUSGEZOGEN
 10
 741.0000
 20
 255.8600
 11
 741.0000
 21
 264.1400
  0
LINE
  8
200
  6
AUSGEZOGEN
 10
 755.1400
 20
 250.0000
 11
 746.8600
 21
 250.0000
  0
LINE
  8
200
  6
AUSGEZOGEN
 10
 731.0000
 20
 264.1400
 11
 731.0000
 21
 255.8600
  0
LINE
  8
200
  6
AUSGEZOGEN
 10
 716.8600
 20
 270.0000
 11
 725.1400
 21
 270.0000
  0
LINE
  8
200
  6
AUSGEZOGEN
 10
 711.0000
 20
 255.8600
 11
 711.0000
 21
 264.1400
  0
LINE
  8
200
  6
AUSGEZOGEN
 10
 725.1400
 20
 250.0000
 11
 716.8600
 21
 250.0000
  0
LINE
  8
200
  6
AUSGEZOGEN
 10
 701.0000
 20
 264.1400
 11
 701.0000
 21
 255.8600
  0
LINE
  8
200
  6
AUSGEZOGEN
 10
 686.8600
 20
 270.0000
 11
 695.1400
 21
 270.0000
  0
LINE
  8
200
  6
AUSGEZOGEN
 10
 681.0000
 20
 255.8600
 11
 681.0000
 21
 264.1400
  0
LINE
  8
200
  6
AUSGEZOGEN
 10
 695.1400
 20
 250.0000
 11
 686.8600
 21
 250.0000
  0
LINE
  8
200
  6
AUSGEZOGEN
 10
 671.0000
 20
 264.1400
 11
 671.0000
 21
 255.8600
  0
LINE
  8
200
  6
AUSGEZOGEN
 10
 656.8600
 20
 270.0000
 11
 665.1400
 21
 270.0000
  0
LINE
  8
200
  6
AUSGEZOGEN
 10
 651.0000
 20
 255.8600
 11
 651.0000
 21
 264.1400
  0
LINE
  8
200
  6
AUSGEZOGEN
 10
 665.1400
 20
 250.0000
 11
 656.8600
 21
 250.0000
  0
LINE
  8
200
  6
AUSGEZOGEN
 10
 641.0000
 20
 264.1400
 11
 641.0000
 21
 255.8600
  0
LINE
  8
200
  6
AUSGEZOGEN
 10
 626.8600
 20
 270.0000
 11
 635.1400
 21
 270.0000
  0
LINE
  8
200
  6
AUSGEZOGEN
 10
 621.0000
 20
 255.8600
 11
 621.0000
 21
 264.1400
  0
LINE
  8
200
  6
AUSGEZOGEN
 10
 635.1400
 20
 250.0000
 11
 626.8600
 21
 250.0000
  0
LINE
  8
200
  6
AUSGEZOGEN
 10
 611.0000
 20
 264.1400
 11
 611.0000
 21
 255.8600
  0
LINE
  8
200
  6
AUSGEZOGEN
 10
 596.8600
 20
 270.0000
 11
 605.1400
 21
 270.0000
  0
LINE
  8
200
  6
AUSGEZOGEN
 10
 591.0000
 20
 255.8600
 11
 591.0000
 21
 264.1400
  0
LINE
  8
200
  6
AUSGEZOGEN
 10
 605.1400
 20
 250.0000
 11
 596.8600
 21
 250.0000
  0
LINE
  8
200
  6
AUSGEZOGEN
 10
 581.0000
 20
 264.1400
 11
 581.0000
 21
 255.8600
  0
LINE
  8
200
  6
AUSGEZOGEN
 10
 566.8600
 20
 270.0000
 11
 575.1400
 21
 270.0000
  0
LINE
  8
200
  6
AUSGEZOGEN
 10
 561.0000
 20
 255.8600
 11
 561.0000
 21
 264.1400
  0
LINE
  8
200
  6
AUSGEZOGEN
 10
 575.1400
 20
 250.0000
 11
 566.8600
 21
 250.0000
  0
LINE
  8
200
  6
AUSGEZOGEN
 10
 551.0000
 20
 264.1400
 11
 551.0000
 21
 255.8600
  0
LINE
  8
200
  6
AUSGEZOGEN
 10
 536.8600
 20
 270.0000
 11
 545.1400
 21
 270.0000
  0
LINE
  8
200
  6
AUSGEZOGEN
 10
 531.0000
 20
 255.8600
 11
 531.0000
 21
 264.1400
  0
LINE
  8
200
  6
AUSGEZOGEN
 10
 545.1400
 20
 250.0000
 11
 536.8600
 21
 250.0000
  0
LINE
  8
200
  6
AUSGEZOGEN
 10
 111.0000
 20
 255.8600
 11
 116.8600
 21
 250.0000
  0
LINE
  8
200
  6
AUSGEZOGEN
 10
 116.8600
 20
 270.0000
 11
 111.0000
 21
 264.1400
  0
LINE
  8
200
  6
AUSGEZOGEN
 10
 131.0000
 20
 264.1400
 11
 125.1400
 21
 270.0000
  0
LINE
  8
200
  6
AUSGEZOGEN
 10
 125.1400
 20
 250.0000
 11
 131.0000
 21
 255.8600
  0
LINE
  8
200
  6
AUSGEZOGEN
 10
 141.0000
 20
 255.8600
 11
 146.8600
 21
 250.0000
  0
LINE
  8
200
  6
AUSGEZOGEN
 10
 146.8600
 20
 270.0000
 11
 141.0000
 21
 264.1400
  0
LINE
  8
200
  6
AUSGEZOGEN
 10
 161.0000
 20
 264.1400
 11
 155.1400
 21
 270.0000
  0
LINE
  8
200
  6
AUSGEZOGEN
 10
 155.1400
 20
 250.0000
 11
 161.0000
 21
 255.8600
  0
LINE
  8
200
  6
AUSGEZOGEN
 10
 171.0000
 20
 255.8600
 11
 176.8600
 21
 250.0000
  0
LINE
  8
200
  6
AUSGEZOGEN
 10
 176.8600
 20
 270.0000
 11
 171.0000
 21
 264.1400
  0
LINE
  8
200
  6
AUSGEZOGEN
 10
 191.0000
 20
 264.1400
 11
 185.1400
 21
 270.0000
  0
LINE
  8
200
  6
AUSGEZOGEN
 10
 185.1400
 20
 250.0000
 11
 191.0000
 21
 255.8600
  0
LINE
  8
200
  6
AUSGEZOGEN
 10
 201.0000
 20
 255.8600
 11
 206.8600
 21
 250.0000
  0
LINE
  8
200
  6
AUSGEZOGEN
 10
 206.8600
 20
 270.0000
 11
 201.0000
 21
 264.1400
  0
LINE
  8
200
  6
AUSGEZOGEN
 10
 221.0000
 20
 264.1400
 11
 215.1400
 21
 270.0000
  0
LINE
  8
200
  6
AUSGEZOGEN
 10
 215.1400
 20
 250.0000
 11
 221.0000
 21
 255.8600
  0
LINE
  8
200
  6
AUSGEZOGEN
 10
 231.0000
 20
 255.8600
 11
 236.8600
 21
 250.0000
  0
LINE
  8
200
  6
AUSGEZOGEN
 10
 236.8600
 20
 270.0000
 11
 231.0000
 21
 264.1400
  0
LINE
  8
200
  6
AUSGEZOGEN
 10
 251.0000
 20
 264.1400
 11
 245.1400
 21
 270.0000
  0
LINE
  8
200
  6
AUSGEZOGEN
 10
 245.1400
 20
 250.0000
 11
 251.0000
 21
 255.8600
  0
LINE
  8
200
  6
AUSGEZOGEN
 10
 261.0000
 20
 255.8600
 11
 266.8600
 21
 250.0000
  0
LINE
  8
200
  6
AUSGEZOGEN
 10
 266.8600
 20
 270.0000
 11
 261.0000
 21
 264.1400
  0
LINE
  8
200
  6
AUSGEZOGEN
 10
 281.0000
 20
 264.1400
 11
 275.1400
 21
 270.0000
  0
LINE
  8
200
  6
AUSGEZOGEN
 10
 275.1400
 20
 250.0000
 11
 281.0000
 21
 255.8600
  0
LINE
  8
200
  6
AUSGEZOGEN
 10
 291.0000
 20
 255.8600
 11
 296.8600
 21
 250.0000
  0
LINE
  8
200
  6
AUSGEZOGEN
 10
 296.8600
 20
 270.0000
 11
 291.0000
 21
 264.1400
  0
LINE
  8
200
  6
AUSGEZOGEN
 10
 311.0000
 20
 264.1400
 11
 305.1400
 21
 270.0000
  0
LINE
  8
200
  6
AUSGEZOGEN
 10
 305.1400
 20
 250.0000
 11
 311.0000
 21
 255.8600
  0
LINE
  8
200
  6
AUSGEZOGEN
 10
 321.0000
 20
 255.8600
 11
 326.8600
 21
 250.0000
  0
LINE
  8
200
  6
AUSGEZOGEN
 10
 326.8600
 20
 270.0000
 11
 321.0000
 21
 264.1400
  0
LINE
  8
200
  6
AUSGEZOGEN
 10
 341.0000
 20
 264.1400
 11
 335.1400
 21
 270.0000
  0
LINE
  8
200
  6
AUSGEZOGEN
 10
 335.1400
 20
 250.0000
 11
 341.0000
 21
 255.8600
  0
LINE
  8
200
  6
AUSGEZOGEN
 10
 351.0000
 20
 255.8600
 11
 356.8600
 21
 250.0000
  0
LINE
  8
200
  6
AUSGEZOGEN
 10
 356.8600
 20
 270.0000
 11
 351.0000
 21
 264.1400
  0
LINE
  8
200
  6
AUSGEZOGEN
 10
 371.0000
 20
 264.1400
 11
 365.1400
 21
 270.0000
  0
LINE
  8
200
  6
AUSGEZOGEN
 10
 365.1400
 20
 250.0000
 11
 371.0000
 21
 255.8600
  0
LINE
  8
200
  6
AUSGEZOGEN
 10
 381.0000
 20
 255.8600
 11
 386.8600
 21
 250.0000
  0
LINE
  8
200
  6
AUSGEZOGEN
 10
 386.8600
 20
 270.0000
 11
 381.0000
 21
 264.1400
  0
LINE
  8
200
  6
AUSGEZOGEN
 10
 401.0000
 20
 264.1400
 11
 395.1400
 21
 270.0000
  0
LINE
  8
200
  6
AUSGEZOGEN
 10
 395.1400
 20
 250.0000
 11
 401.0000
 21
 255.8600
  0
LINE
  8
200
  6
AUSGEZOGEN
 10
 411.0000
 20
 255.8600
 11
 416.8600
 21
 250.0000
  0
LINE
  8
200
  6
AUSGEZOGEN
 10
 416.8600
 20
 270.0000
 11
 411.0000
 21
 264.1400
  0
LINE
  8
200
  6
AUSGEZOGEN
 10
 431.0000
 20
 264.1400
 11
 425.1400
 21
 270.0000
  0
LINE
  8
200
  6
AUSGEZOGEN
 10
 425.1400
 20
 250.0000
 11
 431.0000
 21
 255.8600
  0
LINE
  8
200
  6
AUSGEZOGEN
 10
 441.0000
 20
 255.8600
 11
 446.8600
 21
 250.0000
  0
LINE
  8
200
  6
AUSGEZOGEN
 10
 446.8600
 20
 270.0000
 11
 441.0000
 21
 264.1400
  0
LINE
  8
200
  6
AUSGEZOGEN
 10
 461.0000
 20
 264.1400
 11
 455.1400
 21
 270.0000
  0
LINE
  8
200
  6
AUSGEZOGEN
 10
 455.1400
 20
 250.0000
 11
 461.0000
 21
 255.8600
  0
LINE
  8
200
  6
AUSGEZOGEN
 10
 471.0000
 20
 255.8600
 11
 476.8600
 21
 250.0000
  0
LINE
  8
200
  6
AUSGEZOGEN
 10
 476.8600
 20
 270.0000
 11
 471.0000
 21
 264.1400
  0
LINE
  8
200
  6
AUSGEZOGEN
 10
 491.0000
 20
 264.1400
 11
 485.1400
 21
 270.0000
  0
LINE
  8
200
  6
AUSGEZOGEN
 10
 485.1400
 20
 250.0000
 11
 491.0000
 21
 255.8600
  0
LINE
  8
200
  6
AUSGEZOGEN
 10
 501.0000
 20
 255.8600
 11
 506.8600
 21
 250.0000
  0
LINE
  8
200
  6
AUSGEZOGEN
 10
 506.8600
 20
 270.0000
 11
 501.0000
 21
 264.1400
  0
LINE
  8
200
  6
AUSGEZOGEN
 10
 521.0000
 20
 264.1400
 11
 515.1400
 21
 270.0000
  0
LINE
  8
200
  6
AUSGEZOGEN
 10
 515.1400
 20
 250.0000
 11
 521.0000
 21
 255.8600
  0
LINE
  8
200
  6
AUSGEZOGEN
 10
 531.0000
 20
 255.8600
 11
 536.8600
 21
 250.0000
  0
LINE
  8
200
  6
AUSGEZOGEN
 10
 536.8600
 20
 270.0000
 11
 531.0000
 21
 264.1400
  0
LINE
  8
200
  6
AUSGEZOGEN
 10
 551.0000
 20
 264.1400
 11
 545.1400
 21
 270.0000
  0
LINE
  8
200
  6
AUSGEZOGEN
 10
 545.1400
 20
 250.0000
 11
 551.0000
 21
 255.8600
  0
LINE
  8
200
  6
AUSGEZOGEN
 10
 561.0000
 20
 255.8600
 11
 566.8600
 21
 250.0000
  0
LINE
  8
200
  6
AUSGEZOGEN
 10
 566.8600
 20
 270.0000
 11
 561.0000
 21
 264.1400
  0
LINE
  8
200
  6
AUSGEZOGEN
 10
 581.0000
 20
 264.1400
 11
 575.1400
 21
 270.0000
  0
LINE
  8
200
  6
AUSGEZOGEN
 10
 575.1400
 20
 250.0000
 11
 581.0000
 21
 255.8600
  0
LINE
  8
200
  6
AUSGEZOGEN
 10
 591.0000
 20
 255.8600
 11
 596.8600
 21
 250.0000
  0
LINE
  8
200
  6
AUSGEZOGEN
 10
 596.8600
 20
 270.0000
 11
 591.0000
 21
 264.1400
  0
LINE
  8
200
  6
AUSGEZOGEN
 10
 611.0000
 20
 264.1400
 11
 605.1400
 21
 270.0000
  0
LINE
  8
200
  6
AUSGEZOGEN
 10
 605.1400
 20
 250.0000
 11
 611.0000
 21
 255.8600
  0
LINE
  8
200
  6
AUSGEZOGEN
 10
 621.0000
 20
 255.8600
 11
 626.8600
 21
 250.0000
  0
LINE
  8
200
  6
AUSGEZOGEN
 10
 626.8600
 20
 270.0000
 11
 621.0000
 21
 264.1400
  0
LINE
  8
200
  6
AUSGEZOGEN
 10
 641.0000
 20
 264.1400
 11
 635.1400
 21
 270.0000
  0
LINE
  8
200
  6
AUSGEZOGEN
 10
 635.1400
 20
 250.0000
 11
 641.0000
 21
 255.8600
  0
LINE
  8
200
  6
AUSGEZOGEN
 10
 651.0000
 20
 255.8600
 11
 656.8600
 21
 250.0000
  0
LINE
  8
200
  6
AUSGEZOGEN
 10
 656.8600
 20
 270.0000
 11
 651.0000
 21
 264.1400
  0
LINE
  8
200
  6
AUSGEZOGEN
 10
 671.0000
 20
 264.1400
 11
 665.1400
 21
 270.0000
  0
LINE
  8
200
  6
AUSGEZOGEN
 10
 665.1400
 20
 250.0000
 11
 671.0000
 21
 255.8600
  0
LINE
  8
200
  6
AUSGEZOGEN
 10
 681.0000
 20
 255.8600
 11
 686.8600
 21
 250.0000
  0
LINE
  8
200
  6
AUSGEZOGEN
 10
 686.8600
 20
 270.0000
 11
 681.0000
 21
 264.1400
  0
LINE
  8
200
  6
AUSGEZOGEN
 10
 701.0000
 20
 264.1400
 11
 695.1400
 21
 270.0000
  0
LINE
  8
200
  6
AUSGEZOGEN
 10
 695.1400
 20
 250.0000
 11
 701.0000
 21
 255.8600
  0
LINE
  8
200
  6
AUSGEZOGEN
 10
 711.0000
 20
 255.8600
 11
 716.8600
 21
 250.0000
  0
LINE
  8
200
  6
AUSGEZOGEN
 10
 716.8600
 20
 270.0000
 11
 711.0000
 21
 264.1400
  0
LINE
  8
200
  6
AUSGEZOGEN
 10
 731.0000
 20
 264.1400
 11
 725.1400
 21
 270.0000
  0
LINE
  8
200
  6
AUSGEZOGEN
 10
 725.1400
 20
 250.0000
 11
 731.0000
 21
 255.8600
  0
LINE
  8
200
  6
AUSGEZOGEN
 10
 741.0000
 20
 255.8600
 11
 746.8600
 21
 250.0000
  0
LINE
  8
200
  6
AUSGEZOGEN
 10
 746.8600
 20
 270.0000
 11
 741.0000
 21
 264.1400
  0
LINE
  8
200
  6
AUSGEZOGEN
 10
 761.0000
 20
 264.1400
 11
 755.1400
 21
 270.0000
  0
LINE
  8
200
  6
AUSGEZOGEN
 10
 755.1400
 20
 250.0000
 11
 761.0000
 21
 255.8600
  0
LINE
  8
200
  6
AUSGEZOGEN
 10
 771.0000
 20
 255.8600
 11
 776.8600
 21
 250.0000
  0
LINE
  8
200
  6
AUSGEZOGEN
 10
 776.8600
 20
 270.0000
 11
 771.0000
 21
 264.1400
  0
LINE
  8
200
  6
AUSGEZOGEN
 10
 791.0000
 20
 264.1400
 11
 785.1400
 21
 270.0000
  0
LINE
  8
200
  6
AUSGEZOGEN
 10
 785.1400
 20
 250.0000
 11
 791.0000
 21
 255.8600
  0
LINE
  8
200
  6
AUSGEZOGEN
 10
 801.0000
 20
 255.8600
 11
 806.8600
 21
 250.0000
  0
LINE
  8
200
  6
AUSGEZOGEN
 10
 806.8600
 20
 270.0000
 11
 801.0000
 21
 264.1400
  0
LINE
  8
200
  6
AUSGEZOGEN
 10
 821.0000
 20
 264.1400
 11
 815.1400
 21
 270.0000
  0
LINE
  8
200
  6
AUSGEZOGEN
 10
 815.1400
 20
 250.0000
 11
 821.0000
 21
 255.8600
  0
LINE
  8
200
  6
AUSGEZOGEN
 10
 831.0000
 20
 255.8600
 11
 836.8600
 21
 250.0000
  0
LINE
  8
200
  6
AUSGEZOGEN
 10
 836.8600
 20
 270.0000
 11
 831.0000
 21
 264.1400
  0
LINE
  8
200
  6
AUSGEZOGEN
 10
 851.0000
 20
 264.1400
 11
 845.1400
 21
 270.0000
  0
LINE
  8
200
  6
AUSGEZOGEN
 10
 845.1400
 20
 250.0000
 11
 851.0000
 21
 255.8600
  0
LINE
  8
200
  6
AUSGEZOGEN
 10
 861.0000
 20
 255.8600
 11
 866.8600
 21
 250.0000
  0
LINE
  8
200
  6
AUSGEZOGEN
 10
 866.8600
 20
 270.0000
 11
 861.0000
 21
 264.1400
  0
LINE
  8
200
  6
AUSGEZOGEN
 10
 881.0000
 20
 264.1400
 11
 875.1400
 21
 270.0000
  0
LINE
  8
200
  6
AUSGEZOGEN
 10
 875.1400
 20
 250.0000
 11
 881.0000
 21
 255.8600
  0
LINE
  8
200
  6
AUSGEZOGEN
 10
 891.0000
 20
 255.8600
 11
 896.8600
 21
 250.0000
  0
LINE
  8
200
  6
AUSGEZOGEN
 10
 896.8600
 20
 270.0000
 11
 891.0000
 21
 264.1400
  0
LINE
  8
200
  6
AUSGEZOGEN
 10
 911.0000
 20
 264.1400
 11
 905.1400
 21
 270.0000
  0
LINE
  8
200
  6
AUSGEZOGEN
 10
 905.1400
 20
 250.0000
 11
 911.0000
 21
 255.8600
  0
LINE
  8
200
  6
AUSGEZOGEN
 10
 921.0000
 20
 255.8600
 11
 926.8600
 21
 250.0000
  0
LINE
  8
200
  6
AUSGEZOGEN
 10
 926.8600
 20
 270.0000
 11
 921.0000
 21
 264.1400
  0
LINE
  8
200
  6
AUSGEZOGEN
 10
 941.0000
 20
 264.1400
 11
 935.1400
 21
 270.0000
  0
LINE
  8
200
  6
AUSGEZOGEN
 10
 935.1400
 20
 250.0000
 11
 941.0000
 21
 255.8600
  0
LINE
  8
200
  6
AUSGEZOGEN
 10
 951.0000
 20
 255.8600
 11
 956.8600
 21
 250.0000
  0
LINE
  8
200
  6
AUSGEZOGEN
 10
 956.8600
 20
 270.0000
 11
 951.0000
 21
 264.1400
  0
LINE
  8
200
  6
AUSGEZOGEN
 10
 971.0000
 20
 264.1400
 11
 965.1400
 21
 270.0000
  0
LINE
  8
200
  6
AUSGEZOGEN
 10
 965.1400
 20
 250.0000
 11
 971.0000
 21
 255.8600
  0
LINE
  8
200
  6
AUSGEZOGEN
 10
 981.0000
 20
 255.8600
 11
 986.8600
 21
 250.0000
  0
LINE
  8
200
  6
AUSGEZOGEN
 10
 986.8600
 20
 270.0000
 11
 981.0000
 21
 264.1400
  0
LINE
  8
200
  6
AUSGEZOGEN
 10
1001.0000
 20
 264.1400
 11
 995.1400
 21
 270.0000
  0
LINE
  8
200
  6
AUSGEZOGEN
 10
 995.1400
 20
 250.0000
 11
1001.0000
 21
 255.8600
  0
LINE
  8
200
  6
AUSGEZOGEN
 10
1011.0000
 20
 255.8600
 11
1016.8600
 21
 250.0000
  0
LINE
  8
200
  6
AUSGEZOGEN
 10
1016.8600
 20
 270.0000
 11
1011.0000
 21
 264.1400
  0
LINE
  8
200
  6
AUSGEZOGEN
 10
1031.0000
 20
 264.1400
 11
1025.1400
 21
 270.0000
  0
LINE
  8
200
  6
AUSGEZOGEN
 10
1025.1400
 20
 250.0000
 11
1031.0000
 21
 255.8600
  0
LINE
  8
200
  6
AUSGEZOGEN
 10
 531.0000
 20
 225.8600
 11
 536.8600
 21
 220.0000
  0
LINE
  8
200
  6
AUSGEZOGEN
 10
 536.8600
 20
 240.0000
 11
 531.0000
 21
 234.1400
  0
LINE
  8
200
  6
AUSGEZOGEN
 10
 551.0000
 20
 234.1400
 11
 545.1400
 21
 240.0000
  0
LINE
  8
200
  6
AUSGEZOGEN
 10
 545.1400
 20
 220.0000
 11
 551.0000
 21
 225.8600
  0
LINE
  8
200
  6
AUSGEZOGEN
 10
 561.0000
 20
 225.8600
 11
 566.8600
 21
 220.0000
  0
LINE
  8
200
  6
AUSGEZOGEN
 10
 566.8600
 20
 240.0000
 11
 561.0000
 21
 234.1400
  0
LINE
  8
200
  6
AUSGEZOGEN
 10
 581.0000
 20
 234.1400
 11
 575.1400
 21
 240.0000
  0
LINE
  8
200
  6
AUSGEZOGEN
 10
 575.1400
 20
 220.0000
 11
 581.0000
 21
 225.8600
  0
LINE
  8
200
  6
AUSGEZOGEN
 10
 591.0000
 20
 225.8600
 11
 596.8600
 21
 220.0000
  0
LINE
  8
200
  6
AUSGEZOGEN
 10
 596.8600
 20
 240.0000
 11
 591.0000
 21
 234.1400
  0
LINE
  8
200
  6
AUSGEZOGEN
 10
 611.0000
 20
 234.1400
 11
 605.1400
 21
 240.0000
  0
LINE
  8
200
  6
AUSGEZOGEN
 10
 605.1400
 20
 220.0000
 11
 611.0000
 21
 225.8600
  0
LINE
  8
200
  6
AUSGEZOGEN
 10
 621.0000
 20
 225.8600
 11
 626.8600
 21
 220.0000
  0
LINE
  8
200
  6
AUSGEZOGEN
 10
 626.8600
 20
 240.0000
 11
 621.0000
 21
 234.1400
  0
LINE
  8
200
  6
AUSGEZOGEN
 10
 641.0000
 20
 234.1400
 11
 635.1400
 21
 240.0000
  0
LINE
  8
200
  6
AUSGEZOGEN
 10
 635.1400
 20
 220.0000
 11
 641.0000
 21
 225.8600
  0
LINE
  8
200
  6
AUSGEZOGEN
 10
 651.0000
 20
 225.8600
 11
 656.8600
 21
 220.0000
  0
LINE
  8
200
  6
AUSGEZOGEN
 10
 656.8600
 20
 240.0000
 11
 651.0000
 21
 234.1400
  0
LINE
  8
200
  6
AUSGEZOGEN
 10
 671.0000
 20
 234.1400
 11
 665.1400
 21
 240.0000
  0
LINE
  8
200
  6
AUSGEZOGEN
 10
 665.1400
 20
 220.0000
 11
 671.0000
 21
 225.8600
  0
LINE
  8
200
  6
AUSGEZOGEN
 10
 681.0000
 20
 225.8600
 11
 686.8600
 21
 220.0000
  0
LINE
  8
200
  6
AUSGEZOGEN
 10
 686.8600
 20
 240.0000
 11
 681.0000
 21
 234.1400
  0
LINE
  8
200
  6
AUSGEZOGEN
 10
 701.0000
 20
 234.1400
 11
 695.1400
 21
 240.0000
  0
LINE
  8
200
  6
AUSGEZOGEN
 10
 695.1400
 20
 220.0000
 11
 701.0000
 21
 225.8600
  0
LINE
  8
200
  6
AUSGEZOGEN
 10
 711.0000
 20
 225.8600
 11
 716.8600
 21
 220.0000
  0
LINE
  8
200
  6
AUSGEZOGEN
 10
 716.8600
 20
 240.0000
 11
 711.0000
 21
 234.1400
  0
LINE
  8
200
  6
AUSGEZOGEN
 10
 731.0000
 20
 234.1400
 11
 725.1400
 21
 240.0000
  0
LINE
  8
200
  6
AUSGEZOGEN
 10
 725.1400
 20
 220.0000
 11
 731.0000
 21
 225.8600
  0
LINE
  8
200
  6
AUSGEZOGEN
 10
 741.0000
 20
 225.8600
 11
 746.8600
 21
 220.0000
  0
LINE
  8
200
  6
AUSGEZOGEN
 10
 746.8600
 20
 240.0000
 11
 741.0000
 21
 234.1400
  0
LINE
  8
200
  6
AUSGEZOGEN
 10
 761.0000
 20
 234.1400
 11
 755.1400
 21
 240.0000
  0
LINE
  8
200
  6
AUSGEZOGEN
 10
 755.1400
 20
 220.0000
 11
 761.0000
 21
 225.8600
  0
LINE
  8
200
  6
AUSGEZOGEN
 10
 771.0000
 20
 225.8600
 11
 776.8600
 21
 220.0000
  0
LINE
  8
200
  6
AUSGEZOGEN
 10
 776.8600
 20
 240.0000
 11
 771.0000
 21
 234.1400
  0
LINE
  8
200
  6
AUSGEZOGEN
 10
 791.0000
 20
 234.1400
 11
 785.1400
 21
 240.0000
  0
LINE
  8
200
  6
AUSGEZOGEN
 10
 785.1400
 20
 220.0000
 11
 791.0000
 21
 225.8600
  0
LINE
  8
200
  6
AUSGEZOGEN
 10
 801.0000
 20
 225.8600
 11
 806.8600
 21
 220.0000
  0
LINE
  8
200
  6
AUSGEZOGEN
 10
 806.8600
 20
 240.0000
 11
 801.0000
 21
 234.1400
  0
LINE
  8
200
  6
AUSGEZOGEN
 10
 821.0000
 20
 234.1400
 11
 815.1400
 21
 240.0000
  0
LINE
  8
200
  6
AUSGEZOGEN
 10
 815.1400
 20
 220.0000
 11
 821.0000
 21
 225.8600
  0
LINE
  8
200
  6
AUSGEZOGEN
 10
 831.0000
 20
 225.8600
 11
 836.8600
 21
 220.0000
  0
LINE
  8
200
  6
AUSGEZOGEN
 10
 836.8600
 20
 240.0000
 11
 831.0000
 21
 234.1400
  0
LINE
  8
200
  6
AUSGEZOGEN
 10
 851.0000
 20
 234.1400
 11
 845.1400
 21
 240.0000
  0
LINE
  8
200
  6
AUSGEZOGEN
 10
 845.1400
 20
 220.0000
 11
 851.0000
 21
 225.8600
  0
LINE
  8
200
  6
AUSGEZOGEN
 10
 861.0000
 20
 225.8600
 11
 866.8600
 21
 220.0000
  0
LINE
  8
200
  6
AUSGEZOGEN
 10
 866.8600
 20
 240.0000
 11
 861.0000
 21
 234.1400
  0
LINE
  8
200
  6
AUSGEZOGEN
 10
 881.0000
 20
 234.1400
 11
 875.1400
 21
 240.0000
  0
LINE
  8
200
  6
AUSGEZOGEN
 10
 875.1400
 20
 220.0000
 11
 881.0000
 21
 225.8600
  0
LINE
  8
200
  6
AUSGEZOGEN
 10
 891.0000
 20
 225.8600
 11
 896.8600
 21
 220.0000
  0
LINE
  8
200
  6
AUSGEZOGEN
 10
 896.8600
 20
 240.0000
 11
 891.0000
 21
 234.1400
  0
LINE
  8
200
  6
AUSGEZOGEN
 10
 911.0000
 20
 234.1400
 11
 905.1400
 21
 240.0000
  0
LINE
  8
200
  6
AUSGEZOGEN
 10
 905.1400
 20
 220.0000
 11
 911.0000
 21
 225.8600
  0
LINE
  8
200
  6
AUSGEZOGEN
 10
 921.0000
 20
 225.8600
 11
 926.8600
 21
 220.0000
  0
LINE
  8
200
  6
AUSGEZOGEN
 10
 926.8600
 20
 240.0000
 11
 921.0000
 21
 234.1400
  0
LINE
  8
200
  6
AUSGEZOGEN
 10
 941.0000
 20
 234.1400
 11
 935.1400
 21
 240.0000
  0
LINE
  8
200
  6
AUSGEZOGEN
 10
 935.1400
 20
 220.0000
 11
 941.0000
 21
 225.8600
  0
LINE
  8
200
  6
AUSGEZOGEN
 10
 951.0000
 20
 225.8600
 11
 956.8600
 21
 220.0000
  0
LINE
  8
200
  6
AUSGEZOGEN
 10
 956.8600
 20
 240.0000
 11
 951.0000
 21
 234.1400
  0
LINE
  8
200
  6
AUSGEZOGEN
 10
 971.0000
 20
 234.1400
 11
 965.1400
 21
 240.0000
  0
LINE
  8
200
  6
AUSGEZOGEN
 10
 965.1400
 20
 220.0000
 11
 971.0000
 21
 225.8600
  0
LINE
  8
200
  6
AUSGEZOGEN
 10
 981.0000
 20
 225.8600
 11
 986.8600
 21
 220.0000
  0
LINE
  8
200
  6
AUSGEZOGEN
 10
 986.8600
 20
 240.0000
 11
 981.0000
 21
 234.1400
  0
LINE
  8
200
  6
AUSGEZOGEN
 10
1001.0000
 20
 234.1400
 11
 995.1400
 21
 240.0000
  0
LINE
  8
200
  6
AUSGEZOGEN
 10
 995.1400
 20
 220.0000
 11
1001.0000
 21
 225.8600
  0
LINE
  8
200
  6
AUSGEZOGEN
 10
1011.0000
 20
 225.8600
 11
1016.8600
 21
 220.0000
  0
LINE
  8
200
  6
AUSGEZOGEN
 10
1016.8600
 20
 240.0000
 11
1011.0000
 21
 234.1400
  0
LINE
  8
200
  6
AUSGEZOGEN
 10
1031.0000
 20
 234.1400
 11
1025.1400
 21
 240.0000
  0
LINE
  8
200
  6
AUSGEZOGEN
 10
1025.1400
 20
 220.0000
 11
1031.0000
 21
 225.8600
  0
LINE
  8
200
  6
AUSGEZOGEN
 10
 531.0000
 20
 195.8600
 11
 536.8600
 21
 190.0000
  0
LINE
  8
200
  6
AUSGEZOGEN
 10
 536.8600
 20
 210.0000
 11
 531.0000
 21
 204.1400
  0
LINE
  8
200
  6
AUSGEZOGEN
 10
 551.0000
 20
 204.1400
 11
 545.1400
 21
 210.0000
  0
LINE
  8
200
  6
AUSGEZOGEN
 10
 545.1400
 20
 190.0000
 11
 551.0000
 21
 195.8600
  0
LINE
  8
200
  6
AUSGEZOGEN
 10
 561.0000
 20
 195.8600
 11
 566.8600
 21
 190.0000
  0
LINE
  8
200
  6
AUSGEZOGEN
 10
 566.8600
 20
 210.0000
 11
 561.0000
 21
 204.1400
  0
LINE
  8
200
  6
AUSGEZOGEN
 10
 581.0000
 20
 204.1400
 11
 575.1400
 21
 210.0000
  0
LINE
  8
200
  6
AUSGEZOGEN
 10
 575.1400
 20
 190.0000
 11
 581.0000
 21
 195.8600
  0
LINE
  8
200
  6
AUSGEZOGEN
 10
 591.0000
 20
 195.8600
 11
 596.8600
 21
 190.0000
  0
LINE
  8
200
  6
AUSGEZOGEN
 10
 596.8600
 20
 210.0000
 11
 591.0000
 21
 204.1400
  0
LINE
  8
200
  6
AUSGEZOGEN
 10
 611.0000
 20
 204.1400
 11
 605.1400
 21
 210.0000
  0
LINE
  8
200
  6
AUSGEZOGEN
 10
 605.1400
 20
 190.0000
 11
 611.0000
 21
 195.8600
  0
LINE
  8
200
  6
AUSGEZOGEN
 10
 621.0000
 20
 195.8600
 11
 626.8600
 21
 190.0000
  0
LINE
  8
200
  6
AUSGEZOGEN
 10
 626.8600
 20
 210.0000
 11
 621.0000
 21
 204.1400
  0
LINE
  8
200
  6
AUSGEZOGEN
 10
 641.0000
 20
 204.1400
 11
 635.1400
 21
 210.0000
  0
LINE
  8
200
  6
AUSGEZOGEN
 10
 635.1400
 20
 190.0000
 11
 641.0000
 21
 195.8600
  0
LINE
  8
200
  6
AUSGEZOGEN
 10
 651.0000
 20
 195.8600
 11
 656.8600
 21
 190.0000
  0
LINE
  8
200
  6
AUSGEZOGEN
 10
 656.8600
 20
 210.0000
 11
 651.0000
 21
 204.1400
  0
LINE
  8
200
  6
AUSGEZOGEN
 10
 671.0000
 20
 204.1400
 11
 665.1400
 21
 210.0000
  0
LINE
  8
200
  6
AUSGEZOGEN
 10
 665.1400
 20
 190.0000
 11
 671.0000
 21
 195.8600
  0
LINE
  8
200
  6
AUSGEZOGEN
 10
 681.0000
 20
 195.8600
 11
 686.8600
 21
 190.0000
  0
LINE
  8
200
  6
AUSGEZOGEN
 10
 686.8600
 20
 210.0000
 11
 681.0000
 21
 204.1400
  0
LINE
  8
200
  6
AUSGEZOGEN
 10
 701.0000
 20
 204.1400
 11
 695.1400
 21
 210.0000
  0
LINE
  8
200
  6
AUSGEZOGEN
 10
 695.1400
 20
 190.0000
 11
 701.0000
 21
 195.8600
  0
LINE
  8
200
  6
AUSGEZOGEN
 10
 711.0000
 20
 195.8600
 11
 716.8600
 21
 190.0000
  0
LINE
  8
200
  6
AUSGEZOGEN
 10
 716.8600
 20
 210.0000
 11
 711.0000
 21
 204.1400
  0
LINE
  8
200
  6
AUSGEZOGEN
 10
 731.0000
 20
 204.1400
 11
 725.1400
 21
 210.0000
  0
LINE
  8
200
  6
AUSGEZOGEN
 10
 725.1400
 20
 190.0000
 11
 731.0000
 21
 195.8600
  0
LINE
  8
200
  6
AUSGEZOGEN
 10
 741.0000
 20
 195.8600
 11
 746.8600
 21
 190.0000
  0
LINE
  8
200
  6
AUSGEZOGEN
 10
 746.8600
 20
 210.0000
 11
 741.0000
 21
 204.1400
  0
LINE
  8
200
  6
AUSGEZOGEN
 10
 761.0000
 20
 204.1400
 11
 755.1400
 21
 210.0000
  0
LINE
  8
200
  6
AUSGEZOGEN
 10
 755.1400
 20
 190.0000
 11
 761.0000
 21
 195.8600
  0
LINE
  8
200
  6
AUSGEZOGEN
 10
 771.0000
 20
 195.8600
 11
 776.8600
 21
 190.0000
  0
LINE
  8
200
  6
AUSGEZOGEN
 10
 776.8600
 20
 210.0000
 11
 771.0000
 21
 204.1400
  0
LINE
  8
200
  6
AUSGEZOGEN
 10
 791.0000
 20
 204.1400
 11
 785.1400
 21
 210.0000
  0
LINE
  8
200
  6
AUSGEZOGEN
 10
 785.1400
 20
 190.0000
 11
 791.0000
 21
 195.8600
  0
LINE
  8
200
  6
AUSGEZOGEN
 10
 801.0000
 20
 195.8600
 11
 806.8600
 21
 190.0000
  0
LINE
  8
200
  6
AUSGEZOGEN
 10
 806.8600
 20
 210.0000
 11
 801.0000
 21
 204.1400
  0
LINE
  8
200
  6
AUSGEZOGEN
 10
 821.0000
 20
 204.1400
 11
 815.1400
 21
 210.0000
  0
LINE
  8
200
  6
AUSGEZOGEN
 10
 815.1400
 20
 190.0000
 11
 821.0000
 21
 195.8600
  0
LINE
  8
200
  6
AUSGEZOGEN
 10
 831.0000
 20
 195.8600
 11
 836.8600
 21
 190.0000
  0
LINE
  8
200
  6
AUSGEZOGEN
 10
 836.8600
 20
 210.0000
 11
 831.0000
 21
 204.1400
  0
LINE
  8
200
  6
AUSGEZOGEN
 10
 851.0000
 20
 204.1400
 11
 845.1400
 21
 210.0000
  0
LINE
  8
200
  6
AUSGEZOGEN
 10
 845.1400
 20
 190.0000
 11
 851.0000
 21
 195.8600
  0
LINE
  8
200
  6
AUSGEZOGEN
 10
 861.0000
 20
 195.8600
 11
 866.8600
 21
 190.0000
  0
LINE
  8
200
  6
AUSGEZOGEN
 10
 866.8600
 20
 210.0000
 11
 861.0000
 21
 204.1400
  0
LINE
  8
200
  6
AUSGEZOGEN
 10
 881.0000
 20
 204.1400
 11
 875.1400
 21
 210.0000
  0
LINE
  8
200
  6
AUSGEZOGEN
 10
 875.1400
 20
 190.0000
 11
 881.0000
 21
 195.8600
  0
LINE
  8
200
  6
AUSGEZOGEN
 10
 891.0000
 20
 195.8600
 11
 896.8600
 21
 190.0000
  0
LINE
  8
200
  6
AUSGEZOGEN
 10
 896.8600
 20
 210.0000
 11
 891.0000
 21
 204.1400
  0
LINE
  8
200
  6
AUSGEZOGEN
 10
 911.0000
 20
 204.1400
 11
 905.1400
 21
 210.0000
  0
LINE
  8
200
  6
AUSGEZOGEN
 10
 905.1400
 20
 190.0000
 11
 911.0000
 21
 195.8600
  0
LINE
  8
200
  6
AUSGEZOGEN
 10
 921.0000
 20
 195.8600
 11
 926.8600
 21
 190.0000
  0
LINE
  8
200
  6
AUSGEZOGEN
 10
 926.8600
 20
 210.0000
 11
 921.0000
 21
 204.1400
  0
LINE
  8
200
  6
AUSGEZOGEN
 10
 941.0000
 20
 204.1400
 11
 935.1400
 21
 210.0000
  0
LINE
  8
200
  6
AUSGEZOGEN
 10
 935.1400
 20
 190.0000
 11
 941.0000
 21
 195.8600
  0
LINE
  8
200
  6
AUSGEZOGEN
 10
 951.0000
 20
 195.8600
 11
 956.8600
 21
 190.0000
  0
LINE
  8
200
  6
AUSGEZOGEN
 10
 956.8600
 20
 210.0000
 11
 951.0000
 21
 204.1400
  0
LINE
  8
200
  6
AUSGEZOGEN
 10
 971.0000
 20
 204.1400
 11
 965.1400
 21
 210.0000
  0
LINE
  8
200
  6
AUSGEZOGEN
 10
 965.1400
 20
 190.0000
 11
 971.0000
 21
 195.8600
  0
LINE
  8
200
  6
AUSGEZOGEN
 10
 981.0000
 20
 195.8600
 11
 986.8600
 21
 190.0000
  0
LINE
  8
200
  6
AUSGEZOGEN
 10
 986.8600
 20
 210.0000
 11
 981.0000
 21
 204.1400
  0
LINE
  8
200
  6
AUSGEZOGEN
 10
1001.0000
 20
 204.1400
 11
 995.1400
 21
 210.0000
  0
LINE
  8
200
  6
AUSGEZOGEN
 10
 995.1400
 20
 190.0000
 11
1001.0000
 21
 195.8600
  0
LINE
  8
200
  6
AUSGEZOGEN
 10
1011.0000
 20
 195.8600
 11
1016.8600
 21
 190.0000
  0
LINE
  8
200
  6
AUSGEZOGEN
 10
1016.8600
 20
 210.0000
 11
1011.0000
 21
 204.1400
  0
LINE
  8
200
  6
AUSGEZOGEN
 10
1031.0000
 20
 204.1400
 11
1025.1400
 21
 210.0000
  0
LINE
  8
200
  6
AUSGEZOGEN
 10
1025.1400
 20
 190.0000
 11
1031.0000
 21
 195.8600
  0
LINE
  8
200
  6
AUSGEZOGEN
 10
 531.0000
 20
 165.8600
 11
 536.8600
 21
 160.0000
  0
LINE
  8
200
  6
AUSGEZOGEN
 10
 536.8600
 20
 180.0000
 11
 531.0000
 21
 174.1400
  0
LINE
  8
200
  6
AUSGEZOGEN
 10
 551.0000
 20
 174.1400
 11
 545.1400
 21
 180.0000
  0
LINE
  8
200
  6
AUSGEZOGEN
 10
 545.1400
 20
 160.0000
 11
 551.0000
 21
 165.8600
  0
LINE
  8
200
  6
AUSGEZOGEN
 10
 561.0000
 20
 165.8600
 11
 566.8600
 21
 160.0000
  0
LINE
  8
200
  6
AUSGEZOGEN
 10
 566.8600
 20
 180.0000
 11
 561.0000
 21
 174.1400
  0
LINE
  8
200
  6
AUSGEZOGEN
 10
 581.0000
 20
 174.1400
 11
 575.1400
 21
 180.0000
  0
LINE
  8
200
  6
AUSGEZOGEN
 10
 575.1400
 20
 160.0000
 11
 581.0000
 21
 165.8600
  0
LINE
  8
200
  6
AUSGEZOGEN
 10
 591.0000
 20
 165.8600
 11
 596.8600
 21
 160.0000
  0
LINE
  8
200
  6
AUSGEZOGEN
 10
 596.8600
 20
 180.0000
 11
 591.0000
 21
 174.1400
  0
LINE
  8
200
  6
AUSGEZOGEN
 10
 611.0000
 20
 174.1400
 11
 605.1400
 21
 180.0000
  0
LINE
  8
200
  6
AUSGEZOGEN
 10
 605.1400
 20
 160.0000
 11
 611.0000
 21
 165.8600
  0
LINE
  8
200
  6
AUSGEZOGEN
 10
 621.0000
 20
 165.8600
 11
 626.8600
 21
 160.0000
  0
LINE
  8
200
  6
AUSGEZOGEN
 10
 626.8600
 20
 180.0000
 11
 621.0000
 21
 174.1400
  0
LINE
  8
200
  6
AUSGEZOGEN
 10
 641.0000
 20
 174.1400
 11
 635.1400
 21
 180.0000
  0
LINE
  8
200
  6
AUSGEZOGEN
 10
 635.1400
 20
 160.0000
 11
 641.0000
 21
 165.8600
  0
LINE
  8
200
  6
AUSGEZOGEN
 10
 651.0000
 20
 165.8600
 11
 656.8600
 21
 160.0000
  0
LINE
  8
200
  6
AUSGEZOGEN
 10
 656.8600
 20
 180.0000
 11
 651.0000
 21
 174.1400
  0
LINE
  8
200
  6
AUSGEZOGEN
 10
 671.0000
 20
 174.1400
 11
 665.1400
 21
 180.0000
  0
LINE
  8
200
  6
AUSGEZOGEN
 10
 665.1400
 20
 160.0000
 11
 671.0000
 21
 165.8600
  0
LINE
  8
200
  6
AUSGEZOGEN
 10
 681.0000
 20
 165.8600
 11
 686.8600
 21
 160.0000
  0
LINE
  8
200
  6
AUSGEZOGEN
 10
 686.8600
 20
 180.0000
 11
 681.0000
 21
 174.1400
  0
LINE
  8
200
  6
AUSGEZOGEN
 10
 701.0000
 20
 174.1400
 11
 695.1400
 21
 180.0000
  0
LINE
  8
200
  6
AUSGEZOGEN
 10
 695.1400
 20
 160.0000
 11
 701.0000
 21
 165.8600
  0
LINE
  8
200
  6
AUSGEZOGEN
 10
 711.0000
 20
 165.8600
 11
 716.8600
 21
 160.0000
  0
LINE
  8
200
  6
AUSGEZOGEN
 10
 716.8600
 20
 180.0000
 11
 711.0000
 21
 174.1400
  0
LINE
  8
200
  6
AUSGEZOGEN
 10
 731.0000
 20
 174.1400
 11
 725.1400
 21
 180.0000
  0
LINE
  8
200
  6
AUSGEZOGEN
 10
 725.1400
 20
 160.0000
 11
 731.0000
 21
 165.8600
  0
LINE
  8
200
  6
AUSGEZOGEN
 10
 741.0000
 20
 165.8600
 11
 746.8600
 21
 160.0000
  0
LINE
  8
200
  6
AUSGEZOGEN
 10
 746.8600
 20
 180.0000
 11
 741.0000
 21
 174.1400
  0
LINE
  8
200
  6
AUSGEZOGEN
 10
 761.0000
 20
 174.1400
 11
 755.1400
 21
 180.0000
  0
LINE
  8
200
  6
AUSGEZOGEN
 10
 755.1400
 20
 160.0000
 11
 761.0000
 21
 165.8600
  0
LINE
  8
200
  6
AUSGEZOGEN
 10
 771.0000
 20
 165.8600
 11
 776.8600
 21
 160.0000
  0
LINE
  8
200
  6
AUSGEZOGEN
 10
 776.8600
 20
 180.0000
 11
 771.0000
 21
 174.1400
  0
LINE
  8
200
  6
AUSGEZOGEN
 10
 791.0000
 20
 174.1400
 11
 785.1400
 21
 180.0000
  0
LINE
  8
200
  6
AUSGEZOGEN
 10
 785.1400
 20
 160.0000
 11
 791.0000
 21
 165.8600
  0
LINE
  8
200
  6
AUSGEZOGEN
 10
 801.0000
 20
 165.8600
 11
 806.8600
 21
 160.0000
  0
LINE
  8
200
  6
AUSGEZOGEN
 10
 806.8600
 20
 180.0000
 11
 801.0000
 21
 174.1400
  0
LINE
  8
200
  6
AUSGEZOGEN
 10
 821.0000
 20
 174.1400
 11
 815.1400
 21
 180.0000
  0
LINE
  8
200
  6
AUSGEZOGEN
 10
 815.1400
 20
 160.0000
 11
 821.0000
 21
 165.8600
  0
LINE
  8
200
  6
AUSGEZOGEN
 10
 831.0000
 20
 165.8600
 11
 836.8600
 21
 160.0000
  0
LINE
  8
200
  6
AUSGEZOGEN
 10
 836.8600
 20
 180.0000
 11
 831.0000
 21
 174.1400
  0
LINE
  8
200
  6
AUSGEZOGEN
 10
 851.0000
 20
 174.1400
 11
 845.1400
 21
 180.0000
  0
LINE
  8
200
  6
AUSGEZOGEN
 10
 845.1400
 20
 160.0000
 11
 851.0000
 21
 165.8600
  0
LINE
  8
200
  6
AUSGEZOGEN
 10
 861.0000
 20
 165.8600
 11
 866.8600
 21
 160.0000
  0
LINE
  8
200
  6
AUSGEZOGEN
 10
 866.8600
 20
 180.0000
 11
 861.0000
 21
 174.1400
  0
LINE
  8
200
  6
AUSGEZOGEN
 10
 881.0000
 20
 174.1400
 11
 875.1400
 21
 180.0000
  0
LINE
  8
200
  6
AUSGEZOGEN
 10
 875.1400
 20
 160.0000
 11
 881.0000
 21
 165.8600
  0
LINE
  8
200
  6
AUSGEZOGEN
 10
 891.0000
 20
 165.8600
 11
 896.8600
 21
 160.0000
  0
LINE
  8
200
  6
AUSGEZOGEN
 10
 896.8600
 20
 180.0000
 11
 891.0000
 21
 174.1400
  0
LINE
  8
200
  6
AUSGEZOGEN
 10
 911.0000
 20
 174.1400
 11
 905.1400
 21
 180.0000
  0
LINE
  8
200
  6
AUSGEZOGEN
 10
 905.1400
 20
 160.0000
 11
 911.0000
 21
 165.8600
  0
LINE
  8
200
  6
AUSGEZOGEN
 10
 921.0000
 20
 165.8600
 11
 926.8600
 21
 160.0000
  0
LINE
  8
200
  6
AUSGEZOGEN
 10
 926.8600
 20
 180.0000
 11
 921.0000
 21
 174.1400
  0
LINE
  8
200
  6
AUSGEZOGEN
 10
 941.0000
 20
 174.1400
 11
 935.1400
 21
 180.0000
  0
LINE
  8
200
  6
AUSGEZOGEN
 10
 935.1400
 20
 160.0000
 11
 941.0000
 21
 165.8600
  0
LINE
  8
200
  6
AUSGEZOGEN
 10
 951.0000
 20
 165.8600
 11
 956.8600
 21
 160.0000
  0
LINE
  8
200
  6
AUSGEZOGEN
 10
 956.8600
 20
 180.0000
 11
 951.0000
 21
 174.1400
  0
LINE
  8
200
  6
AUSGEZOGEN
 10
 971.0000
 20
 174.1400
 11
 965.1400
 21
 180.0000
  0
LINE
  8
200
  6
AUSGEZOGEN
 10
 965.1400
 20
 160.0000
 11
 971.0000
 21
 165.8600
  0
LINE
  8
200
  6
AUSGEZOGEN
 10
 981.0000
 20
 165.8600
 11
 986.8600
 21
 160.0000
  0
LINE
  8
200
  6
AUSGEZOGEN
 10
 986.8600
 20
 180.0000
 11
 981.0000
 21
 174.1400
  0
LINE
  8
200
  6
AUSGEZOGEN
 10
1001.0000
 20
 174.1400
 11
 995.1400
 21
 180.0000
  0
LINE
  8
200
  6
AUSGEZOGEN
 10
 995.1400
 20
 160.0000
 11
1001.0000
 21
 165.8600
  0
LINE
  8
200
  6
AUSGEZOGEN
 10
1011.0000
 20
 165.8600
 11
1016.8600
 21
 160.0000
  0
LINE
  8
200
  6
AUSGEZOGEN
 10
1016.8600
 20
 180.0000
 11
1011.0000
 21
 174.1400
  0
LINE
  8
200
  6
AUSGEZOGEN
 10
1031.0000
 20
 174.1400
 11
1025.1400
 21
 180.0000
  0
LINE
  8
200
  6
AUSGEZOGEN
 10
1025.1400
 20
 160.0000
 11
1031.0000
 21
 165.8600
  0
LINE
  8
200
  6
AUSGEZOGEN
 10
 531.0000
 20
 135.8600
 11
 536.8600
 21
 130.0000
  0
LINE
  8
200
  6
AUSGEZOGEN
 10
 536.8600
 20
 150.0000
 11
 531.0000
 21
 144.1400
  0
LINE
  8
200
  6
AUSGEZOGEN
 10
 551.0000
 20
 144.1400
 11
 545.1400
 21
 150.0000
  0
LINE
  8
200
  6
AUSGEZOGEN
 10
 545.1400
 20
 130.0000
 11
 551.0000
 21
 135.8600
  0
LINE
  8
200
  6
AUSGEZOGEN
 10
 561.0000
 20
 135.8600
 11
 566.8600
 21
 130.0000
  0
LINE
  8
200
  6
AUSGEZOGEN
 10
 566.8600
 20
 150.0000
 11
 561.0000
 21
 144.1400
  0
LINE
  8
200
  6
AUSGEZOGEN
 10
 581.0000
 20
 144.1400
 11
 575.1400
 21
 150.0000
  0
LINE
  8
200
  6
AUSGEZOGEN
 10
 575.1400
 20
 130.0000
 11
 581.0000
 21
 135.8600
  0
LINE
  8
200
  6
AUSGEZOGEN
 10
 591.0000
 20
 135.8600
 11
 596.8600
 21
 130.0000
  0
LINE
  8
200
  6
AUSGEZOGEN
 10
 596.8600
 20
 150.0000
 11
 591.0000
 21
 144.1400
  0
LINE
  8
200
  6
AUSGEZOGEN
 10
 611.0000
 20
 144.1400
 11
 605.1400
 21
 150.0000
  0
LINE
  8
200
  6
AUSGEZOGEN
 10
 605.1400
 20
 130.0000
 11
 611.0000
 21
 135.8600
  0
LINE
  8
200
  6
AUSGEZOGEN
 10
 621.0000
 20
 135.8600
 11
 626.8600
 21
 130.0000
  0
LINE
  8
200
  6
AUSGEZOGEN
 10
 626.8600
 20
 150.0000
 11
 621.0000
 21
 144.1400
  0
LINE
  8
200
  6
AUSGEZOGEN
 10
 641.0000
 20
 144.1400
 11
 635.1400
 21
 150.0000
  0
LINE
  8
200
  6
AUSGEZOGEN
 10
 635.1400
 20
 130.0000
 11
 641.0000
 21
 135.8600
  0
LINE
  8
200
  6
AUSGEZOGEN
 10
 651.0000
 20
 135.8600
 11
 656.8600
 21
 130.0000
  0
LINE
  8
200
  6
AUSGEZOGEN
 10
 656.8600
 20
 150.0000
 11
 651.0000
 21
 144.1400
  0
LINE
  8
200
  6
AUSGEZOGEN
 10
 671.0000
 20
 144.1400
 11
 665.1400
 21
 150.0000
  0
LINE
  8
200
  6
AUSGEZOGEN
 10
 665.1400
 20
 130.0000
 11
 671.0000
 21
 135.8600
  0
LINE
  8
200
  6
AUSGEZOGEN
 10
 681.0000
 20
 135.8600
 11
 686.8600
 21
 130.0000
  0
LINE
  8
200
  6
AUSGEZOGEN
 10
 686.8600
 20
 150.0000
 11
 681.0000
 21
 144.1400
  0
LINE
  8
200
  6
AUSGEZOGEN
 10
 701.0000
 20
 144.1400
 11
 695.1400
 21
 150.0000
  0
LINE
  8
200
  6
AUSGEZOGEN
 10
 695.1400
 20
 130.0000
 11
 701.0000
 21
 135.8600
  0
LINE
  8
200
  6
AUSGEZOGEN
 10
 711.0000
 20
 135.8600
 11
 716.8600
 21
 130.0000
  0
LINE
  8
200
  6
AUSGEZOGEN
 10
 716.8600
 20
 150.0000
 11
 711.0000
 21
 144.1400
  0
LINE
  8
200
  6
AUSGEZOGEN
 10
 731.0000
 20
 144.1400
 11
 725.1400
 21
 150.0000
  0
LINE
  8
200
  6
AUSGEZOGEN
 10
 725.1400
 20
 130.0000
 11
 731.0000
 21
 135.8600
  0
LINE
  8
200
  6
AUSGEZOGEN
 10
 741.0000
 20
 135.8600
 11
 746.8600
 21
 130.0000
  0
LINE
  8
200
  6
AUSGEZOGEN
 10
 746.8600
 20
 150.0000
 11
 741.0000
 21
 144.1400
  0
LINE
  8
200
  6
AUSGEZOGEN
 10
 761.0000
 20
 144.1400
 11
 755.1400
 21
 150.0000
  0
LINE
  8
200
  6
AUSGEZOGEN
 10
 755.1400
 20
 130.0000
 11
 761.0000
 21
 135.8600
  0
LINE
  8
200
  6
AUSGEZOGEN
 10
 771.0000
 20
 135.8600
 11
 776.8600
 21
 130.0000
  0
LINE
  8
200
  6
AUSGEZOGEN
 10
 776.8600
 20
 150.0000
 11
 771.0000
 21
 144.1400
  0
LINE
  8
200
  6
AUSGEZOGEN
 10
 791.0000
 20
 144.1400
 11
 785.1400
 21
 150.0000
  0
LINE
  8
200
  6
AUSGEZOGEN
 10
 785.1400
 20
 130.0000
 11
 791.0000
 21
 135.8600
  0
LINE
  8
200
  6
AUSGEZOGEN
 10
 801.0000
 20
 135.8600
 11
 806.8600
 21
 130.0000
  0
LINE
  8
200
  6
AUSGEZOGEN
 10
 806.8600
 20
 150.0000
 11
 801.0000
 21
 144.1400
  0
LINE
  8
200
  6
AUSGEZOGEN
 10
 821.0000
 20
 144.1400
 11
 815.1400
 21
 150.0000
  0
LINE
  8
200
  6
AUSGEZOGEN
 10
 815.1400
 20
 130.0000
 11
 821.0000
 21
 135.8600
  0
LINE
  8
200
  6
AUSGEZOGEN
 10
 831.0000
 20
 135.8600
 11
 836.8600
 21
 130.0000
  0
LINE
  8
200
  6
AUSGEZOGEN
 10
 836.8600
 20
 150.0000
 11
 831.0000
 21
 144.1400
  0
LINE
  8
200
  6
AUSGEZOGEN
 10
 851.0000
 20
 144.1400
 11
 845.1400
 21
 150.0000
  0
LINE
  8
200
  6
AUSGEZOGEN
 10
 845.1400
 20
 130.0000
 11
 851.0000
 21
 135.8600
  0
LINE
  8
200
  6
AUSGEZOGEN
 10
 861.0000
 20
 135.8600
 11
 866.8600
 21
 130.0000
  0
LINE
  8
200
  6
AUSGEZOGEN
 10
 866.8600
 20
 150.0000
 11
 861.0000
 21
 144.1400
  0
LINE
  8
200
  6
AUSGEZOGEN
 10
 881.0000
 20
 144.1400
 11
 875.1400
 21
 150.0000
  0
LINE
  8
200
  6
AUSGEZOGEN
 10
 875.1400
 20
 130.0000
 11
 881.0000
 21
 135.8600
  0
LINE
  8
200
  6
AUSGEZOGEN
 10
 891.0000
 20
 135.8600
 11
 896.8600
 21
 130.0000
  0
LINE
  8
200
  6
AUSGEZOGEN
 10
 896.8600
 20
 150.0000
 11
 891.0000
 21
 144.1400
  0
LINE
  8
200
  6
AUSGEZOGEN
 10
 911.0000
 20
 144.1400
 11
 905.1400
 21
 150.0000
  0
LINE
  8
200
  6
AUSGEZOGEN
 10
 905.1400
 20
 130.0000
 11
 911.0000
 21
 135.8600
  0
LINE
  8
200
  6
AUSGEZOGEN
 10
 921.0000
 20
 135.8600
 11
 926.8600
 21
 130.0000
  0
LINE
  8
200
  6
AUSGEZOGEN
 10
 926.8600
 20
 150.0000
 11
 921.0000
 21
 144.1400
  0
LINE
  8
200
  6
AUSGEZOGEN
 10
 941.0000
 20
 144.1400
 11
 935.1400
 21
 150.0000
  0
LINE
  8
200
  6
AUSGEZOGEN
 10
 935.1400
 20
 130.0000
 11
 941.0000
 21
 135.8600
  0
LINE
  8
200
  6
AUSGEZOGEN
 10
 951.0000
 20
 135.8600
 11
 956.8600
 21
 130.0000
  0
LINE
  8
200
  6
AUSGEZOGEN
 10
 956.8600
 20
 150.0000
 11
 951.0000
 21
 144.1400
  0
LINE
  8
200
  6
AUSGEZOGEN
 10
 971.0000
 20
 144.1400
 11
 965.1400
 21
 150.0000
  0
LINE
  8
200
  6
AUSGEZOGEN
 10
 965.1400
 20
 130.0000
 11
 971.0000
 21
 135.8600
  0
LINE
  8
200
  6
AUSGEZOGEN
 10
 981.0000
 20
 135.8600
 11
 986.8600
 21
 130.0000
  0
LINE
  8
200
  6
AUSGEZOGEN
 10
 986.8600
 20
 150.0000
 11
 981.0000
 21
 144.1400
  0
LINE
  8
200
  6
AUSGEZOGEN
 10
1001.0000
 20
 144.1400
 11
 995.1400
 21
 150.0000
  0
LINE
  8
200
  6
AUSGEZOGEN
 10
 995.1400
 20
 130.0000
 11
1001.0000
 21
 135.8600
  0
LINE
  8
200
  6
AUSGEZOGEN
 10
1011.0000
 20
 135.8600
 11
1016.8600
 21
 130.0000
  0
LINE
  8
200
  6
AUSGEZOGEN
 10
1016.8600
 20
 150.0000
 11
1011.0000
 21
 144.1400
  0
LINE
  8
200
  6
AUSGEZOGEN
 10
1031.0000
 20
 144.1400
 11
1025.1400
 21
 150.0000
  0
LINE
  8
200
  6
AUSGEZOGEN
 10
1025.1400
 20
 130.0000
 11
1031.0000
 21
 135.8600
  0
LINE
  8
200
  6
AUSGEZOGEN
 10
 531.0000
 20
 105.8600
 11
 536.8600
 21
 100.0000
  0
LINE
  8
200
  6
AUSGEZOGEN
 10
 536.8600
 20
 120.0000
 11
 531.0000
 21
 114.1400
  0
LINE
  8
200
  6
AUSGEZOGEN
 10
 551.0000
 20
 114.1400
 11
 545.1400
 21
 120.0000
  0
LINE
  8
200
  6
AUSGEZOGEN
 10
 545.1400
 20
 100.0000
 11
 551.0000
 21
 105.8600
  0
LINE
  8
200
  6
AUSGEZOGEN
 10
 561.0000
 20
 105.8600
 11
 566.8600
 21
 100.0000
  0
LINE
  8
200
  6
AUSGEZOGEN
 10
 566.8600
 20
 120.0000
 11
 561.0000
 21
 114.1400
  0
LINE
  8
200
  6
AUSGEZOGEN
 10
 581.0000
 20
 114.1400
 11
 575.1400
 21
 120.0000
  0
LINE
  8
200
  6
AUSGEZOGEN
 10
 575.1400
 20
 100.0000
 11
 581.0000
 21
 105.8600
  0
LINE
  8
200
  6
AUSGEZOGEN
 10
 591.0000
 20
 105.8600
 11
 596.8600
 21
 100.0000
  0
LINE
  8
200
  6
AUSGEZOGEN
 10
 596.8600
 20
 120.0000
 11
 591.0000
 21
 114.1400
  0
LINE
  8
200
  6
AUSGEZOGEN
 10
 611.0000
 20
 114.1400
 11
 605.1400
 21
 120.0000
  0
LINE
  8
200
  6
AUSGEZOGEN
 10
 605.1400
 20
 100.0000
 11
 611.0000
 21
 105.8600
  0
LINE
  8
200
  6
AUSGEZOGEN
 10
 621.0000
 20
 105.8600
 11
 626.8600
 21
 100.0000
  0
LINE
  8
200
  6
AUSGEZOGEN
 10
 626.8600
 20
 120.0000
 11
 621.0000
 21
 114.1400
  0
LINE
  8
200
  6
AUSGEZOGEN
 10
 641.0000
 20
 114.1400
 11
 635.1400
 21
 120.0000
  0
LINE
  8
200
  6
AUSGEZOGEN
 10
 635.1400
 20
 100.0000
 11
 641.0000
 21
 105.8600
  0
LINE
  8
200
  6
AUSGEZOGEN
 10
 651.0000
 20
 105.8600
 11
 656.8600
 21
 100.0000
  0
LINE
  8
200
  6
AUSGEZOGEN
 10
 656.8600
 20
 120.0000
 11
 651.0000
 21
 114.1400
  0
LINE
  8
200
  6
AUSGEZOGEN
 10
 671.0000
 20
 114.1400
 11
 665.1400
 21
 120.0000
  0
LINE
  8
200
  6
AUSGEZOGEN
 10
 665.1400
 20
 100.0000
 11
 671.0000
 21
 105.8600
  0
LINE
  8
200
  6
AUSGEZOGEN
 10
 681.0000
 20
 105.8600
 11
 686.8600
 21
 100.0000
  0
LINE
  8
200
  6
AUSGEZOGEN
 10
 686.8600
 20
 120.0000
 11
 681.0000
 21
 114.1400
  0
LINE
  8
200
  6
AUSGEZOGEN
 10
 701.0000
 20
 114.1400
 11
 695.1400
 21
 120.0000
  0
LINE
  8
200
  6
AUSGEZOGEN
 10
 695.1400
 20
 100.0000
 11
 701.0000
 21
 105.8600
  0
LINE
  8
200
  6
AUSGEZOGEN
 10
 711.0000
 20
 105.8600
 11
 716.8600
 21
 100.0000
  0
LINE
  8
200
  6
AUSGEZOGEN
 10
 716.8600
 20
 120.0000
 11
 711.0000
 21
 114.1400
  0
LINE
  8
200
  6
AUSGEZOGEN
 10
 731.0000
 20
 114.1400
 11
 725.1400
 21
 120.0000
  0
LINE
  8
200
  6
AUSGEZOGEN
 10
 725.1400
 20
 100.0000
 11
 731.0000
 21
 105.8600
  0
LINE
  8
200
  6
AUSGEZOGEN
 10
 741.0000
 20
 105.8600
 11
 746.8600
 21
 100.0000
  0
LINE
  8
200
  6
AUSGEZOGEN
 10
 746.8600
 20
 120.0000
 11
 741.0000
 21
 114.1400
  0
LINE
  8
200
  6
AUSGEZOGEN
 10
 761.0000
 20
 114.1400
 11
 755.1400
 21
 120.0000
  0
LINE
  8
200
  6
AUSGEZOGEN
 10
 755.1400
 20
 100.0000
 11
 761.0000
 21
 105.8600
  0
LINE
  8
200
  6
AUSGEZOGEN
 10
 771.0000
 20
 105.8600
 11
 776.8600
 21
 100.0000
  0
LINE
  8
200
  6
AUSGEZOGEN
 10
 776.8600
 20
 120.0000
 11
 771.0000
 21
 114.1400
  0
LINE
  8
200
  6
AUSGEZOGEN
 10
 791.0000
 20
 114.1400
 11
 785.1400
 21
 120.0000
  0
LINE
  8
200
  6
AUSGEZOGEN
 10
 785.1400
 20
 100.0000
 11
 791.0000
 21
 105.8600
  0
LINE
  8
200
  6
AUSGEZOGEN
 10
 801.0000
 20
 105.8600
 11
 806.8600
 21
 100.0000
  0
LINE
  8
200
  6
AUSGEZOGEN
 10
 806.8600
 20
 120.0000
 11
 801.0000
 21
 114.1400
  0
LINE
  8
200
  6
AUSGEZOGEN
 10
 821.0000
 20
 114.1400
 11
 815.1400
 21
 120.0000
  0
LINE
  8
200
  6
AUSGEZOGEN
 10
 815.1400
 20
 100.0000
 11
 821.0000
 21
 105.8600
  0
LINE
  8
200
  6
AUSGEZOGEN
 10
 831.0000
 20
 105.8600
 11
 836.8600
 21
 100.0000
  0
LINE
  8
200
  6
AUSGEZOGEN
 10
 836.8600
 20
 120.0000
 11
 831.0000
 21
 114.1400
  0
LINE
  8
200
  6
AUSGEZOGEN
 10
 851.0000
 20
 114.1400
 11
 845.1400
 21
 120.0000
  0
LINE
  8
200
  6
AUSGEZOGEN
 10
 845.1400
 20
 100.0000
 11
 851.0000
 21
 105.8600
  0
LINE
  8
200
  6
AUSGEZOGEN
 10
 861.0000
 20
 105.8600
 11
 866.8600
 21
 100.0000
  0
LINE
  8
200
  6
AUSGEZOGEN
 10
 866.8600
 20
 120.0000
 11
 861.0000
 21
 114.1400
  0
LINE
  8
200
  6
AUSGEZOGEN
 10
 881.0000
 20
 114.1400
 11
 875.1400
 21
 120.0000
  0
LINE
  8
200
  6
AUSGEZOGEN
 10
 875.1400
 20
 100.0000
 11
 881.0000
 21
 105.8600
  0
LINE
  8
200
  6
AUSGEZOGEN
 10
 891.0000
 20
 105.8600
 11
 896.8600
 21
 100.0000
  0
LINE
  8
200
  6
AUSGEZOGEN
 10
 896.8600
 20
 120.0000
 11
 891.0000
 21
 114.1400
  0
LINE
  8
200
  6
AUSGEZOGEN
 10
 911.0000
 20
 114.1400
 11
 905.1400
 21
 120.0000
  0
LINE
  8
200
  6
AUSGEZOGEN
 10
 905.1400
 20
 100.0000
 11
 911.0000
 21
 105.8600
  0
LINE
  8
200
  6
AUSGEZOGEN
 10
 921.0000
 20
 105.8600
 11
 926.8600
 21
 100.0000
  0
LINE
  8
200
  6
AUSGEZOGEN
 10
 926.8600
 20
 120.0000
 11
 921.0000
 21
 114.1400
  0
LINE
  8
200
  6
AUSGEZOGEN
 10
 941.0000
 20
 114.1400
 11
 935.1400
 21
 120.0000
  0
LINE
  8
200
  6
AUSGEZOGEN
 10
 935.1400
 20
 100.0000
 11
 941.0000
 21
 105.8600
  0
LINE
  8
200
  6
AUSGEZOGEN
 10
 951.0000
 20
 105.8600
 11
 956.8600
 21
 100.0000
  0
LINE
  8
200
  6
AUSGEZOGEN
 10
 956.8600
 20
 120.0000
 11
 951.0000
 21
 114.1400
  0
LINE
  8
200
  6
AUSGEZOGEN
 10
 971.0000
 20
 114.1400
 11
 965.1400
 21
 120.0000
  0
LINE
  8
200
  6
AUSGEZOGEN
 10
 965.1400
 20
 100.0000
 11
 971.0000
 21
 105.8600
  0
LINE
  8
200
  6
AUSGEZOGEN
 10
 981.0000
 20
 105.8600
 11
 986.8600
 21
 100.0000
  0
LINE
  8
200
  6
AUSGEZOGEN
 10
 986.8600
 20
 120.0000
 11
 981.0000
 21
 114.1400
  0
LINE
  8
200
  6
AUSGEZOGEN
 10
1001.0000
 20
 114.1400
 11
 995.1400
 21
 120.0000
  0
LINE
  8
200
  6
AUSGEZOGEN
 10
 995.1400
 20
 100.0000
 11
1001.0000
 21
 105.8600
  0
LINE
  8
200
  6
AUSGEZOGEN
 10
1011.0000
 20
 105.8600
 11
1016.8600
 21
 100.0000
  0
LINE
  8
200
  6
AUSGEZOGEN
 10
1016.8600
 20
 120.0000
 11
1011.0000
 21
 114.1400
  0
LINE
  8
200
  6
AUSGEZOGEN
 10
1031.0000
 20
 114.1400
 11
1025.1400
 21
 120.0000
  0
LINE
  8
200
  6
AUSGEZOGEN
 10
1025.1400
 20
 100.0000
 11
1031.0000
 21
 105.8600
  0
LINE
  8
200
  6
AUSGEZOGEN
 10
 531.0000
 20
 285.8600
 11
 536.8600
 21
 280.0000
  0
LINE
  8
200
  6
AUSGEZOGEN
 10
 536.8600
 20
 300.0000
 11
 531.0000
 21
 294.1400
  0
LINE
  8
200
  6
AUSGEZOGEN
 10
 551.0000
 20
 294.1400
 11
 545.1400
 21
 300.0000
  0
LINE
  8
200
  6
AUSGEZOGEN
 10
 545.1400
 20
 280.0000
 11
 551.0000
 21
 285.8600
  0
LINE
  8
200
  6
AUSGEZOGEN
 10
 561.0000
 20
 285.8600
 11
 566.8600
 21
 280.0000
  0
LINE
  8
200
  6
AUSGEZOGEN
 10
 566.8600
 20
 300.0000
 11
 561.0000
 21
 294.1400
  0
LINE
  8
200
  6
AUSGEZOGEN
 10
 581.0000
 20
 294.1400
 11
 575.1400
 21
 300.0000
  0
LINE
  8
200
  6
AUSGEZOGEN
 10
 575.1400
 20
 280.0000
 11
 581.0000
 21
 285.8600
  0
LINE
  8
200
  6
AUSGEZOGEN
 10
 591.0000
 20
 285.8600
 11
 596.8600
 21
 280.0000
  0
LINE
  8
200
  6
AUSGEZOGEN
 10
 596.8600
 20
 300.0000
 11
 591.0000
 21
 294.1400
  0
LINE
  8
200
  6
AUSGEZOGEN
 10
 611.0000
 20
 294.1400
 11
 605.1400
 21
 300.0000
  0
LINE
  8
200
  6
AUSGEZOGEN
 10
 605.1400
 20
 280.0000
 11
 611.0000
 21
 285.8600
  0
LINE
  8
200
  6
AUSGEZOGEN
 10
 621.0000
 20
 285.8600
 11
 626.8600
 21
 280.0000
  0
LINE
  8
200
  6
AUSGEZOGEN
 10
 626.8600
 20
 300.0000
 11
 621.0000
 21
 294.1400
  0
LINE
  8
200
  6
AUSGEZOGEN
 10
 641.0000
 20
 294.1400
 11
 635.1400
 21
 300.0000
  0
LINE
  8
200
  6
AUSGEZOGEN
 10
 635.1400
 20
 280.0000
 11
 641.0000
 21
 285.8600
  0
LINE
  8
200
  6
AUSGEZOGEN
 10
 651.0000
 20
 285.8600
 11
 656.8600
 21
 280.0000
  0
LINE
  8
200
  6
AUSGEZOGEN
 10
 656.8600
 20
 300.0000
 11
 651.0000
 21
 294.1400
  0
LINE
  8
200
  6
AUSGEZOGEN
 10
 671.0000
 20
 294.1400
 11
 665.1400
 21
 300.0000
  0
LINE
  8
200
  6
AUSGEZOGEN
 10
 665.1400
 20
 280.0000
 11
 671.0000
 21
 285.8600
  0
LINE
  8
200
  6
AUSGEZOGEN
 10
 681.0000
 20
 285.8600
 11
 686.8600
 21
 280.0000
  0
LINE
  8
200
  6
AUSGEZOGEN
 10
 686.8600
 20
 300.0000
 11
 681.0000
 21
 294.1400
  0
LINE
  8
200
  6
AUSGEZOGEN
 10
 701.0000
 20
 294.1400
 11
 695.1400
 21
 300.0000
  0
LINE
  8
200
  6
AUSGEZOGEN
 10
 695.1400
 20
 280.0000
 11
 701.0000
 21
 285.8600
  0
LINE
  8
200
  6
AUSGEZOGEN
 10
 711.0000
 20
 285.8600
 11
 716.8600
 21
 280.0000
  0
LINE
  8
200
  6
AUSGEZOGEN
 10
 716.8600
 20
 300.0000
 11
 711.0000
 21
 294.1400
  0
LINE
  8
200
  6
AUSGEZOGEN
 10
 731.0000
 20
 294.1400
 11
 725.1400
 21
 300.0000
  0
LINE
  8
200
  6
AUSGEZOGEN
 10
 725.1400
 20
 280.0000
 11
 731.0000
 21
 285.8600
  0
LINE
  8
200
  6
AUSGEZOGEN
 10
 741.0000
 20
 285.8600
 11
 746.8600
 21
 280.0000
  0
LINE
  8
200
  6
AUSGEZOGEN
 10
 746.8600
 20
 300.0000
 11
 741.0000
 21
 294.1400
  0
LINE
  8
200
  6
AUSGEZOGEN
 10
 761.0000
 20
 294.1400
 11
 755.1400
 21
 300.0000
  0
LINE
  8
200
  6
AUSGEZOGEN
 10
 755.1400
 20
 280.0000
 11
 761.0000
 21
 285.8600
  0
LINE
  8
200
  6
AUSGEZOGEN
 10
 771.0000
 20
 285.8600
 11
 776.8600
 21
 280.0000
  0
LINE
  8
200
  6
AUSGEZOGEN
 10
 776.8600
 20
 300.0000
 11
 771.0000
 21
 294.1400
  0
LINE
  8
200
  6
AUSGEZOGEN
 10
 791.0000
 20
 294.1400
 11
 785.1400
 21
 300.0000
  0
LINE
  8
200
  6
AUSGEZOGEN
 10
 785.1400
 20
 280.0000
 11
 791.0000
 21
 285.8600
  0
LINE
  8
200
  6
AUSGEZOGEN
 10
 801.0000
 20
 285.8600
 11
 806.8600
 21
 280.0000
  0
LINE
  8
200
  6
AUSGEZOGEN
 10
 806.8600
 20
 300.0000
 11
 801.0000
 21
 294.1400
  0
LINE
  8
200
  6
AUSGEZOGEN
 10
 821.0000
 20
 294.1400
 11
 815.1400
 21
 300.0000
  0
LINE
  8
200
  6
AUSGEZOGEN
 10
 815.1400
 20
 280.0000
 11
 821.0000
 21
 285.8600
  0
LINE
  8
200
  6
AUSGEZOGEN
 10
 831.0000
 20
 285.8600
 11
 836.8600
 21
 280.0000
  0
LINE
  8
200
  6
AUSGEZOGEN
 10
 836.8600
 20
 300.0000
 11
 831.0000
 21
 294.1400
  0
LINE
  8
200
  6
AUSGEZOGEN
 10
 851.0000
 20
 294.1400
 11
 845.1400
 21
 300.0000
  0
LINE
  8
200
  6
AUSGEZOGEN
 10
 845.1400
 20
 280.0000
 11
 851.0000
 21
 285.8600
  0
LINE
  8
200
  6
AUSGEZOGEN
 10
 861.0000
 20
 285.8600
 11
 866.8600
 21
 280.0000
  0
LINE
  8
200
  6
AUSGEZOGEN
 10
 866.8600
 20
 300.0000
 11
 861.0000
 21
 294.1400
  0
LINE
  8
200
  6
AUSGEZOGEN
 10
 881.0000
 20
 294.1400
 11
 875.1400
 21
 300.0000
  0
LINE
  8
200
  6
AUSGEZOGEN
 10
 875.1400
 20
 280.0000
 11
 881.0000
 21
 285.8600
  0
LINE
  8
200
  6
AUSGEZOGEN
 10
 891.0000
 20
 285.8600
 11
 896.8600
 21
 280.0000
  0
LINE
  8
200
  6
AUSGEZOGEN
 10
 896.8600
 20
 300.0000
 11
 891.0000
 21
 294.1400
  0
LINE
  8
200
  6
AUSGEZOGEN
 10
 911.0000
 20
 294.1400
 11
 905.1400
 21
 300.0000
  0
LINE
  8
200
  6
AUSGEZOGEN
 10
 905.1400
 20
 280.0000
 11
 911.0000
 21
 285.8600
  0
LINE
  8
200
  6
AUSGEZOGEN
 10
 921.0000
 20
 285.8600
 11
 926.8600
 21
 280.0000
  0
LINE
  8
200
  6
AUSGEZOGEN
 10
 926.8600
 20
 300.0000
 11
 921.0000
 21
 294.1400
  0
LINE
  8
200
  6
AUSGEZOGEN
 10
 941.0000
 20
 294.1400
 11
 935.1400
 21
 300.0000
  0
LINE
  8
200
  6
AUSGEZOGEN
 10
 935.1400
 20
 280.0000
 11
 941.0000
 21
 285.8600
  0
LINE
  8
200
  6
AUSGEZOGEN
 10
 951.0000
 20
 285.8600
 11
 956.8600
 21
 280.0000
  0
LINE
  8
200
  6
AUSGEZOGEN
 10
 956.8600
 20
 300.0000
 11
 951.0000
 21
 294.1400
  0
LINE
  8
200
  6
AUSGEZOGEN
 10
 971.0000
 20
 294.1400
 11
 965.1400
 21
 300.0000
  0
LINE
  8
200
  6
AUSGEZOGEN
 10
 965.1400
 20
 280.0000
 11
 971.0000
 21
 285.8600
  0
LINE
  8
200
  6
AUSGEZOGEN
 10
 981.0000
 20
 285.8600
 11
 986.8600
 21
 280.0000
  0
LINE
  8
200
  6
AUSGEZOGEN
 10
 986.8600
 20
 300.0000
 11
 981.0000
 21
 294.1400
  0
LINE
  8
200
  6
AUSGEZOGEN
 10
1001.0000
 20
 294.1400
 11
 995.1400
 21
 300.0000
  0
LINE
  8
200
  6
AUSGEZOGEN
 10
 995.1400
 20
 280.0000
 11
1001.0000
 21
 285.8600
  0
LINE
  8
200
  6
AUSGEZOGEN
 10
1011.0000
 20
 285.8600
 11
1016.8600
 21
 280.0000
  0
LINE
  8
200
  6
AUSGEZOGEN
 10
1016.8600
 20
 300.0000
 11
1011.0000
 21
 294.1400
  0
LINE
  8
200
  6
AUSGEZOGEN
 10
1031.0000
 20
 294.1400
 11
1025.1400
 21
 300.0000
  0
LINE
  8
200
  6
AUSGEZOGEN
 10
1025.1400
 20
 280.0000
 11
1031.0000
 21
 285.8600
  0
LINE
  8
200
  6
AUSGEZOGEN
 10
 531.0000
 20
 315.8600
 11
 536.8600
 21
 310.0000
  0
LINE
  8
200
  6
AUSGEZOGEN
 10
 536.8600
 20
 330.0000
 11
 531.0000
 21
 324.1400
  0
LINE
  8
200
  6
AUSGEZOGEN
 10
 551.0000
 20
 324.1400
 11
 545.1400
 21
 330.0000
  0
LINE
  8
200
  6
AUSGEZOGEN
 10
 545.1400
 20
 310.0000
 11
 551.0000
 21
 315.8600
  0
LINE
  8
200
  6
AUSGEZOGEN
 10
 561.0000
 20
 315.8600
 11
 566.8600
 21
 310.0000
  0
LINE
  8
200
  6
AUSGEZOGEN
 10
 566.8600
 20
 330.0000
 11
 561.0000
 21
 324.1400
  0
LINE
  8
200
  6
AUSGEZOGEN
 10
 581.0000
 20
 324.1400
 11
 575.1400
 21
 330.0000
  0
LINE
  8
200
  6
AUSGEZOGEN
 10
 575.1400
 20
 310.0000
 11
 581.0000
 21
 315.8600
  0
LINE
  8
200
  6
AUSGEZOGEN
 10
 591.0000
 20
 315.8600
 11
 596.8600
 21
 310.0000
  0
LINE
  8
200
  6
AUSGEZOGEN
 10
 596.8600
 20
 330.0000
 11
 591.0000
 21
 324.1400
  0
LINE
  8
200
  6
AUSGEZOGEN
 10
 611.0000
 20
 324.1400
 11
 605.1400
 21
 330.0000
  0
LINE
  8
200
  6
AUSGEZOGEN
 10
 605.1400
 20
 310.0000
 11
 611.0000
 21
 315.8600
  0
LINE
  8
200
  6
AUSGEZOGEN
 10
 621.0000
 20
 315.8600
 11
 626.8600
 21
 310.0000
  0
LINE
  8
200
  6
AUSGEZOGEN
 10
 626.8600
 20
 330.0000
 11
 621.0000
 21
 324.1400
  0
LINE
  8
200
  6
AUSGEZOGEN
 10
 641.0000
 20
 324.1400
 11
 635.1400
 21
 330.0000
  0
LINE
  8
200
  6
AUSGEZOGEN
 10
 635.1400
 20
 310.0000
 11
 641.0000
 21
 315.8600
  0
LINE
  8
200
  6
AUSGEZOGEN
 10
 651.0000
 20
 315.8600
 11
 656.8600
 21
 310.0000
  0
LINE
  8
200
  6
AUSGEZOGEN
 10
 656.8600
 20
 330.0000
 11
 651.0000
 21
 324.1400
  0
LINE
  8
200
  6
AUSGEZOGEN
 10
 671.0000
 20
 324.1400
 11
 665.1400
 21
 330.0000
  0
LINE
  8
200
  6
AUSGEZOGEN
 10
 665.1400
 20
 310.0000
 11
 671.0000
 21
 315.8600
  0
LINE
  8
200
  6
AUSGEZOGEN
 10
 681.0000
 20
 315.8600
 11
 686.8600
 21
 310.0000
  0
LINE
  8
200
  6
AUSGEZOGEN
 10
 686.8600
 20
 330.0000
 11
 681.0000
 21
 324.1400
  0
LINE
  8
200
  6
AUSGEZOGEN
 10
 701.0000
 20
 324.1400
 11
 695.1400
 21
 330.0000
  0
LINE
  8
200
  6
AUSGEZOGEN
 10
 695.1400
 20
 310.0000
 11
 701.0000
 21
 315.8600
  0
LINE
  8
200
  6
AUSGEZOGEN
 10
 711.0000
 20
 315.8600
 11
 716.8600
 21
 310.0000
  0
LINE
  8
200
  6
AUSGEZOGEN
 10
 716.8600
 20
 330.0000
 11
 711.0000
 21
 324.1400
  0
LINE
  8
200
  6
AUSGEZOGEN
 10
 731.0000
 20
 324.1400
 11
 725.1400
 21
 330.0000
  0
LINE
  8
200
  6
AUSGEZOGEN
 10
 725.1400
 20
 310.0000
 11
 731.0000
 21
 315.8600
  0
LINE
  8
200
  6
AUSGEZOGEN
 10
 741.0000
 20
 315.8600
 11
 746.8600
 21
 310.0000
  0
LINE
  8
200
  6
AUSGEZOGEN
 10
 746.8600
 20
 330.0000
 11
 741.0000
 21
 324.1400
  0
LINE
  8
200
  6
AUSGEZOGEN
 10
 761.0000
 20
 324.1400
 11
 755.1400
 21
 330.0000
  0
LINE
  8
200
  6
AUSGEZOGEN
 10
 755.1400
 20
 310.0000
 11
 761.0000
 21
 315.8600
  0
LINE
  8
200
  6
AUSGEZOGEN
 10
 771.0000
 20
 315.8600
 11
 776.8600
 21
 310.0000
  0
LINE
  8
200
  6
AUSGEZOGEN
 10
 776.8600
 20
 330.0000
 11
 771.0000
 21
 324.1400
  0
LINE
  8
200
  6
AUSGEZOGEN
 10
 791.0000
 20
 324.1400
 11
 785.1400
 21
 330.0000
  0
LINE
  8
200
  6
AUSGEZOGEN
 10
 785.1400
 20
 310.0000
 11
 791.0000
 21
 315.8600
  0
LINE
  8
200
  6
AUSGEZOGEN
 10
 801.0000
 20
 315.8600
 11
 806.8600
 21
 310.0000
  0
LINE
  8
200
  6
AUSGEZOGEN
 10
 806.8600
 20
 330.0000
 11
 801.0000
 21
 324.1400
  0
LINE
  8
200
  6
AUSGEZOGEN
 10
 821.0000
 20
 324.1400
 11
 815.1400
 21
 330.0000
  0
LINE
  8
200
  6
AUSGEZOGEN
 10
 815.1400
 20
 310.0000
 11
 821.0000
 21
 315.8600
  0
LINE
  8
200
  6
AUSGEZOGEN
 10
 831.0000
 20
 315.8600
 11
 836.8600
 21
 310.0000
  0
LINE
  8
200
  6
AUSGEZOGEN
 10
 836.8600
 20
 330.0000
 11
 831.0000
 21
 324.1400
  0
LINE
  8
200
  6
AUSGEZOGEN
 10
 851.0000
 20
 324.1400
 11
 845.1400
 21
 330.0000
  0
LINE
  8
200
  6
AUSGEZOGEN
 10
 845.1400
 20
 310.0000
 11
 851.0000
 21
 315.8600
  0
LINE
  8
200
  6
AUSGEZOGEN
 10
 861.0000
 20
 315.8600
 11
 866.8600
 21
 310.0000
  0
LINE
  8
200
  6
AUSGEZOGEN
 10
 866.8600
 20
 330.0000
 11
 861.0000
 21
 324.1400
  0
LINE
  8
200
  6
AUSGEZOGEN
 10
 881.0000
 20
 324.1400
 11
 875.1400
 21
 330.0000
  0
LINE
  8
200
  6
AUSGEZOGEN
 10
 875.1400
 20
 310.0000
 11
 881.0000
 21
 315.8600
  0
LINE
  8
200
  6
AUSGEZOGEN
 10
 891.0000
 20
 315.8600
 11
 896.8600
 21
 310.0000
  0
LINE
  8
200
  6
AUSGEZOGEN
 10
 896.8600
 20
 330.0000
 11
 891.0000
 21
 324.1400
  0
LINE
  8
200
  6
AUSGEZOGEN
 10
 911.0000
 20
 324.1400
 11
 905.1400
 21
 330.0000
  0
LINE
  8
200
  6
AUSGEZOGEN
 10
 905.1400
 20
 310.0000
 11
 911.0000
 21
 315.8600
  0
LINE
  8
200
  6
AUSGEZOGEN
 10
 921.0000
 20
 315.8600
 11
 926.8600
 21
 310.0000
  0
LINE
  8
200
  6
AUSGEZOGEN
 10
 926.8600
 20
 330.0000
 11
 921.0000
 21
 324.1400
  0
LINE
  8
200
  6
AUSGEZOGEN
 10
 941.0000
 20
 324.1400
 11
 935.1400
 21
 330.0000
  0
LINE
  8
200
  6
AUSGEZOGEN
 10
 935.1400
 20
 310.0000
 11
 941.0000
 21
 315.8600
  0
LINE
  8
200
  6
AUSGEZOGEN
 10
 956.8600
 20
 330.0000
 11
 951.0000
 21
 324.1400
  0
LINE
  8
200
  6
AUSGEZOGEN
 10
 971.0000
 20
 324.1400
 11
 965.1400
 21
 330.0000
  0
LINE
  8
200
  6
AUSGEZOGEN
 10
 965.1400
 20
 310.0000
 11
 971.0000
 21
 315.8600
  0
LINE
  8
200
  6
AUSGEZOGEN
 10
 981.0000
 20
 315.8600
 11
 986.8600
 21
 310.0000
  0
LINE
  8
200
  6
AUSGEZOGEN
 10
 986.8600
 20
 330.0000
 11
 981.0000
 21
 324.1400
  0
LINE
  8
200
  6
AUSGEZOGEN
 10
1001.0000
 20
 324.1400
 11
 995.1400
 21
 330.0000
  0
LINE
  8
200
  6
AUSGEZOGEN
 10
 995.1400
 20
 310.0000
 11
1001.0000
 21
 315.8600
  0
LINE
  8
200
  6
AUSGEZOGEN
 10
1011.0000
 20
 315.8600
 11
1016.8600
 21
 310.0000
  0
LINE
  8
200
  6
AUSGEZOGEN
 10
1016.8600
 20
 330.0000
 11
1011.0000
 21
 324.1400
  0
LINE
  8
200
  6
AUSGEZOGEN
 10
1031.0000
 20
 324.1400
 11
1025.1400
 21
 330.0000
  0
LINE
  8
200
  6
AUSGEZOGEN
 10
1025.1400
 20
 310.0000
 11
1031.0000
 21
 315.8600
  0
LINE
  8
200
  6
AUSGEZOGEN
 10
 531.0000
 20
 345.8600
 11
 536.8600
 21
 340.0000
  0
LINE
  8
200
  6
AUSGEZOGEN
 10
 536.8600
 20
 360.0000
 11
 531.0000
 21
 354.1400
  0
LINE
  8
200
  6
AUSGEZOGEN
 10
 551.0000
 20
 354.1400
 11
 545.1400
 21
 360.0000
  0
LINE
  8
200
  6
AUSGEZOGEN
 10
 545.1400
 20
 340.0000
 11
 551.0000
 21
 345.8600
  0
LINE
  8
200
  6
AUSGEZOGEN
 10
 561.0000
 20
 345.8600
 11
 566.8600
 21
 340.0000
  0
LINE
  8
200
  6
AUSGEZOGEN
 10
 566.8600
 20
 360.0000
 11
 561.0000
 21
 354.1400
  0
LINE
  8
200
  6
AUSGEZOGEN
 10
 581.0000
 20
 354.1400
 11
 575.1400
 21
 360.0000
  0
LINE
  8
200
  6
AUSGEZOGEN
 10
 575.1400
 20
 340.0000
 11
 581.0000
 21
 345.8600
  0
LINE
  8
200
  6
AUSGEZOGEN
 10
 591.0000
 20
 345.8600
 11
 596.8600
 21
 340.0000
  0
LINE
  8
200
  6
AUSGEZOGEN
 10
 596.8600
 20
 360.0000
 11
 591.0000
 21
 354.1400
  0
LINE
  8
200
  6
AUSGEZOGEN
 10
 611.0000
 20
 354.1400
 11
 605.1400
 21
 360.0000
  0
LINE
  8
200
  6
AUSGEZOGEN
 10
 605.1400
 20
 340.0000
 11
 611.0000
 21
 345.8600
  0
LINE
  8
200
  6
AUSGEZOGEN
 10
 621.0000
 20
 345.8600
 11
 626.8600
 21
 340.0000
  0
LINE
  8
200
  6
AUSGEZOGEN
 10
 626.8600
 20
 360.0000
 11
 621.0000
 21
 354.1400
  0
LINE
  8
200
  6
AUSGEZOGEN
 10
 641.0000
 20
 354.1400
 11
 635.1400
 21
 360.0000
  0
LINE
  8
200
  6
AUSGEZOGEN
 10
 635.1400
 20
 340.0000
 11
 641.0000
 21
 345.8600
  0
LINE
  8
200
  6
AUSGEZOGEN
 10
 651.0000
 20
 345.8600
 11
 656.8600
 21
 340.0000
  0
LINE
  8
200
  6
AUSGEZOGEN
 10
 656.8600
 20
 360.0000
 11
 651.0000
 21
 354.1400
  0
LINE
  8
200
  6
AUSGEZOGEN
 10
 671.0000
 20
 354.1400
 11
 665.1400
 21
 360.0000
  0
LINE
  8
200
  6
AUSGEZOGEN
 10
 665.1400
 20
 340.0000
 11
 671.0000
 21
 345.8600
  0
LINE
  8
200
  6
AUSGEZOGEN
 10
 681.0000
 20
 345.8600
 11
 686.8600
 21
 340.0000
  0
LINE
  8
200
  6
AUSGEZOGEN
 10
 686.8600
 20
 360.0000
 11
 681.0000
 21
 354.1400
  0
LINE
  8
200
  6
AUSGEZOGEN
 10
 701.0000
 20
 354.1400
 11
 695.1400
 21
 360.0000
  0
LINE
  8
200
  6
AUSGEZOGEN
 10
 695.1400
 20
 340.0000
 11
 701.0000
 21
 345.8600
  0
LINE
  8
200
  6
AUSGEZOGEN
 10
 711.0000
 20
 345.8600
 11
 716.8600
 21
 340.0000
  0
LINE
  8
200
  6
AUSGEZOGEN
 10
 716.8600
 20
 360.0000
 11
 711.0000
 21
 354.1400
  0
LINE
  8
200
  6
AUSGEZOGEN
 10
 731.0000
 20
 354.1400
 11
 725.1400
 21
 360.0000
  0
LINE
  8
200
  6
AUSGEZOGEN
 10
 725.1400
 20
 340.0000
 11
 731.0000
 21
 345.8600
  0
LINE
  8
200
  6
AUSGEZOGEN
 10
 741.0000
 20
 345.8600
 11
 746.8600
 21
 340.0000
  0
LINE
  8
200
  6
AUSGEZOGEN
 10
 746.8600
 20
 360.0000
 11
 741.0000
 21
 354.1400
  0
LINE
  8
200
  6
AUSGEZOGEN
 10
 761.0000
 20
 354.1400
 11
 755.1400
 21
 360.0000
  0
LINE
  8
200
  6
AUSGEZOGEN
 10
 755.1400
 20
 340.0000
 11
 761.0000
 21
 345.8600
  0
LINE
  8
200
  6
AUSGEZOGEN
 10
 771.0000
 20
 345.8600
 11
 776.8600
 21
 340.0000
  0
LINE
  8
200
  6
AUSGEZOGEN
 10
 776.8600
 20
 360.0000
 11
 771.0000
 21
 354.1400
  0
LINE
  8
200
  6
AUSGEZOGEN
 10
 791.0000
 20
 354.1400
 11
 785.1400
 21
 360.0000
  0
LINE
  8
200
  6
AUSGEZOGEN
 10
 785.1400
 20
 340.0000
 11
 791.0000
 21
 345.8600
  0
LINE
  8
200
  6
AUSGEZOGEN
 10
 801.0000
 20
 345.8600
 11
 806.8600
 21
 340.0000
  0
LINE
  8
200
  6
AUSGEZOGEN
 10
 806.8600
 20
 360.0000
 11
 801.0000
 21
 354.1400
  0
LINE
  8
200
  6
AUSGEZOGEN
 10
 821.0000
 20
 354.1400
 11
 815.1400
 21
 360.0000
  0
LINE
  8
200
  6
AUSGEZOGEN
 10
 815.1400
 20
 340.0000
 11
 821.0000
 21
 345.8600
  0
LINE
  8
200
  6
AUSGEZOGEN
 10
 831.0000
 20
 345.8600
 11
 836.8600
 21
 340.0000
  0
LINE
  8
200
  6
AUSGEZOGEN
 10
 836.8600
 20
 360.0000
 11
 831.0000
 21
 354.1400
  0
LINE
  8
200
  6
AUSGEZOGEN
 10
 851.0000
 20
 354.1400
 11
 845.1400
 21
 360.0000
  0
LINE
  8
200
  6
AUSGEZOGEN
 10
 845.1400
 20
 340.0000
 11
 851.0000
 21
 345.8600
  0
LINE
  8
200
  6
AUSGEZOGEN
 10
 861.0000
 20
 345.8600
 11
 866.8600
 21
 340.0000
  0
LINE
  8
200
  6
AUSGEZOGEN
 10
 866.8600
 20
 360.0000
 11
 861.0000
 21
 354.1400
  0
LINE
  8
200
  6
AUSGEZOGEN
 10
 881.0000
 20
 354.1400
 11
 875.1400
 21
 360.0000
  0
LINE
  8
200
  6
AUSGEZOGEN
 10
 875.1400
 20
 340.0000
 11
 881.0000
 21
 345.8600
  0
LINE
  8
200
  6
AUSGEZOGEN
 10
 891.0000
 20
 345.8600
 11
 896.8600
 21
 340.0000
  0
LINE
  8
200
  6
AUSGEZOGEN
 10
 896.8600
 20
 360.0000
 11
 891.0000
 21
 354.1400
  0
LINE
  8
200
  6
AUSGEZOGEN
 10
 911.0000
 20
 354.1400
 11
 905.1400
 21
 360.0000
  0
LINE
  8
200
  6
AUSGEZOGEN
 10
 905.1400
 20
 340.0000
 11
 911.0000
 21
 345.8600
  0
LINE
  8
200
  6
AUSGEZOGEN
 10
 921.0000
 20
 345.8600
 11
 926.8600
 21
 340.0000
  0
LINE
  8
200
  6
AUSGEZOGEN
 10
 926.8600
 20
 360.0000
 11
 921.0000
 21
 354.1400
  0
LINE
  8
200
  6
AUSGEZOGEN
 10
 941.0000
 20
 354.1400
 11
 935.1400
 21
 360.0000
  0
LINE
  8
200
  6
AUSGEZOGEN
 10
 935.1400
 20
 340.0000
 11
 941.0000
 21
 345.8600
  0
LINE
  8
200
  6
AUSGEZOGEN
 10
 951.0000
 20
 345.8600
 11
 956.8600
 21
 340.0000
  0
LINE
  8
200
  6
AUSGEZOGEN
 10
 956.8600
 20
 360.0000
 11
 951.0000
 21
 354.1400
  0
LINE
  8
200
  6
AUSGEZOGEN
 10
 971.0000
 20
 354.1400
 11
 965.1400
 21
 360.0000
  0
LINE
  8
200
  6
AUSGEZOGEN
 10
 965.1400
 20
 340.0000
 11
 971.0000
 21
 345.8600
  0
LINE
  8
200
  6
AUSGEZOGEN
 10
 981.0000
 20
 345.8600
 11
 986.8600
 21
 340.0000
  0
LINE
  8
200
  6
AUSGEZOGEN
 10
 986.8600
 20
 360.0000
 11
 981.0000
 21
 354.1400
  0
LINE
  8
200
  6
AUSGEZOGEN
 10
1001.0000
 20
 354.1400
 11
 995.1400
 21
 360.0000
  0
LINE
  8
200
  6
AUSGEZOGEN
 10
 995.1400
 20
 340.0000
 11
1001.0000
 21
 345.8600
  0
LINE
  8
200
  6
AUSGEZOGEN
 10
1011.0000
 20
 345.8600
 11
1016.8600
 21
 340.0000
  0
LINE
  8
200
  6
AUSGEZOGEN
 10
1016.8600
 20
 360.0000
 11
1011.0000
 21
 354.1400
  0
LINE
  8
200
  6
AUSGEZOGEN
 10
1031.0000
 20
 354.1400
 11
1025.1400
 21
 360.0000
  0
LINE
  8
200
  6
AUSGEZOGEN
 10
1025.1400
 20
 340.0000
 11
1031.0000
 21
 345.8600
  0
LINE
  8
200
  6
AUSGEZOGEN
 10
 951.0000
 20
 315.8600
 11
 956.8600
 21
 310.0000
  0
LINE
  8
200
  6
AUSGEZOGEN
 10
  81.0000
 20
 255.8600
 11
  86.8600
 21
 250.0000
  0
LINE
  8
200
  6
AUSGEZOGEN
 10
  86.8600
 20
 270.0000
 11
  81.0000
 21
 264.1400
  0
LINE
  8
200
  6
AUSGEZOGEN
 10
 101.0000
 20
 264.1400
 11
  95.1400
 21
 270.0000
  0
LINE
  8
200
  6
AUSGEZOGEN
 10
  95.1400
 20
 250.0000
 11
 101.0000
 21
 255.8600
  0
LINE
  8
200
  6
AUSGEZOGEN
 10
 116.8600
 20
 220.0000
 11
 111.0000
 21
 225.8600
  0
LINE
  8
200
  6
AUSGEZOGEN
 10
 116.8600
 20
 240.0000
 11
 111.0000
 21
 234.1400
  0
LINE
  8
200
  6
AUSGEZOGEN
 10
 131.0000
 20
 234.1400
 11
 125.1400
 21
 240.0000
  0
LINE
  8
200
  6
AUSGEZOGEN
 10
 125.1400
 20
 220.0000
 11
 131.0000
 21
 225.8600
  0
LINE
  8
200
  6
AUSGEZOGEN
 10
 141.0000
 20
 225.8600
 11
 146.8600
 21
 220.0000
  0
LINE
  8
200
  6
AUSGEZOGEN
 10
 146.8600
 20
 240.0000
 11
 141.0000
 21
 234.1400
  0
LINE
  8
200
  6
AUSGEZOGEN
 10
 161.0000
 20
 234.1400
 11
 155.1400
 21
 240.0000
  0
LINE
  8
200
  6
AUSGEZOGEN
 10
 155.1400
 20
 220.0000
 11
 161.0000
 21
 225.8600
  0
LINE
  8
200
  6
AUSGEZOGEN
 10
 171.0000
 20
 225.8600
 11
 176.8600
 21
 220.0000
  0
LINE
  8
200
  6
AUSGEZOGEN
 10
 176.8600
 20
 240.0000
 11
 171.0000
 21
 234.1400
  0
LINE
  8
200
  6
AUSGEZOGEN
 10
 191.0000
 20
 234.1400
 11
 185.1400
 21
 240.0000
  0
LINE
  8
200
  6
AUSGEZOGEN
 10
 185.1400
 20
 220.0000
 11
 191.0000
 21
 225.8600
  0
LINE
  8
200
  6
AUSGEZOGEN
 10
 201.0000
 20
 225.8600
 11
 206.8600
 21
 220.0000
  0
LINE
  8
200
  6
AUSGEZOGEN
 10
 206.8600
 20
 240.0000
 11
 201.0000
 21
 234.1400
  0
LINE
  8
200
  6
AUSGEZOGEN
 10
 221.0000
 20
 234.1400
 11
 215.1400
 21
 240.0000
  0
LINE
  8
200
  6
AUSGEZOGEN
 10
 215.1400
 20
 220.0000
 11
 221.0000
 21
 225.8600
  0
LINE
  8
200
  6
AUSGEZOGEN
 10
 231.0000
 20
 225.8600
 11
 236.8600
 21
 220.0000
  0
LINE
  8
200
  6
AUSGEZOGEN
 10
 236.8600
 20
 240.0000
 11
 231.0000
 21
 234.1400
  0
LINE
  8
200
  6
AUSGEZOGEN
 10
 251.0000
 20
 234.1400
 11
 245.1400
 21
 240.0000
  0
LINE
  8
200
  6
AUSGEZOGEN
 10
 245.1400
 20
 220.0000
 11
 251.0000
 21
 225.8600
  0
LINE
  8
200
  6
AUSGEZOGEN
 10
 261.0000
 20
 225.8600
 11
 266.8600
 21
 220.0000
  0
LINE
  8
200
  6
AUSGEZOGEN
 10
 266.8600
 20
 240.0000
 11
 261.0000
 21
 234.1400
  0
LINE
  8
200
  6
AUSGEZOGEN
 10
 281.0000
 20
 234.1400
 11
 275.1400
 21
 240.0000
  0
LINE
  8
200
  6
AUSGEZOGEN
 10
 275.1400
 20
 220.0000
 11
 281.0000
 21
 225.8600
  0
LINE
  8
200
  6
AUSGEZOGEN
 10
 291.0000
 20
 225.8600
 11
 296.8600
 21
 220.0000
  0
LINE
  8
200
  6
AUSGEZOGEN
 10
 296.8600
 20
 240.0000
 11
 291.0000
 21
 234.1400
  0
LINE
  8
200
  6
AUSGEZOGEN
 10
 311.0000
 20
 234.1400
 11
 305.1400
 21
 240.0000
  0
LINE
  8
200
  6
AUSGEZOGEN
 10
 305.1400
 20
 220.0000
 11
 311.0000
 21
 225.8600
  0
LINE
  8
200
  6
AUSGEZOGEN
 10
 321.0000
 20
 225.8600
 11
 326.8600
 21
 220.0000
  0
LINE
  8
200
  6
AUSGEZOGEN
 10
 326.8600
 20
 240.0000
 11
 321.0000
 21
 234.1400
  0
LINE
  8
200
  6
AUSGEZOGEN
 10
 341.0000
 20
 234.1400
 11
 335.1400
 21
 240.0000
  0
LINE
  8
200
  6
AUSGEZOGEN
 10
 335.1400
 20
 220.0000
 11
 341.0000
 21
 225.8600
  0
LINE
  8
200
  6
AUSGEZOGEN
 10
 351.0000
 20
 225.8600
 11
 356.8600
 21
 220.0000
  0
LINE
  8
200
  6
AUSGEZOGEN
 10
 356.8600
 20
 240.0000
 11
 351.0000
 21
 234.1400
  0
LINE
  8
200
  6
AUSGEZOGEN
 10
 371.0000
 20
 234.1400
 11
 365.1400
 21
 240.0000
  0
LINE
  8
200
  6
AUSGEZOGEN
 10
 365.1400
 20
 220.0000
 11
 371.0000
 21
 225.8600
  0
LINE
  8
200
  6
AUSGEZOGEN
 10
 381.0000
 20
 225.8600
 11
 386.8600
 21
 220.0000
  0
LINE
  8
200
  6
AUSGEZOGEN
 10
 386.8600
 20
 240.0000
 11
 381.0000
 21
 234.1400
  0
LINE
  8
200
  6
AUSGEZOGEN
 10
 401.0000
 20
 234.1400
 11
 395.1400
 21
 240.0000
  0
LINE
  8
200
  6
AUSGEZOGEN
 10
 395.1400
 20
 220.0000
 11
 401.0000
 21
 225.8600
  0
LINE
  8
200
  6
AUSGEZOGEN
 10
 411.0000
 20
 225.8600
 11
 416.8600
 21
 220.0000
  0
LINE
  8
200
  6
AUSGEZOGEN
 10
 416.8600
 20
 240.0000
 11
 411.0000
 21
 234.1400
  0
LINE
  8
200
  6
AUSGEZOGEN
 10
 431.0000
 20
 234.1400
 11
 425.1400
 21
 240.0000
  0
LINE
  8
200
  6
AUSGEZOGEN
 10
 425.1400
 20
 220.0000
 11
 431.0000
 21
 225.8600
  0
LINE
  8
200
  6
AUSGEZOGEN
 10
 441.0000
 20
 225.8600
 11
 446.8600
 21
 220.0000
  0
LINE
  8
200
  6
AUSGEZOGEN
 10
 446.8600
 20
 240.0000
 11
 441.0000
 21
 234.1400
  0
LINE
  8
200
  6
AUSGEZOGEN
 10
 461.0000
 20
 234.1400
 11
 455.1400
 21
 240.0000
  0
LINE
  8
200
  6
AUSGEZOGEN
 10
 455.1400
 20
 220.0000
 11
 461.0000
 21
 225.8600
  0
LINE
  8
200
  6
AUSGEZOGEN
 10
 471.0000
 20
 225.8600
 11
 476.8600
 21
 220.0000
  0
LINE
  8
200
  6
AUSGEZOGEN
 10
 476.8600
 20
 240.0000
 11
 471.0000
 21
 234.1400
  0
LINE
  8
200
  6
AUSGEZOGEN
 10
 491.0000
 20
 234.1400
 11
 485.1400
 21
 240.0000
  0
LINE
  8
200
  6
AUSGEZOGEN
 10
 485.1400
 20
 220.0000
 11
 491.0000
 21
 225.8600
  0
LINE
  8
200
  6
AUSGEZOGEN
 10
 501.0000
 20
 225.8600
 11
 506.8600
 21
 220.0000
  0
LINE
  8
200
  6
AUSGEZOGEN
 10
 506.8600
 20
 240.0000
 11
 501.0000
 21
 234.1400
  0
LINE
  8
200
  6
AUSGEZOGEN
 10
 521.0000
 20
 234.1400
 11
 515.1400
 21
 240.0000
  0
LINE
  8
200
  6
AUSGEZOGEN
 10
 515.1400
 20
 220.0000
 11
 521.0000
 21
 225.8600
  0
LINE
  8
200
  6
AUSGEZOGEN
 10
 111.0000
 20
 195.8600
 11
 116.8600
 21
 190.0000
  0
LINE
  8
200
  6
AUSGEZOGEN
 10
 116.8600
 20
 210.0000
 11
 111.0000
 21
 204.1400
  0
LINE
  8
200
  6
AUSGEZOGEN
 10
 131.0000
 20
 204.1400
 11
 125.1400
 21
 210.0000
  0
LINE
  8
200
  6
AUSGEZOGEN
 10
 125.1400
 20
 190.0000
 11
 131.0000
 21
 195.8600
  0
LINE
  8
200
  6
AUSGEZOGEN
 10
 141.0000
 20
 195.8600
 11
 146.8600
 21
 190.0000
  0
LINE
  8
200
  6
AUSGEZOGEN
 10
 146.8600
 20
 210.0000
 11
 141.0000
 21
 204.1400
  0
LINE
  8
200
  6
AUSGEZOGEN
 10
 161.0000
 20
 204.1400
 11
 155.1400
 21
 210.0000
  0
LINE
  8
200
  6
AUSGEZOGEN
 10
 155.1400
 20
 190.0000
 11
 161.0000
 21
 195.8600
  0
LINE
  8
200
  6
AUSGEZOGEN
 10
 171.0000
 20
 195.8600
 11
 176.8600
 21
 190.0000
  0
LINE
  8
200
  6
AUSGEZOGEN
 10
 176.8600
 20
 210.0000
 11
 171.0000
 21
 204.1400
  0
LINE
  8
200
  6
AUSGEZOGEN
 10
 191.0000
 20
 204.1400
 11
 185.1400
 21
 210.0000
  0
LINE
  8
200
  6
AUSGEZOGEN
 10
 185.1400
 20
 190.0000
 11
 191.0000
 21
 195.8600
  0
LINE
  8
200
  6
AUSGEZOGEN
 10
 201.0000
 20
 195.8600
 11
 206.8600
 21
 190.0000
  0
LINE
  8
200
  6
AUSGEZOGEN
 10
 206.8600
 20
 210.0000
 11
 201.0000
 21
 204.1400
  0
LINE
  8
200
  6
AUSGEZOGEN
 10
 221.0000
 20
 204.1400
 11
 215.1400
 21
 210.0000
  0
LINE
  8
200
  6
AUSGEZOGEN
 10
 215.1400
 20
 190.0000
 11
 221.0000
 21
 195.8600
  0
LINE
  8
200
  6
AUSGEZOGEN
 10
 231.0000
 20
 195.8600
 11
 236.8600
 21
 190.0000
  0
LINE
  8
200
  6
AUSGEZOGEN
 10
 236.8600
 20
 210.0000
 11
 231.0000
 21
 204.1400
  0
LINE
  8
200
  6
AUSGEZOGEN
 10
 251.0000
 20
 204.1400
 11
 245.1400
 21
 210.0000
  0
LINE
  8
200
  6
AUSGEZOGEN
 10
 245.1400
 20
 190.0000
 11
 251.0000
 21
 195.8600
  0
LINE
  8
200
  6
AUSGEZOGEN
 10
 261.0000
 20
 195.8600
 11
 266.8600
 21
 190.0000
  0
LINE
  8
200
  6
AUSGEZOGEN
 10
 266.8600
 20
 210.0000
 11
 261.0000
 21
 204.1400
  0
LINE
  8
200
  6
AUSGEZOGEN
 10
 281.0000
 20
 204.1400
 11
 275.1400
 21
 210.0000
  0
LINE
  8
200
  6
AUSGEZOGEN
 10
 275.1400
 20
 190.0000
 11
 281.0000
 21
 195.8600
  0
LINE
  8
200
  6
AUSGEZOGEN
 10
 291.0000
 20
 195.8600
 11
 296.8600
 21
 190.0000
  0
LINE
  8
200
  6
AUSGEZOGEN
 10
 296.8600
 20
 210.0000
 11
 291.0000
 21
 204.1400
  0
LINE
  8
200
  6
AUSGEZOGEN
 10
 311.0000
 20
 204.1400
 11
 305.1400
 21
 210.0000
  0
LINE
  8
200
  6
AUSGEZOGEN
 10
 305.1400
 20
 190.0000
 11
 311.0000
 21
 195.8600
  0
LINE
  8
200
  6
AUSGEZOGEN
 10
 321.0000
 20
 195.8600
 11
 326.8600
 21
 190.0000
  0
LINE
  8
200
  6
AUSGEZOGEN
 10
 326.8600
 20
 210.0000
 11
 321.0000
 21
 204.1400
  0
LINE
  8
200
  6
AUSGEZOGEN
 10
 341.0000
 20
 204.1400
 11
 335.1400
 21
 210.0000
  0
LINE
  8
200
  6
AUSGEZOGEN
 10
 335.1400
 20
 190.0000
 11
 341.0000
 21
 195.8600
  0
LINE
  8
200
  6
AUSGEZOGEN
 10
 351.0000
 20
 195.8600
 11
 356.8600
 21
 190.0000
  0
LINE
  8
200
  6
AUSGEZOGEN
 10
 356.8600
 20
 210.0000
 11
 351.0000
 21
 204.1400
  0
LINE
  8
200
  6
AUSGEZOGEN
 10
 371.0000
 20
 204.1400
 11
 365.1400
 21
 210.0000
  0
LINE
  8
200
  6
AUSGEZOGEN
 10
 365.1400
 20
 190.0000
 11
 371.0000
 21
 195.8600
  0
LINE
  8
200
  6
AUSGEZOGEN
 10
 381.0000
 20
 195.8600
 11
 386.8600
 21
 190.0000
  0
LINE
  8
200
  6
AUSGEZOGEN
 10
 386.8600
 20
 210.0000
 11
 381.0000
 21
 204.1400
  0
LINE
  8
200
  6
AUSGEZOGEN
 10
 401.0000
 20
 204.1400
 11
 395.1400
 21
 210.0000
  0
LINE
  8
200
  6
AUSGEZOGEN
 10
 395.1400
 20
 190.0000
 11
 401.0000
 21
 195.8600
  0
LINE
  8
200
  6
AUSGEZOGEN
 10
 411.0000
 20
 195.8600
 11
 416.8600
 21
 190.0000
  0
LINE
  8
200
  6
AUSGEZOGEN
 10
 416.8600
 20
 210.0000
 11
 411.0000
 21
 204.1400
  0
LINE
  8
200
  6
AUSGEZOGEN
 10
 431.0000
 20
 204.1400
 11
 425.1400
 21
 210.0000
  0
LINE
  8
200
  6
AUSGEZOGEN
 10
 425.1400
 20
 190.0000
 11
 431.0000
 21
 195.8600
  0
LINE
  8
200
  6
AUSGEZOGEN
 10
 441.0000
 20
 195.8600
 11
 446.8600
 21
 190.0000
  0
LINE
  8
200
  6
AUSGEZOGEN
 10
 446.8600
 20
 210.0000
 11
 441.0000
 21
 204.1400
  0
LINE
  8
200
  6
AUSGEZOGEN
 10
 461.0000
 20
 204.1400
 11
 455.1400
 21
 210.0000
  0
LINE
  8
200
  6
AUSGEZOGEN
 10
 455.1400
 20
 190.0000
 11
 461.0000
 21
 195.8600
  0
LINE
  8
200
  6
AUSGEZOGEN
 10
 471.0000
 20
 195.8600
 11
 476.8600
 21
 190.0000
  0
LINE
  8
200
  6
AUSGEZOGEN
 10
 476.8600
 20
 210.0000
 11
 471.0000
 21
 204.1400
  0
LINE
  8
200
  6
AUSGEZOGEN
 10
 491.0000
 20
 204.1400
 11
 485.1400
 21
 210.0000
  0
LINE
  8
200
  6
AUSGEZOGEN
 10
 485.1400
 20
 190.0000
 11
 491.0000
 21
 195.8600
  0
LINE
  8
200
  6
AUSGEZOGEN
 10
 501.0000
 20
 195.8600
 11
 506.8600
 21
 190.0000
  0
LINE
  8
200
  6
AUSGEZOGEN
 10
 506.8600
 20
 210.0000
 11
 501.0000
 21
 204.1400
  0
LINE
  8
200
  6
AUSGEZOGEN
 10
 521.0000
 20
 204.1400
 11
 515.1400
 21
 210.0000
  0
LINE
  8
200
  6
AUSGEZOGEN
 10
 515.1400
 20
 190.0000
 11
 521.0000
 21
 195.8600
  0
LINE
  8
200
  6
AUSGEZOGEN
 10
 111.0000
 20
 165.8600
 11
 116.8600
 21
 160.0000
  0
LINE
  8
200
  6
AUSGEZOGEN
 10
 116.8600
 20
 180.0000
 11
 111.0000
 21
 174.1400
  0
LINE
  8
200
  6
AUSGEZOGEN
 10
 131.0000
 20
 174.1400
 11
 125.1400
 21
 180.0000
  0
LINE
  8
200
  6
AUSGEZOGEN
 10
 125.1400
 20
 160.0000
 11
 131.0000
 21
 165.8600
  0
LINE
  8
200
  6
AUSGEZOGEN
 10
 141.0000
 20
 165.8600
 11
 146.8600
 21
 160.0000
  0
LINE
  8
200
  6
AUSGEZOGEN
 10
 146.8600
 20
 180.0000
 11
 141.0000
 21
 174.1400
  0
LINE
  8
200
  6
AUSGEZOGEN
 10
 161.0000
 20
 174.1400
 11
 155.1400
 21
 180.0000
  0
LINE
  8
200
  6
AUSGEZOGEN
 10
 155.1400
 20
 160.0000
 11
 161.0000
 21
 165.8600
  0
LINE
  8
200
  6
AUSGEZOGEN
 10
 171.0000
 20
 165.8600
 11
 176.8600
 21
 160.0000
  0
LINE
  8
200
  6
AUSGEZOGEN
 10
 176.8600
 20
 180.0000
 11
 171.0000
 21
 174.1400
  0
LINE
  8
200
  6
AUSGEZOGEN
 10
 191.0000
 20
 174.1400
 11
 185.1400
 21
 180.0000
  0
LINE
  8
200
  6
AUSGEZOGEN
 10
 185.1400
 20
 160.0000
 11
 191.0000
 21
 165.8600
  0
LINE
  8
200
  6
AUSGEZOGEN
 10
 201.0000
 20
 165.8600
 11
 206.8600
 21
 160.0000
  0
LINE
  8
200
  6
AUSGEZOGEN
 10
 206.8600
 20
 180.0000
 11
 201.0000
 21
 174.1400
  0
LINE
  8
200
  6
AUSGEZOGEN
 10
 221.0000
 20
 174.1400
 11
 215.1400
 21
 180.0000
  0
LINE
  8
200
  6
AUSGEZOGEN
 10
 215.1400
 20
 160.0000
 11
 221.0000
 21
 165.8600
  0
LINE
  8
200
  6
AUSGEZOGEN
 10
 231.0000
 20
 165.8600
 11
 236.8600
 21
 160.0000
  0
LINE
  8
200
  6
AUSGEZOGEN
 10
 236.8600
 20
 180.0000
 11
 231.0000
 21
 174.1400
  0
LINE
  8
200
  6
AUSGEZOGEN
 10
 251.0000
 20
 174.1400
 11
 245.1400
 21
 180.0000
  0
LINE
  8
200
  6
AUSGEZOGEN
 10
 245.1400
 20
 160.0000
 11
 251.0000
 21
 165.8600
  0
LINE
  8
200
  6
AUSGEZOGEN
 10
 261.0000
 20
 165.8600
 11
 266.8600
 21
 160.0000
  0
LINE
  8
200
  6
AUSGEZOGEN
 10
 266.8600
 20
 180.0000
 11
 261.0000
 21
 174.1400
  0
LINE
  8
200
  6
AUSGEZOGEN
 10
 281.0000
 20
 174.1400
 11
 275.1400
 21
 180.0000
  0
LINE
  8
200
  6
AUSGEZOGEN
 10
 275.1400
 20
 160.0000
 11
 281.0000
 21
 165.8600
  0
LINE
  8
200
  6
AUSGEZOGEN
 10
 291.0000
 20
 165.8600
 11
 296.8600
 21
 160.0000
  0
LINE
  8
200
  6
AUSGEZOGEN
 10
 296.8600
 20
 180.0000
 11
 291.0000
 21
 174.1400
  0
LINE
  8
200
  6
AUSGEZOGEN
 10
 311.0000
 20
 174.1400
 11
 305.1400
 21
 180.0000
  0
LINE
  8
200
  6
AUSGEZOGEN
 10
 305.1400
 20
 160.0000
 11
 311.0000
 21
 165.8600
  0
LINE
  8
200
  6
AUSGEZOGEN
 10
 321.0000
 20
 165.8600
 11
 326.8600
 21
 160.0000
  0
LINE
  8
200
  6
AUSGEZOGEN
 10
 326.8600
 20
 180.0000
 11
 321.0000
 21
 174.1400
  0
LINE
  8
200
  6
AUSGEZOGEN
 10
 341.0000
 20
 174.1400
 11
 335.1400
 21
 180.0000
  0
LINE
  8
200
  6
AUSGEZOGEN
 10
 335.1400
 20
 160.0000
 11
 341.0000
 21
 165.8600
  0
LINE
  8
200
  6
AUSGEZOGEN
 10
 351.0000
 20
 165.8600
 11
 356.8600
 21
 160.0000
  0
LINE
  8
200
  6
AUSGEZOGEN
 10
 356.8600
 20
 180.0000
 11
 351.0000
 21
 174.1400
  0
LINE
  8
200
  6
AUSGEZOGEN
 10
 371.0000
 20
 174.1400
 11
 365.1400
 21
 180.0000
  0
LINE
  8
200
  6
AUSGEZOGEN
 10
 365.1400
 20
 160.0000
 11
 371.0000
 21
 165.8600
  0
LINE
  8
200
  6
AUSGEZOGEN
 10
 381.0000
 20
 165.8600
 11
 386.8600
 21
 160.0000
  0
LINE
  8
200
  6
AUSGEZOGEN
 10
 386.8600
 20
 180.0000
 11
 381.0000
 21
 174.1400
  0
LINE
  8
200
  6
AUSGEZOGEN
 10
 401.0000
 20
 174.1400
 11
 395.1400
 21
 180.0000
  0
LINE
  8
200
  6
AUSGEZOGEN
 10
 395.1400
 20
 160.0000
 11
 401.0000
 21
 165.8600
  0
LINE
  8
200
  6
AUSGEZOGEN
 10
 411.0000
 20
 165.8600
 11
 416.8600
 21
 160.0000
  0
LINE
  8
200
  6
AUSGEZOGEN
 10
 416.8600
 20
 180.0000
 11
 411.0000
 21
 174.1400
  0
LINE
  8
200
  6
AUSGEZOGEN
 10
 431.0000
 20
 174.1400
 11
 425.1400
 21
 180.0000
  0
LINE
  8
200
  6
AUSGEZOGEN
 10
 425.1400
 20
 160.0000
 11
 431.0000
 21
 165.8600
  0
LINE
  8
200
  6
AUSGEZOGEN
 10
 441.0000
 20
 165.8600
 11
 446.8600
 21
 160.0000
  0
LINE
  8
200
  6
AUSGEZOGEN
 10
 446.8600
 20
 180.0000
 11
 441.0000
 21
 174.1400
  0
LINE
  8
200
  6
AUSGEZOGEN
 10
 461.0000
 20
 174.1400
 11
 455.1400
 21
 180.0000
  0
LINE
  8
200
  6
AUSGEZOGEN
 10
 455.1400
 20
 160.0000
 11
 461.0000
 21
 165.8600
  0
LINE
  8
200
  6
AUSGEZOGEN
 10
 471.0000
 20
 165.8600
 11
 476.8600
 21
 160.0000
  0
LINE
  8
200
  6
AUSGEZOGEN
 10
 476.8600
 20
 180.0000
 11
 471.0000
 21
 174.1400
  0
LINE
  8
200
  6
AUSGEZOGEN
 10
 491.0000
 20
 174.1400
 11
 485.1400
 21
 180.0000
  0
LINE
  8
200
  6
AUSGEZOGEN
 10
 485.1400
 20
 160.0000
 11
 491.0000
 21
 165.8600
  0
LINE
  8
200
  6
AUSGEZOGEN
 10
 501.0000
 20
 165.8600
 11
 506.8600
 21
 160.0000
  0
LINE
  8
200
  6
AUSGEZOGEN
 10
 506.8600
 20
 180.0000
 11
 501.0000
 21
 174.1400
  0
LINE
  8
200
  6
AUSGEZOGEN
 10
 521.0000
 20
 174.1400
 11
 515.1400
 21
 180.0000
  0
LINE
  8
200
  6
AUSGEZOGEN
 10
 515.1400
 20
 160.0000
 11
 521.0000
 21
 165.8600
  0
LINE
  8
200
  6
AUSGEZOGEN
 10
 111.0000
 20
 135.8600
 11
 116.8600
 21
 130.0000
  0
LINE
  8
200
  6
AUSGEZOGEN
 10
 116.8600
 20
 150.0000
 11
 111.0000
 21
 144.1400
  0
LINE
  8
200
  6
AUSGEZOGEN
 10
 131.0000
 20
 144.1400
 11
 125.1400
 21
 150.0000
  0
LINE
  8
200
  6
AUSGEZOGEN
 10
 125.1400
 20
 130.0000
 11
 131.0000
 21
 135.8600
  0
LINE
  8
200
  6
AUSGEZOGEN
 10
 141.0000
 20
 135.8600
 11
 146.8600
 21
 130.0000
  0
LINE
  8
200
  6
AUSGEZOGEN
 10
 146.8600
 20
 150.0000
 11
 141.0000
 21
 144.1400
  0
LINE
  8
200
  6
AUSGEZOGEN
 10
 161.0000
 20
 144.1400
 11
 155.1400
 21
 150.0000
  0
LINE
  8
200
  6
AUSGEZOGEN
 10
 155.1400
 20
 130.0000
 11
 161.0000
 21
 135.8600
  0
LINE
  8
200
  6
AUSGEZOGEN
 10
 171.0000
 20
 135.8600
 11
 176.8600
 21
 130.0000
  0
LINE
  8
200
  6
AUSGEZOGEN
 10
 176.8600
 20
 150.0000
 11
 171.0000
 21
 144.1400
  0
LINE
  8
200
  6
AUSGEZOGEN
 10
 191.0000
 20
 144.1400
 11
 185.1400
 21
 150.0000
  0
LINE
  8
200
  6
AUSGEZOGEN
 10
 185.1400
 20
 130.0000
 11
 191.0000
 21
 135.8600
  0
LINE
  8
200
  6
AUSGEZOGEN
 10
 201.0000
 20
 135.8600
 11
 206.8600
 21
 130.0000
  0
LINE
  8
200
  6
AUSGEZOGEN
 10
 206.8600
 20
 150.0000
 11
 201.0000
 21
 144.1400
  0
LINE
  8
200
  6
AUSGEZOGEN
 10
 221.0000
 20
 144.1400
 11
 215.1400
 21
 150.0000
  0
LINE
  8
200
  6
AUSGEZOGEN
 10
 215.1400
 20
 130.0000
 11
 221.0000
 21
 135.8600
  0
LINE
  8
200
  6
AUSGEZOGEN
 10
 231.0000
 20
 135.8600
 11
 236.8600
 21
 130.0000
  0
LINE
  8
200
  6
AUSGEZOGEN
 10
 236.8600
 20
 150.0000
 11
 231.0000
 21
 144.1400
  0
LINE
  8
200
  6
AUSGEZOGEN
 10
 251.0000
 20
 144.1400
 11
 245.1400
 21
 150.0000
  0
LINE
  8
200
  6
AUSGEZOGEN
 10
 245.1400
 20
 130.0000
 11
 251.0000
 21
 135.8600
  0
LINE
  8
200
  6
AUSGEZOGEN
 10
 261.0000
 20
 135.8600
 11
 266.8600
 21
 130.0000
  0
LINE
  8
200
  6
AUSGEZOGEN
 10
 266.8600
 20
 150.0000
 11
 261.0000
 21
 144.1400
  0
LINE
  8
200
  6
AUSGEZOGEN
 10
 281.0000
 20
 144.1400
 11
 275.1400
 21
 150.0000
  0
LINE
  8
200
  6
AUSGEZOGEN
 10
 275.1400
 20
 130.0000
 11
 281.0000
 21
 135.8600
  0
LINE
  8
200
  6
AUSGEZOGEN
 10
 291.0000
 20
 135.8600
 11
 296.8600
 21
 130.0000
  0
LINE
  8
200
  6
AUSGEZOGEN
 10
 296.8600
 20
 150.0000
 11
 291.0000
 21
 144.1400
  0
LINE
  8
200
  6
AUSGEZOGEN
 10
 311.0000
 20
 144.1400
 11
 305.1400
 21
 150.0000
  0
LINE
  8
200
  6
AUSGEZOGEN
 10
 305.1400
 20
 130.0000
 11
 311.0000
 21
 135.8600
  0
LINE
  8
200
  6
AUSGEZOGEN
 10
 321.0000
 20
 135.8600
 11
 326.8600
 21
 130.0000
  0
LINE
  8
200
  6
AUSGEZOGEN
 10
 326.8600
 20
 150.0000
 11
 321.0000
 21
 144.1400
  0
LINE
  8
200
  6
AUSGEZOGEN
 10
 341.0000
 20
 144.1400
 11
 335.1400
 21
 150.0000
  0
LINE
  8
200
  6
AUSGEZOGEN
 10
 335.1400
 20
 130.0000
 11
 341.0000
 21
 135.8600
  0
LINE
  8
200
  6
AUSGEZOGEN
 10
 351.0000
 20
 135.8600
 11
 356.8600
 21
 130.0000
  0
LINE
  8
200
  6
AUSGEZOGEN
 10
 356.8600
 20
 150.0000
 11
 351.0000
 21
 144.1400
  0
LINE
  8
200
  6
AUSGEZOGEN
 10
 371.0000
 20
 144.1400
 11
 365.1400
 21
 150.0000
  0
LINE
  8
200
  6
AUSGEZOGEN
 10
 365.1400
 20
 130.0000
 11
 371.0000
 21
 135.8600
  0
LINE
  8
200
  6
AUSGEZOGEN
 10
 381.0000
 20
 135.8600
 11
 386.8600
 21
 130.0000
  0
LINE
  8
200
  6
AUSGEZOGEN
 10
 386.8600
 20
 150.0000
 11
 381.0000
 21
 144.1400
  0
LINE
  8
200
  6
AUSGEZOGEN
 10
 401.0000
 20
 144.1400
 11
 395.1400
 21
 150.0000
  0
LINE
  8
200
  6
AUSGEZOGEN
 10
 395.1400
 20
 130.0000
 11
 401.0000
 21
 135.8600
  0
LINE
  8
200
  6
AUSGEZOGEN
 10
 411.0000
 20
 135.8600
 11
 416.8600
 21
 130.0000
  0
LINE
  8
200
  6
AUSGEZOGEN
 10
 416.8600
 20
 150.0000
 11
 411.0000
 21
 144.1400
  0
LINE
  8
200
  6
AUSGEZOGEN
 10
 431.0000
 20
 144.1400
 11
 425.1400
 21
 150.0000
  0
LINE
  8
200
  6
AUSGEZOGEN
 10
 425.1400
 20
 130.0000
 11
 431.0000
 21
 135.8600
  0
LINE
  8
200
  6
AUSGEZOGEN
 10
 441.0000
 20
 135.8600
 11
 446.8600
 21
 130.0000
  0
LINE
  8
200
  6
AUSGEZOGEN
 10
 446.8600
 20
 150.0000
 11
 441.0000
 21
 144.1400
  0
LINE
  8
200
  6
AUSGEZOGEN
 10
 461.0000
 20
 144.1400
 11
 455.1400
 21
 150.0000
  0
LINE
  8
200
  6
AUSGEZOGEN
 10
 455.1400
 20
 130.0000
 11
 461.0000
 21
 135.8600
  0
LINE
  8
200
  6
AUSGEZOGEN
 10
 471.0000
 20
 135.8600
 11
 476.8600
 21
 130.0000
  0
LINE
  8
200
  6
AUSGEZOGEN
 10
 476.8600
 20
 150.0000
 11
 471.0000
 21
 144.1400
  0
LINE
  8
200
  6
AUSGEZOGEN
 10
 491.0000
 20
 144.1400
 11
 485.1400
 21
 150.0000
  0
LINE
  8
200
  6
AUSGEZOGEN
 10
 485.1400
 20
 130.0000
 11
 491.0000
 21
 135.8600
  0
LINE
  8
200
  6
AUSGEZOGEN
 10
 501.0000
 20
 135.8600
 11
 506.8600
 21
 130.0000
  0
LINE
  8
200
  6
AUSGEZOGEN
 10
 506.8600
 20
 150.0000
 11
 501.0000
 21
 144.1400
  0
LINE
  8
200
  6
AUSGEZOGEN
 10
 521.0000
 20
 144.1400
 11
 515.1400
 21
 150.0000
  0
LINE
  8
200
  6
AUSGEZOGEN
 10
 515.1400
 20
 130.0000
 11
 521.0000
 21
 135.8600
  0
LINE
  8
200
  6
AUSGEZOGEN
 10
  81.0000
 20
 225.8600
 11
  86.8600
 21
 220.0000
  0
LINE
  8
200
  6
AUSGEZOGEN
 10
  86.8600
 20
 240.0000
 11
  81.0000
 21
 234.1400
  0
LINE
  8
200
  6
AUSGEZOGEN
 10
 101.0000
 20
 234.1400
 11
  95.1400
 21
 240.0000
  0
LINE
  8
200
  6
AUSGEZOGEN
 10
  95.1400
 20
 220.0000
 11
 101.0000
 21
 225.8600
  0
LINE
  8
200
  6
AUSGEZOGEN
 10
  81.0000
 20
 195.8600
 11
  86.8600
 21
 190.0000
  0
LINE
  8
200
  6
AUSGEZOGEN
 10
  86.8600
 20
 210.0000
 11
  81.0000
 21
 204.1400
  0
LINE
  8
200
  6
AUSGEZOGEN
 10
 101.0000
 20
 204.1400
 11
  95.1400
 21
 210.0000
  0
LINE
  8
200
  6
AUSGEZOGEN
 10
  95.1400
 20
 190.0000
 11
 101.0000
 21
 195.8600
  0
LINE
  8
200
  6
AUSGEZOGEN
 10
  81.0000
 20
 165.8600
 11
  86.8600
 21
 160.0000
  0
LINE
  8
200
  6
AUSGEZOGEN
 10
  86.8600
 20
 180.0000
 11
  81.0000
 21
 174.1400
  0
LINE
  8
200
  6
AUSGEZOGEN
 10
 101.0000
 20
 174.1400
 11
  95.1400
 21
 180.0000
  0
LINE
  8
200
  6
AUSGEZOGEN
 10
  95.1400
 20
 160.0000
 11
 101.0000
 21
 165.8600
  0
LINE
  8
200
  6
AUSGEZOGEN
 10
  81.0000
 20
 135.8600
 11
  86.8600
 21
 130.0000
  0
LINE
  8
200
  6
AUSGEZOGEN
 10
  86.8600
 20
 150.0000
 11
  81.0000
 21
 144.1400
  0
LINE
  8
200
  6
AUSGEZOGEN
 10
 101.0000
 20
 144.1400
 11
  95.1400
 21
 150.0000
  0
LINE
  8
200
  6
AUSGEZOGEN
 10
  95.1400
 20
 130.0000
 11
 101.0000
 21
 135.8600
  0
LINE
  8
200
  6
AUSGEZOGEN
 10
  81.0000
 20
 105.8600
 11
  86.8600
 21
 100.0000
  0
LINE
  8
200
  6
AUSGEZOGEN
 10
  86.8600
 20
 120.0000
 11
  81.0000
 21
 114.1400
  0
LINE
  8
200
  6
AUSGEZOGEN
 10
 101.0000
 20
 114.1400
 11
  95.1400
 21
 120.0000
  0
LINE
  8
200
  6
AUSGEZOGEN
 10
  95.1400
 20
 100.0000
 11
 101.0000
 21
 105.8600
  0
LINE
  8
200
  6
AUSGEZOGEN
 10
 111.0000
 20
 105.8600
 11
 116.8600
 21
 100.0000
  0
LINE
  8
200
  6
AUSGEZOGEN
 10
 116.8600
 20
 120.0000
 11
 111.0000
 21
 114.1400
  0
LINE
  8
200
  6
AUSGEZOGEN
 10
 131.0000
 20
 114.1400
 11
 125.1400
 21
 120.0000
  0
LINE
  8
200
  6
AUSGEZOGEN
 10
 125.1400
 20
 100.0000
 11
 131.0000
 21
 105.8600
  0
LINE
  8
200
  6
AUSGEZOGEN
 10
 141.0000
 20
 105.8600
 11
 146.8600
 21
 100.0000
  0
LINE
  8
200
  6
AUSGEZOGEN
 10
 146.8600
 20
 120.0000
 11
 141.0000
 21
 114.1400
  0
LINE
  8
200
  6
AUSGEZOGEN
 10
 161.0000
 20
 114.1400
 11
 155.1400
 21
 120.0000
  0
LINE
  8
200
  6
AUSGEZOGEN
 10
 155.1400
 20
 100.0000
 11
 161.0000
 21
 105.8600
  0
LINE
  8
200
  6
AUSGEZOGEN
 10
 171.0000
 20
 105.8600
 11
 176.8600
 21
 100.0000
  0
LINE
  8
200
  6
AUSGEZOGEN
 10
 176.8600
 20
 120.0000
 11
 171.0000
 21
 114.1400
  0
LINE
  8
200
  6
AUSGEZOGEN
 10
 191.0000
 20
 114.1400
 11
 185.1400
 21
 120.0000
  0
LINE
  8
200
  6
AUSGEZOGEN
 10
 185.1400
 20
 100.0000
 11
 191.0000
 21
 105.8600
  0
LINE
  8
200
  6
AUSGEZOGEN
 10
 201.0000
 20
 105.8600
 11
 206.8600
 21
 100.0000
  0
LINE
  8
200
  6
AUSGEZOGEN
 10
 206.8600
 20
 120.0000
 11
 201.0000
 21
 114.1400
  0
LINE
  8
200
  6
AUSGEZOGEN
 10
 221.0000
 20
 114.1400
 11
 215.1400
 21
 120.0000
  0
LINE
  8
200
  6
AUSGEZOGEN
 10
 215.1400
 20
 100.0000
 11
 221.0000
 21
 105.8600
  0
LINE
  8
200
  6
AUSGEZOGEN
 10
 231.0000
 20
 105.8600
 11
 236.8600
 21
 100.0000
  0
LINE
  8
200
  6
AUSGEZOGEN
 10
 236.8600
 20
 120.0000
 11
 231.0000
 21
 114.1400
  0
LINE
  8
200
  6
AUSGEZOGEN
 10
 251.0000
 20
 114.1400
 11
 245.1400
 21
 120.0000
  0
LINE
  8
200
  6
AUSGEZOGEN
 10
 245.1400
 20
 100.0000
 11
 251.0000
 21
 105.8600
  0
LINE
  8
200
  6
AUSGEZOGEN
 10
 261.0000
 20
 105.8600
 11
 266.8600
 21
 100.0000
  0
LINE
  8
200
  6
AUSGEZOGEN
 10
 266.8600
 20
 120.0000
 11
 261.0000
 21
 114.1400
  0
LINE
  8
200
  6
AUSGEZOGEN
 10
 281.0000
 20
 114.1400
 11
 275.1400
 21
 120.0000
  0
LINE
  8
200
  6
AUSGEZOGEN
 10
 275.1400
 20
 100.0000
 11
 281.0000
 21
 105.8600
  0
LINE
  8
200
  6
AUSGEZOGEN
 10
 291.0000
 20
 105.8600
 11
 296.8600
 21
 100.0000
  0
LINE
  8
200
  6
AUSGEZOGEN
 10
 296.8600
 20
 120.0000
 11
 291.0000
 21
 114.1400
  0
LINE
  8
200
  6
AUSGEZOGEN
 10
 311.0000
 20
 114.1400
 11
 305.1400
 21
 120.0000
  0
LINE
  8
200
  6
AUSGEZOGEN
 10
 305.1400
 20
 100.0000
 11
 311.0000
 21
 105.8600
  0
LINE
  8
200
  6
AUSGEZOGEN
 10
 321.0000
 20
 105.8600
 11
 326.8600
 21
 100.0000
  0
LINE
  8
200
  6
AUSGEZOGEN
 10
 326.8600
 20
 120.0000
 11
 321.0000
 21
 114.1400
  0
LINE
  8
200
  6
AUSGEZOGEN
 10
 341.0000
 20
 114.1400
 11
 335.1400
 21
 120.0000
  0
LINE
  8
200
  6
AUSGEZOGEN
 10
 335.1400
 20
 100.0000
 11
 341.0000
 21
 105.8600
  0
LINE
  8
200
  6
AUSGEZOGEN
 10
 351.0000
 20
 105.8600
 11
 356.8600
 21
 100.0000
  0
LINE
  8
200
  6
AUSGEZOGEN
 10
 356.8600
 20
 120.0000
 11
 351.0000
 21
 114.1400
  0
LINE
  8
200
  6
AUSGEZOGEN
 10
 371.0000
 20
 114.1400
 11
 365.1400
 21
 120.0000
  0
LINE
  8
200
  6
AUSGEZOGEN
 10
 365.1400
 20
 100.0000
 11
 371.0000
 21
 105.8600
  0
LINE
  8
200
  6
AUSGEZOGEN
 10
 381.0000
 20
 105.8600
 11
 386.8600
 21
 100.0000
  0
LINE
  8
200
  6
AUSGEZOGEN
 10
 386.8600
 20
 120.0000
 11
 381.0000
 21
 114.1400
  0
LINE
  8
200
  6
AUSGEZOGEN
 10
 401.0000
 20
 114.1400
 11
 395.1400
 21
 120.0000
  0
LINE
  8
200
  6
AUSGEZOGEN
 10
 395.1400
 20
 100.0000
 11
 401.0000
 21
 105.8600
  0
LINE
  8
200
  6
AUSGEZOGEN
 10
 411.0000
 20
 105.8600
 11
 416.8600
 21
 100.0000
  0
LINE
  8
200
  6
AUSGEZOGEN
 10
 416.8600
 20
 120.0000
 11
 411.0000
 21
 114.1400
  0
LINE
  8
200
  6
AUSGEZOGEN
 10
 431.0000
 20
 114.1400
 11
 425.1400
 21
 120.0000
  0
LINE
  8
200
  6
AUSGEZOGEN
 10
 425.1400
 20
 100.0000
 11
 431.0000
 21
 105.8600
  0
LINE
  8
200
  6
AUSGEZOGEN
 10
 441.0000
 20
 105.8600
 11
 446.8600
 21
 100.0000
  0
LINE
  8
200
  6
AUSGEZOGEN
 10
 446.8600
 20
 120.0000
 11
 441.0000
 21
 114.1400
  0
LINE
  8
200
  6
AUSGEZOGEN
 10
 461.0000
 20
 114.1400
 11
 455.1400
 21
 120.0000
  0
LINE
  8
200
  6
AUSGEZOGEN
 10
 455.1400
 20
 100.0000
 11
 461.0000
 21
 105.8600
  0
LINE
  8
200
  6
AUSGEZOGEN
 10
 471.0000
 20
 105.8600
 11
 476.8600
 21
 100.0000
  0
LINE
  8
200
  6
AUSGEZOGEN
 10
 476.8600
 20
 120.0000
 11
 471.0000
 21
 114.1400
  0
LINE
  8
200
  6
AUSGEZOGEN
 10
 491.0000
 20
 114.1400
 11
 485.1400
 21
 120.0000
  0
LINE
  8
200
  6
AUSGEZOGEN
 10
 485.1400
 20
 100.0000
 11
 491.0000
 21
 105.8600
  0
LINE
  8
200
  6
AUSGEZOGEN
 10
 501.0000
 20
 105.8600
 11
 506.8600
 21
 100.0000
  0
LINE
  8
200
  6
AUSGEZOGEN
 10
 506.8600
 20
 120.0000
 11
 501.0000
 21
 114.1400
  0
LINE
  8
200
  6
AUSGEZOGEN
 10
 521.0000
 20
 114.1400
 11
 515.1400
 21
 120.0000
  0
LINE
  8
200
  6
AUSGEZOGEN
 10
 515.1400
 20
 100.0000
 11
 521.0000
 21
 105.8600
  0
LINE
  8
200
  6
AUSGEZOGEN
 10
 111.0000
 20
 285.8600
 11
 116.8600
 21
 280.0000
  0
LINE
  8
200
  6
AUSGEZOGEN
 10
 116.8600
 20
 300.0000
 11
 111.0000
 21
 294.1400
  0
LINE
  8
200
  6
AUSGEZOGEN
 10
 131.0000
 20
 294.1400
 11
 125.1400
 21
 300.0000
  0
LINE
  8
200
  6
AUSGEZOGEN
 10
 125.1400
 20
 280.0000
 11
 131.0000
 21
 285.8600
  0
LINE
  8
200
  6
AUSGEZOGEN
 10
 141.0000
 20
 285.8600
 11
 146.8600
 21
 280.0000
  0
LINE
  8
200
  6
AUSGEZOGEN
 10
 146.8600
 20
 300.0000
 11
 141.0000
 21
 294.1400
  0
LINE
  8
200
  6
AUSGEZOGEN
 10
 161.0000
 20
 294.1400
 11
 155.1400
 21
 300.0000
  0
LINE
  8
200
  6
AUSGEZOGEN
 10
 155.1400
 20
 280.0000
 11
 161.0000
 21
 285.8600
  0
LINE
  8
200
  6
AUSGEZOGEN
 10
 171.0000
 20
 285.8600
 11
 176.8600
 21
 280.0000
  0
LINE
  8
200
  6
AUSGEZOGEN
 10
 176.8600
 20
 300.0000
 11
 171.0000
 21
 294.1400
  0
LINE
  8
200
  6
AUSGEZOGEN
 10
 191.0000
 20
 294.1400
 11
 185.1400
 21
 300.0000
  0
LINE
  8
200
  6
AUSGEZOGEN
 10
 185.1400
 20
 280.0000
 11
 191.0000
 21
 285.8600
  0
LINE
  8
200
  6
AUSGEZOGEN
 10
 201.0000
 20
 285.8600
 11
 206.8600
 21
 280.0000
  0
LINE
  8
200
  6
AUSGEZOGEN
 10
 206.8600
 20
 300.0000
 11
 201.0000
 21
 294.1400
  0
LINE
  8
200
  6
AUSGEZOGEN
 10
 221.0000
 20
 294.1400
 11
 215.1400
 21
 300.0000
  0
LINE
  8
200
  6
AUSGEZOGEN
 10
 215.1400
 20
 280.0000
 11
 221.0000
 21
 285.8600
  0
LINE
  8
200
  6
AUSGEZOGEN
 10
 231.0000
 20
 285.8600
 11
 236.8600
 21
 280.0000
  0
LINE
  8
200
  6
AUSGEZOGEN
 10
 236.8600
 20
 300.0000
 11
 231.0000
 21
 294.1400
  0
LINE
  8
200
  6
AUSGEZOGEN
 10
 251.0000
 20
 294.1400
 11
 245.1400
 21
 300.0000
  0
LINE
  8
200
  6
AUSGEZOGEN
 10
 245.1400
 20
 280.0000
 11
 251.0000
 21
 285.8600
  0
LINE
  8
200
  6
AUSGEZOGEN
 10
 261.0000
 20
 285.8600
 11
 266.8600
 21
 280.0000
  0
LINE
  8
200
  6
AUSGEZOGEN
 10
 266.8600
 20
 300.0000
 11
 261.0000
 21
 294.1400
  0
LINE
  8
200
  6
AUSGEZOGEN
 10
 281.0000
 20
 294.1400
 11
 275.1400
 21
 300.0000
  0
LINE
  8
200
  6
AUSGEZOGEN
 10
 275.1400
 20
 280.0000
 11
 281.0000
 21
 285.8600
  0
LINE
  8
200
  6
AUSGEZOGEN
 10
 291.0000
 20
 285.8600
 11
 296.8600
 21
 280.0000
  0
LINE
  8
200
  6
AUSGEZOGEN
 10
 296.8600
 20
 300.0000
 11
 291.0000
 21
 294.1400
  0
LINE
  8
200
  6
AUSGEZOGEN
 10
 311.0000
 20
 294.1400
 11
 305.1400
 21
 300.0000
  0
LINE
  8
200
  6
AUSGEZOGEN
 10
 305.1400
 20
 280.0000
 11
 311.0000
 21
 285.8600
  0
LINE
  8
200
  6
AUSGEZOGEN
 10
 321.0000
 20
 285.8600
 11
 326.8600
 21
 280.0000
  0
LINE
  8
200
  6
AUSGEZOGEN
 10
 326.8600
 20
 300.0000
 11
 321.0000
 21
 294.1400
  0
LINE
  8
200
  6
AUSGEZOGEN
 10
 341.0000
 20
 294.1400
 11
 335.1400
 21
 300.0000
  0
LINE
  8
200
  6
AUSGEZOGEN
 10
 335.1400
 20
 280.0000
 11
 341.0000
 21
 285.8600
  0
LINE
  8
200
  6
AUSGEZOGEN
 10
 351.0000
 20
 285.8600
 11
 356.8600
 21
 280.0000
  0
LINE
  8
200
  6
AUSGEZOGEN
 10
 356.8600
 20
 300.0000
 11
 351.0000
 21
 294.1400
  0
LINE
  8
200
  6
AUSGEZOGEN
 10
 371.0000
 20
 294.1400
 11
 365.1400
 21
 300.0000
  0
LINE
  8
200
  6
AUSGEZOGEN
 10
 365.1400
 20
 280.0000
 11
 371.0000
 21
 285.8600
  0
LINE
  8
200
  6
AUSGEZOGEN
 10
 381.0000
 20
 285.8600
 11
 386.8600
 21
 280.0000
  0
LINE
  8
200
  6
AUSGEZOGEN
 10
 386.8600
 20
 300.0000
 11
 381.0000
 21
 294.1400
  0
LINE
  8
200
  6
AUSGEZOGEN
 10
 401.0000
 20
 294.1400
 11
 395.1400
 21
 300.0000
  0
LINE
  8
200
  6
AUSGEZOGEN
 10
 395.1400
 20
 280.0000
 11
 401.0000
 21
 285.8600
  0
LINE
  8
200
  6
AUSGEZOGEN
 10
 411.0000
 20
 285.8600
 11
 416.8600
 21
 280.0000
  0
LINE
  8
200
  6
AUSGEZOGEN
 10
 416.8600
 20
 300.0000
 11
 411.0000
 21
 294.1400
  0
LINE
  8
200
  6
AUSGEZOGEN
 10
 431.0000
 20
 294.1400
 11
 425.1400
 21
 300.0000
  0
LINE
  8
200
  6
AUSGEZOGEN
 10
 425.1400
 20
 280.0000
 11
 431.0000
 21
 285.8600
  0
LINE
  8
200
  6
AUSGEZOGEN
 10
 441.0000
 20
 285.8600
 11
 446.8600
 21
 280.0000
  0
LINE
  8
200
  6
AUSGEZOGEN
 10
 446.8600
 20
 300.0000
 11
 441.0000
 21
 294.1400
  0
LINE
  8
200
  6
AUSGEZOGEN
 10
 461.0000
 20
 294.1400
 11
 455.1400
 21
 300.0000
  0
LINE
  8
200
  6
AUSGEZOGEN
 10
 455.1400
 20
 280.0000
 11
 461.0000
 21
 285.8600
  0
LINE
  8
200
  6
AUSGEZOGEN
 10
 471.0000
 20
 285.8600
 11
 476.8600
 21
 280.0000
  0
LINE
  8
200
  6
AUSGEZOGEN
 10
 476.8600
 20
 300.0000
 11
 471.0000
 21
 294.1400
  0
LINE
  8
200
  6
AUSGEZOGEN
 10
 491.0000
 20
 294.1400
 11
 485.1400
 21
 300.0000
  0
LINE
  8
200
  6
AUSGEZOGEN
 10
 485.1400
 20
 280.0000
 11
 491.0000
 21
 285.8600
  0
LINE
  8
200
  6
AUSGEZOGEN
 10
 501.0000
 20
 285.8600
 11
 506.8600
 21
 280.0000
  0
LINE
  8
200
  6
AUSGEZOGEN
 10
 506.8600
 20
 300.0000
 11
 501.0000
 21
 294.1400
  0
LINE
  8
200
  6
AUSGEZOGEN
 10
 521.0000
 20
 294.1400
 11
 515.1400
 21
 300.0000
  0
LINE
  8
200
  6
AUSGEZOGEN
 10
 515.1400
 20
 280.0000
 11
 521.0000
 21
 285.8600
  0
LINE
  8
200
  6
AUSGEZOGEN
 10
  81.0000
 20
 285.8600
 11
  86.8600
 21
 280.0000
  0
LINE
  8
200
  6
AUSGEZOGEN
 10
  86.8600
 20
 300.0000
 11
  81.0000
 21
 294.1400
  0
LINE
  8
200
  6
AUSGEZOGEN
 10
 101.0000
 20
 294.1400
 11
  95.1400
 21
 300.0000
  0
LINE
  8
200
  6
AUSGEZOGEN
 10
  95.1400
 20
 280.0000
 11
 101.0000
 21
 285.8600
  0
LINE
  8
200
  6
AUSGEZOGEN
 10
 111.0000
 20
 315.8600
 11
 116.8600
 21
 310.0000
  0
LINE
  8
200
  6
AUSGEZOGEN
 10
 116.8600
 20
 330.0000
 11
 111.0000
 21
 324.1400
  0
LINE
  8
200
  6
AUSGEZOGEN
 10
 131.0000
 20
 324.1400
 11
 125.1400
 21
 330.0000
  0
LINE
  8
200
  6
AUSGEZOGEN
 10
 125.1400
 20
 310.0000
 11
 131.0000
 21
 315.8600
  0
LINE
  8
200
  6
AUSGEZOGEN
 10
 141.0000
 20
 315.8600
 11
 146.8600
 21
 310.0000
  0
LINE
  8
200
  6
AUSGEZOGEN
 10
 146.8600
 20
 330.0000
 11
 141.0000
 21
 324.1400
  0
LINE
  8
200
  6
AUSGEZOGEN
 10
 161.0000
 20
 324.1400
 11
 155.1400
 21
 330.0000
  0
LINE
  8
200
  6
AUSGEZOGEN
 10
 155.1400
 20
 310.0000
 11
 161.0000
 21
 315.8600
  0
LINE
  8
200
  6
AUSGEZOGEN
 10
 171.0000
 20
 315.8600
 11
 176.8600
 21
 310.0000
  0
LINE
  8
200
  6
AUSGEZOGEN
 10
 176.8600
 20
 330.0000
 11
 171.0000
 21
 324.1400
  0
LINE
  8
200
  6
AUSGEZOGEN
 10
 191.0000
 20
 324.1400
 11
 185.1400
 21
 330.0000
  0
LINE
  8
200
  6
AUSGEZOGEN
 10
 185.1400
 20
 310.0000
 11
 191.0000
 21
 315.8600
  0
LINE
  8
200
  6
AUSGEZOGEN
 10
 201.0000
 20
 315.8600
 11
 206.8600
 21
 310.0000
  0
LINE
  8
200
  6
AUSGEZOGEN
 10
 206.8600
 20
 330.0000
 11
 201.0000
 21
 324.1400
  0
LINE
  8
200
  6
AUSGEZOGEN
 10
 221.0000
 20
 324.1400
 11
 215.1400
 21
 330.0000
  0
LINE
  8
200
  6
AUSGEZOGEN
 10
 215.1400
 20
 310.0000
 11
 221.0000
 21
 315.8600
  0
LINE
  8
200
  6
AUSGEZOGEN
 10
 231.0000
 20
 315.8600
 11
 236.8600
 21
 310.0000
  0
LINE
  8
200
  6
AUSGEZOGEN
 10
 236.8600
 20
 330.0000
 11
 231.0000
 21
 324.1400
  0
LINE
  8
200
  6
AUSGEZOGEN
 10
 251.0000
 20
 324.1400
 11
 245.1400
 21
 330.0000
  0
LINE
  8
200
  6
AUSGEZOGEN
 10
 245.1400
 20
 310.0000
 11
 251.0000
 21
 315.8600
  0
LINE
  8
200
  6
AUSGEZOGEN
 10
 261.0000
 20
 315.8600
 11
 266.8600
 21
 310.0000
  0
LINE
  8
200
  6
AUSGEZOGEN
 10
 266.8600
 20
 330.0000
 11
 261.0000
 21
 324.1400
  0
LINE
  8
200
  6
AUSGEZOGEN
 10
 281.0000
 20
 324.1400
 11
 275.1400
 21
 330.0000
  0
LINE
  8
200
  6
AUSGEZOGEN
 10
 275.1400
 20
 310.0000
 11
 281.0000
 21
 315.8600
  0
LINE
  8
200
  6
AUSGEZOGEN
 10
 291.0000
 20
 315.8600
 11
 296.8600
 21
 310.0000
  0
LINE
  8
200
  6
AUSGEZOGEN
 10
 296.8600
 20
 330.0000
 11
 291.0000
 21
 324.1400
  0
LINE
  8
200
  6
AUSGEZOGEN
 10
 311.0000
 20
 324.1400
 11
 305.1400
 21
 330.0000
  0
LINE
  8
200
  6
AUSGEZOGEN
 10
 305.1400
 20
 310.0000
 11
 311.0000
 21
 315.8600
  0
LINE
  8
200
  6
AUSGEZOGEN
 10
 321.0000
 20
 315.8600
 11
 326.8600
 21
 310.0000
  0
LINE
  8
200
  6
AUSGEZOGEN
 10
 326.8600
 20
 330.0000
 11
 321.0000
 21
 324.1400
  0
LINE
  8
200
  6
AUSGEZOGEN
 10
 341.0000
 20
 324.1400
 11
 335.1400
 21
 330.0000
  0
LINE
  8
200
  6
AUSGEZOGEN
 10
 335.1400
 20
 310.0000
 11
 341.0000
 21
 315.8600
  0
LINE
  8
200
  6
AUSGEZOGEN
 10
 351.0000
 20
 315.8600
 11
 356.8600
 21
 310.0000
  0
LINE
  8
200
  6
AUSGEZOGEN
 10
 356.8600
 20
 330.0000
 11
 351.0000
 21
 324.1400
  0
LINE
  8
200
  6
AUSGEZOGEN
 10
 371.0000
 20
 324.1400
 11
 365.1400
 21
 330.0000
  0
LINE
  8
200
  6
AUSGEZOGEN
 10
 365.1400
 20
 310.0000
 11
 371.0000
 21
 315.8600
  0
LINE
  8
200
  6
AUSGEZOGEN
 10
 381.0000
 20
 315.8600
 11
 386.8600
 21
 310.0000
  0
LINE
  8
200
  6
AUSGEZOGEN
 10
 386.8600
 20
 330.0000
 11
 381.0000
 21
 324.1400
  0
LINE
  8
200
  6
AUSGEZOGEN
 10
 401.0000
 20
 324.1400
 11
 395.1400
 21
 330.0000
  0
LINE
  8
200
  6
AUSGEZOGEN
 10
 395.1400
 20
 310.0000
 11
 401.0000
 21
 315.8600
  0
LINE
  8
200
  6
AUSGEZOGEN
 10
 411.0000
 20
 315.8600
 11
 416.8600
 21
 310.0000
  0
LINE
  8
200
  6
AUSGEZOGEN
 10
 416.8600
 20
 330.0000
 11
 411.0000
 21
 324.1400
  0
LINE
  8
200
  6
AUSGEZOGEN
 10
 431.0000
 20
 324.1400
 11
 425.1400
 21
 330.0000
  0
LINE
  8
200
  6
AUSGEZOGEN
 10
 425.1400
 20
 310.0000
 11
 431.0000
 21
 315.8600
  0
LINE
  8
200
  6
AUSGEZOGEN
 10
 441.0000
 20
 315.8600
 11
 446.8600
 21
 310.0000
  0
LINE
  8
200
  6
AUSGEZOGEN
 10
 446.8600
 20
 330.0000
 11
 441.0000
 21
 324.1400
  0
LINE
  8
200
  6
AUSGEZOGEN
 10
 461.0000
 20
 324.1400
 11
 455.1400
 21
 330.0000
  0
LINE
  8
200
  6
AUSGEZOGEN
 10
 455.1400
 20
 310.0000
 11
 461.0000
 21
 315.8600
  0
LINE
  8
200
  6
AUSGEZOGEN
 10
 471.0000
 20
 315.8600
 11
 476.8600
 21
 310.0000
  0
LINE
  8
200
  6
AUSGEZOGEN
 10
 476.8600
 20
 330.0000
 11
 471.0000
 21
 324.1400
  0
LINE
  8
200
  6
AUSGEZOGEN
 10
 491.0000
 20
 324.1400
 11
 485.1400
 21
 330.0000
  0
LINE
  8
200
  6
AUSGEZOGEN
 10
 485.1400
 20
 310.0000
 11
 491.0000
 21
 315.8600
  0
LINE
  8
200
  6
AUSGEZOGEN
 10
 501.0000
 20
 315.8600
 11
 506.8600
 21
 310.0000
  0
LINE
  8
200
  6
AUSGEZOGEN
 10
 506.8600
 20
 330.0000
 11
 501.0000
 21
 324.1400
  0
LINE
  8
200
  6
AUSGEZOGEN
 10
 521.0000
 20
 324.1400
 11
 515.1400
 21
 330.0000
  0
LINE
  8
200
  6
AUSGEZOGEN
 10
 515.1400
 20
 310.0000
 11
 521.0000
 21
 315.8600
  0
LINE
  8
200
  6
AUSGEZOGEN
 10
  81.0000
 20
 315.8600
 11
  86.8600
 21
 310.0000
  0
LINE
  8
200
  6
AUSGEZOGEN
 10
  86.8600
 20
 330.0000
 11
  81.0000
 21
 324.1400
  0
LINE
  8
200
  6
AUSGEZOGEN
 10
 101.0000
 20
 324.1400
 11
  95.1400
 21
 330.0000
  0
LINE
  8
200
  6
AUSGEZOGEN
 10
  95.1400
 20
 310.0000
 11
 101.0000
 21
 315.8600
  0
LINE
  8
200
  6
AUSGEZOGEN
 10
 111.0000
 20
 345.8600
 11
 116.8600
 21
 340.0000
  0
LINE
  8
200
  6
AUSGEZOGEN
 10
 116.8600
 20
 360.0000
 11
 111.0000
 21
 354.1400
  0
LINE
  8
200
  6
AUSGEZOGEN
 10
 131.0000
 20
 354.1400
 11
 125.1400
 21
 360.0000
  0
LINE
  8
200
  6
AUSGEZOGEN
 10
 125.1400
 20
 340.0000
 11
 131.0000
 21
 345.8600
  0
LINE
  8
200
  6
AUSGEZOGEN
 10
 141.0000
 20
 345.8600
 11
 146.8600
 21
 340.0000
  0
LINE
  8
200
  6
AUSGEZOGEN
 10
 146.8600
 20
 360.0000
 11
 141.0000
 21
 354.1400
  0
LINE
  8
200
  6
AUSGEZOGEN
 10
 161.0000
 20
 354.1400
 11
 155.1400
 21
 360.0000
  0
LINE
  8
200
  6
AUSGEZOGEN
 10
 155.1400
 20
 340.0000
 11
 161.0000
 21
 345.8600
  0
LINE
  8
200
  6
AUSGEZOGEN
 10
 171.0000
 20
 345.8600
 11
 176.8600
 21
 340.0000
  0
LINE
  8
200
  6
AUSGEZOGEN
 10
 176.8600
 20
 360.0000
 11
 171.0000
 21
 354.1400
  0
LINE
  8
200
  6
AUSGEZOGEN
 10
 191.0000
 20
 354.1400
 11
 185.1400
 21
 360.0000
  0
LINE
  8
200
  6
AUSGEZOGEN
 10
 185.1400
 20
 340.0000
 11
 191.0000
 21
 345.8600
  0
LINE
  8
200
  6
AUSGEZOGEN
 10
 201.0000
 20
 345.8600
 11
 206.8600
 21
 340.0000
  0
LINE
  8
200
  6
AUSGEZOGEN
 10
 206.8600
 20
 360.0000
 11
 201.0000
 21
 354.1400
  0
LINE
  8
200
  6
AUSGEZOGEN
 10
 221.0000
 20
 354.1400
 11
 215.1400
 21
 360.0000
  0
LINE
  8
200
  6
AUSGEZOGEN
 10
 215.1400
 20
 340.0000
 11
 221.0000
 21
 345.8600
  0
LINE
  8
200
  6
AUSGEZOGEN
 10
 231.0000
 20
 345.8600
 11
 236.8600
 21
 340.0000
  0
LINE
  8
200
  6
AUSGEZOGEN
 10
 236.8600
 20
 360.0000
 11
 231.0000
 21
 354.1400
  0
LINE
  8
200
  6
AUSGEZOGEN
 10
 251.0000
 20
 354.1400
 11
 245.1400
 21
 360.0000
  0
LINE
  8
200
  6
AUSGEZOGEN
 10
 245.1400
 20
 340.0000
 11
 251.0000
 21
 345.8600
  0
LINE
  8
200
  6
AUSGEZOGEN
 10
 261.0000
 20
 345.8600
 11
 266.8600
 21
 340.0000
  0
LINE
  8
200
  6
AUSGEZOGEN
 10
 266.8600
 20
 360.0000
 11
 261.0000
 21
 354.1400
  0
LINE
  8
200
  6
AUSGEZOGEN
 10
 281.0000
 20
 354.1400
 11
 275.1400
 21
 360.0000
  0
LINE
  8
200
  6
AUSGEZOGEN
 10
 275.1400
 20
 340.0000
 11
 281.0000
 21
 345.8600
  0
LINE
  8
200
  6
AUSGEZOGEN
 10
 291.0000
 20
 345.8600
 11
 296.8600
 21
 340.0000
  0
LINE
  8
200
  6
AUSGEZOGEN
 10
 296.8600
 20
 360.0000
 11
 291.0000
 21
 354.1400
  0
LINE
  8
200
  6
AUSGEZOGEN
 10
 311.0000
 20
 354.1400
 11
 305.1400
 21
 360.0000
  0
LINE
  8
200
  6
AUSGEZOGEN
 10
 305.1400
 20
 340.0000
 11
 311.0000
 21
 345.8600
  0
LINE
  8
200
  6
AUSGEZOGEN
 10
 321.0000
 20
 345.8600
 11
 326.8600
 21
 340.0000
  0
LINE
  8
200
  6
AUSGEZOGEN
 10
 326.8600
 20
 360.0000
 11
 321.0000
 21
 354.1400
  0
LINE
  8
200
  6
AUSGEZOGEN
 10
 341.0000
 20
 354.1400
 11
 335.1400
 21
 360.0000
  0
LINE
  8
200
  6
AUSGEZOGEN
 10
 335.1400
 20
 340.0000
 11
 341.0000
 21
 345.8600
  0
LINE
  8
200
  6
AUSGEZOGEN
 10
 351.0000
 20
 345.8600
 11
 356.8600
 21
 340.0000
  0
LINE
  8
200
  6
AUSGEZOGEN
 10
 356.8600
 20
 360.0000
 11
 351.0000
 21
 354.1400
  0
LINE
  8
200
  6
AUSGEZOGEN
 10
 371.0000
 20
 354.1400
 11
 365.1400
 21
 360.0000
  0
LINE
  8
200
  6
AUSGEZOGEN
 10
 365.1400
 20
 340.0000
 11
 371.0000
 21
 345.8600
  0
LINE
  8
200
  6
AUSGEZOGEN
 10
 381.0000
 20
 345.8600
 11
 386.8600
 21
 340.0000
  0
LINE
  8
200
  6
AUSGEZOGEN
 10
 386.8600
 20
 360.0000
 11
 381.0000
 21
 354.1400
  0
LINE
  8
200
  6
AUSGEZOGEN
 10
 401.0000
 20
 354.1400
 11
 395.1400
 21
 360.0000
  0
LINE
  8
200
  6
AUSGEZOGEN
 10
 395.1400
 20
 340.0000
 11
 401.0000
 21
 345.8600
  0
LINE
  8
200
  6
AUSGEZOGEN
 10
 411.0000
 20
 345.8600
 11
 416.8600
 21
 340.0000
  0
LINE
  8
200
  6
AUSGEZOGEN
 10
 416.8600
 20
 360.0000
 11
 411.0000
 21
 354.1400
  0
LINE
  8
200
  6
AUSGEZOGEN
 10
 431.0000
 20
 354.1400
 11
 425.1400
 21
 360.0000
  0
LINE
  8
200
  6
AUSGEZOGEN
 10
 425.1400
 20
 340.0000
 11
 431.0000
 21
 345.8600
  0
LINE
  8
200
  6
AUSGEZOGEN
 10
 441.0000
 20
 345.8600
 11
 446.8600
 21
 340.0000
  0
LINE
  8
200
  6
AUSGEZOGEN
 10
 446.8600
 20
 360.0000
 11
 441.0000
 21
 354.1400
  0
LINE
  8
200
  6
AUSGEZOGEN
 10
 461.0000
 20
 354.1400
 11
 455.1400
 21
 360.0000
  0
LINE
  8
200
  6
AUSGEZOGEN
 10
 455.1400
 20
 340.0000
 11
 461.0000
 21
 345.8600
  0
LINE
  8
200
  6
AUSGEZOGEN
 10
 471.0000
 20
 345.8600
 11
 476.8600
 21
 340.0000
  0
LINE
  8
200
  6
AUSGEZOGEN
 10
 476.8600
 20
 360.0000
 11
 471.0000
 21
 354.1400
  0
LINE
  8
200
  6
AUSGEZOGEN
 10
 491.0000
 20
 354.1400
 11
 485.1400
 21
 360.0000
  0
LINE
  8
200
  6
AUSGEZOGEN
 10
 485.1400
 20
 340.0000
 11
 491.0000
 21
 345.8600
  0
LINE
  8
200
  6
AUSGEZOGEN
 10
 501.0000
 20
 345.8600
 11
 506.8600
 21
 340.0000
  0
LINE
  8
200
  6
AUSGEZOGEN
 10
 506.8600
 20
 360.0000
 11
 501.0000
 21
 354.1400
  0
LINE
  8
200
  6
AUSGEZOGEN
 10
 521.0000
 20
 354.1400
 11
 515.1400
 21
 360.0000
  0
LINE
  8
200
  6
AUSGEZOGEN
 10
 515.1400
 20
 340.0000
 11
 521.0000
 21
 345.8600
  0
LINE
  8
200
  6
AUSGEZOGEN
 10
  81.0000
 20
 345.8600
 11
  86.8600
 21
 340.0000
  0
LINE
  8
200
  6
AUSGEZOGEN
 10
  86.8600
 20
 360.0000
 11
  81.0000
 21
 354.1400
  0
LINE
  8
200
  6
AUSGEZOGEN
 10
 101.0000
 20
 354.1400
 11
  95.1400
 21
 360.0000
  0
LINE
  8
200
  6
AUSGEZOGEN
 10
  95.1400
 20
 340.0000
 11
 101.0000
 21
 345.8600
  0
LINE
  8
200
  6
AUSGEZOGEN
 10
1037.5000
 20
  80.0000
 11
  74.5000
 21
  80.0000
  0
LINE
  8
200
  6
AUSGEZOGEN
 10
1056.0000
 20
 361.5000
 11
1056.0000
 21
  98.5000
  0
LINE
  8
200
  6
AUSGEZOGEN
 10
1436.9000
 20
  89.1000
 11
1446.0000
 21
 105.9000
  0
LINE
  8
200
  6
AUSGEZOGEN
 10
1420.1000
 20
  80.0000
 11
1436.9000
 21
  89.1000
  0
LINE
  8
200
  6
AUSGEZOGEN
 10
1155.1000
 20
  89.1000
 11
1171.9000
 21
  80.0000
  0
LINE
  8
200
  6
AUSGEZOGEN
 10
1146.0000
 20
 105.9000
 11
1155.1000
 21
  89.1000
  0
LINE
  8
200
  6
AUSGEZOGEN
 10
1146.0000
 20
 554.1000
 11
1146.0000
 21
 105.9000
  0
LINE
  8
200
  6
AUSGEZOGEN
 10
1155.1000
 20
 570.9000
 11
1146.0000
 21
 554.1000
  0
LINE
  8
200
  6
AUSGEZOGEN
 10
1171.9000
 20
 580.0000
 11
1155.1000
 21
 570.9000
  0
LINE
  8
200
  6
AUSGEZOGEN
 10
1420.1000
 20
 580.0000
 11
1171.9000
 21
 580.0000
  0
LINE
  8
200
  6
AUSGEZOGEN
 10
1436.9000
 20
 570.9000
 11
1420.1000
 21
 580.0000
  0
LINE
  8
200
  6
AUSGEZOGEN
 10
1446.0000
 20
 554.1000
 11
1436.9000
 21
 570.9000
  0
CIRCLE
  8
200
  6
AUSGEZOGEN
 10
1296.0000
 20
 510.0000
 40
  40.0000
  0
LINE
  8
200
  6
AUSGEZOGEN
 10
1171.9000
 20
  80.0000
 11
1420.1000
 21
  80.0000
  0
LINE
  8
200
  6
AUSGEZOGEN
 10
1446.0000
 20
 554.1000
 11
1446.0000
 21
 105.9000
  0
LINE
  8
200
  6
AUSGEZOGEN
 10
  25.0000
 20
 675.0000
 11
1525.0000
 21
 675.0000
  0
LINE
  8
200
  6
AUSGEZOGEN
 10
1550.0000
 20
   0.0000
 11
1550.0000
 21
 700.0000
  0
LINE
  8
200
  6
AUSGEZOGEN
 10
   0.0000
 20
   0.0000
 11
1550.0000
 21
   0.0000
  0
LINE
  8
200
  6
AUSGEZOGEN
 10
1525.0000
 20
  25.0000
 11
  25.0000
 21
  25.0000
  0
LINE
  8
200
  6
AUSGEZOGEN
 10
   0.0000
 20
 700.0000
 11
   0.0000
 21
   0.0000
  0
LINE
  8
200
  6
AUSGEZOGEN
 10
1550.0000
 20
 700.0000
 11
   0.0000
 21
 700.0000
  0
LINE
  8
200
  6
AUSGEZOGEN
 10
1525.0000
 20
  25.0000
 11
1525.0000
 21
 675.0000
  0
LINE
  8
200
  6
AUSGEZOGEN
 10
  25.0000
 20
 675.0000
 11
  25.0000
 21
  25.0000
  0
TEXT
  8
400
 10
1937.5000
 20
 580.0000
 40
  45.0000
  1
EZ: 230V 50Hz, Kabellänge 2,5m mit Schukostecker 0,44kW
 50
   0.0000
 41
   0.6000
  7
STANDARD
  0
TEXT
  8
410
 10
1937.5000
 20
 460.0000
 40
  45.0000
  1
TWk: DN15
 50
   0.0000
 41
   0.6000
  7
STANDARD
  0
TEXT
  8
420
 10
1937.5000
 20
 340.0000
 40
  45.0000
  1
A: DN50 Trichterablauf, unter Boden baus. syphoniert
 50
   0.0000
 41
   0.6000
  7
STANDARD
  0
ATTDEF
  8
550
 10
10.0
 20
100.0
 30
0.0
 40
30
  1
CCO-GTM721R81-MS
  2
CCO-GTM721R81-MSD
  3
HKI-Nummer
 70
1
  0
TEXT
  8
510
 10
10.0
 20
-45.0
 30
0.0
 40
30
  1
CCO-GTM721R81-MS
 50
0.0
 41
1.0
  7
STANDARD
  0
ENDSEC
  0
EOF
