  0
SECTION
  2
HEADER
  9
$ACADVER
  1
AC1009
  9
$INSBASE
 10
   0.0000
 20
 700.0000
 30
    0.0
  9
$EXTMIN
 10
-265.0000
 20
-119.5000
 30
   0.0000
  9
$EXTMAX
 10
4903.7130
 20
 700.0000
 30
   0.0000
  9
$LTSCALE
 40
1.00
  9
$PSLTSCALE
 70
1
  0
ENDSEC
  0
SECTION
  2
TABLES
  0
TABLE
  2
LTYPE
 70
  5
  0
LTYPE
  2
AUSGEZOGEN
 70
 64
  3
AUSGEZOGEN
 72
 65
 73
  0
 40
0.0
  0
LTYPE
  2
PUNKTIERT
 70
 64
  3
Gepunktet
 72
 65
 73
  2
 40
30.0000
 49
0.0
 49
-30.0000
  0
LTYPE
  2
STRICHLIERT
 70
 64
  3
Strichliert
 72
 65
 73
  2
 40
80.0000
 49
50.0000
 49
-30.0000
  0
LTYPE
  2
STRICHPUNKT
 70
 64
  3
Strichpunktet
 72
 65
 73
  4
 40
160.0000
 49
100.0000
 49
-30.0000
 49
0.0
 49
-30.0000
  0
LTYPE
  2
STRICHPUNKTPUNKT
 70
 64
  3
Strichpunktpunktet
 72
 65
 73
  6
 40
190.0000
 49
100.0000
 49
-30.0000
 49
0.0
 49
-30.0000
 49
0.0
 49
-30.0000
  0
ENDTAB
  0
TABLE
  2
LAYER
 70
7
  0
LAYER
  2
550
 70
  0
 62
  2
  6
AUSGEZOGEN
  0
LAYER
  2
510
 70
  0
 62
  2
  6
AUSGEZOGEN
  0
LAYER
  2
0
 70
  0
 62
  1
  6
AUSGEZOGEN
  0
LAYER
  2
200
 70
  0
 62
  7
  6
AUSGEZOGEN
999
SWS-Layer-Line-Width
999
0.20
  0
LAYER
  2
400
 70
  0
 62
  4
  6
AUSGEZOGEN
999
SWS-Layer-Line-Width
999
0.30
  0
LAYER
  2
410
 70
  0
 62
  6
  6
AUSGEZOGEN
  0
LAYER
  2
420
 70
  0
 62
  2
  6
AUSGEZOGEN
  0
ENDTAB
  0
TABLE
  2
STYLE
 70
  1
  0
STYLE
  2
STANDARD
 70
 64
 40
0.0
 41
1.0
 50
0.0
 71
  0
 42
30.0
  3
TXT.SHX
  4

  0
ENDTAB
  0
ENDSEC
  0
SECTION
  2
ENTITIES
  0
LINE
  8
400
  6
AUSGEZOGEN
 10
2400.0000
 20
 600.0000
 11
3299.0000
 21
 566.5000
  0
LINE
  8
400
  6
AUSGEZOGEN
 10
4698.8300
 20
 566.5000
 11
3299.0000
 21
 566.5000
  0
LINE
  8
400
  6
AUSGEZOGEN
 10
2400.0000
 20
 525.0000
 11
2400.0000
 21
 600.0000
  0
LINE
  8
400
  6
AUSGEZOGEN
 10
2400.0000
 20
 675.0000
 11
2400.0000
 21
 600.0000
  0
LINE
  8
400
  6
AUSGEZOGEN
 10
2325.0000
 20
 600.0000
 11
2400.0000
 21
 600.0000
  0
LINE
  8
400
  6
AUSGEZOGEN
 10
2475.0000
 20
 600.0000
 11
2400.0000
 21
 600.0000
  0
CIRCLE
  8
400
  6
AUSGEZOGEN
 10
2400.0000
 20
 600.0000
 40
  50.0000
  0
LINE
  8
410
  6
AUSGEZOGEN
 10
2400.0000
 20
 450.0000
 11
3299.0000
 21
 446.5000
  0
LINE
  8
410
  6
AUSGEZOGEN
 10
3542.2600
 20
 446.5000
 11
3299.0000
 21
 446.5000
  0
LINE
  8
410
  6
AUSGEZOGEN
 10
2400.0000
 20
 375.0000
 11
2400.0000
 21
 450.0000
  0
LINE
  8
410
  6
AUSGEZOGEN
 10
2400.0000
 20
 525.0000
 11
2400.0000
 21
 450.0000
  0
LINE
  8
410
  6
AUSGEZOGEN
 10
2325.0000
 20
 450.0000
 11
2400.0000
 21
 450.0000
  0
LINE
  8
410
  6
AUSGEZOGEN
 10
2475.0000
 20
 450.0000
 11
2400.0000
 21
 450.0000
  0
CIRCLE
  8
410
  6
AUSGEZOGEN
 10
2400.0000
 20
 450.0000
 40
  50.0000
  0
LINE
  8
420
  6
AUSGEZOGEN
 10
2400.0000
 20
 350.0000
 11
3299.0000
 21
 326.5000
  0
LINE
  8
420
  6
AUSGEZOGEN
 10
4603.9300
 20
 326.5000
 11
3299.0000
 21
 326.5000
  0
LINE
  8
420
  6
AUSGEZOGEN
 10
2400.0000
 20
 275.0000
 11
2400.0000
 21
 350.0000
  0
LINE
  8
420
  6
AUSGEZOGEN
 10
2400.0000
 20
 425.0000
 11
2400.0000
 21
 350.0000
  0
LINE
  8
420
  6
AUSGEZOGEN
 10
2325.0000
 20
 350.0000
 11
2400.0000
 21
 350.0000
  0
LINE
  8
420
  6
AUSGEZOGEN
 10
2475.0000
 20
 350.0000
 11
2400.0000
 21
 350.0000
  0
CIRCLE
  8
420
  6
AUSGEZOGEN
 10
2400.0000
 20
 350.0000
 40
  50.0000
  0
LINE
  8
200
  6
AUSGEZOGEN
 10
2237.0000
 20
 571.1600
 11
2237.0000
 21
 562.8400
  0
LINE
  8
200
  6
AUSGEZOGEN
 10
2232.8400
 20
 555.1600
 11
2237.0000
 21
 562.8400
  0
LINE
  8
200
  6
AUSGEZOGEN
 10
2225.1600
 20
 551.0000
 11
2232.8400
 21
 555.1600
  0
LINE
  8
200
  6
AUSGEZOGEN
 10
2216.8400
 20
 551.0000
 11
2225.1600
 21
 551.0000
  0
LINE
  8
200
  6
AUSGEZOGEN
 10
2209.1600
 20
 555.1600
 11
2216.8400
 21
 551.0000
  0
LINE
  8
200
  6
AUSGEZOGEN
 10
2205.0000
 20
 562.8400
 11
2209.1600
 21
 555.1600
  0
LINE
  8
200
  6
AUSGEZOGEN
 10
2209.1600
 20
 578.8400
 11
2205.0000
 21
 571.1600
  0
LINE
  8
200
  6
AUSGEZOGEN
 10
2216.8400
 20
 583.0000
 11
2209.1600
 21
 578.8400
  0
LINE
  8
200
  6
AUSGEZOGEN
 10
2232.8400
 20
 578.8400
 11
2225.1600
 21
 583.0000
  0
LINE
  8
200
  6
AUSGEZOGEN
 10
2237.0000
 20
 571.1600
 11
2232.8400
 21
 578.8400
  0
LINE
  8
200
  6
AUSGEZOGEN
 10
2205.0000
 20
 562.8400
 11
2205.0000
 21
 571.1600
  0
LINE
  8
200
  6
AUSGEZOGEN
 10
2225.1600
 20
 583.0000
 11
2216.8400
 21
 583.0000
  0
LINE
  8
200
  6
AUSGEZOGEN
 10
2536.9000
 20
  89.1000
 11
2546.0000
 21
 105.9000
  0
LINE
  8
200
  6
AUSGEZOGEN
 10
2520.1000
 20
  80.0000
 11
2536.9000
 21
  89.1000
  0
LINE
  8
200
  6
AUSGEZOGEN
 10
2255.1000
 20
  89.1000
 11
2271.9000
 21
  80.0000
  0
LINE
  8
200
  6
AUSGEZOGEN
 10
2246.0000
 20
 105.9000
 11
2255.1000
 21
  89.1000
  0
LINE
  8
200
  6
AUSGEZOGEN
 10
2246.0000
 20
 554.1000
 11
2246.0000
 21
 105.9000
  0
LINE
  8
200
  6
AUSGEZOGEN
 10
2255.1000
 20
 570.9000
 11
2246.0000
 21
 554.1000
  0
LINE
  8
200
  6
AUSGEZOGEN
 10
2271.9000
 20
 580.0000
 11
2255.1000
 21
 570.9000
  0
LINE
  8
200
  6
AUSGEZOGEN
 10
2520.1000
 20
 580.0000
 11
2271.9000
 21
 580.0000
  0
LINE
  8
200
  6
AUSGEZOGEN
 10
2536.9000
 20
 570.9000
 11
2520.1000
 21
 580.0000
  0
LINE
  8
200
  6
AUSGEZOGEN
 10
2546.0000
 20
 554.1000
 11
2536.9000
 21
 570.9000
  0
CIRCLE
  8
200
  6
AUSGEZOGEN
 10
2396.0000
 20
 510.0000
 40
  40.0000
  0
LINE
  8
200
  6
AUSGEZOGEN
 10
2271.9000
 20
  80.0000
 11
2520.1000
 21
  80.0000
  0
LINE
  8
200
  6
AUSGEZOGEN
 10
2546.0000
 20
 554.1000
 11
2546.0000
 21
 105.9000
  0
LINE
  8
200
  6
AUSGEZOGEN
 10
 575.0000
 20
  25.0000
 11
 575.0000
 21
 675.0000
  0
LINE
  8
200
  6
AUSGEZOGEN
 10
2625.0000
 20
 675.0000
 11
 575.0000
 21
 675.0000
  0
LINE
  8
200
  6
AUSGEZOGEN
 10
2650.0000
 20
   0.0000
 11
2650.0000
 21
 700.0000
  0
LINE
  8
200
  6
AUSGEZOGEN
 10
   0.0000
 20
   0.0000
 11
2650.0000
 21
   0.0000
  0
LINE
  8
200
  6
AUSGEZOGEN
 10
   0.0000
 20
 700.0000
 11
   0.0000
 21
   0.0000
  0
LINE
  8
200
  6
AUSGEZOGEN
 10
2650.0000
 20
 700.0000
 11
   0.0000
 21
 700.0000
  0
LINE
  8
200
  6
AUSGEZOGEN
 10
2119.5000
 20
  86.5000
 11
2126.0000
 21
  98.5000
  0
LINE
  8
200
  6
AUSGEZOGEN
 10
2107.5000
 20
  80.0000
 11
2119.5000
 21
  86.5000
  0
LINE
  8
200
  6
AUSGEZOGEN
 10
1032.5000
 20
  86.5000
 11
1044.5000
 21
  80.0000
  0
LINE
  8
200
  6
AUSGEZOGEN
 10
1026.0000
 20
  98.5000
 11
1032.5000
 21
  86.5000
  0
LINE
  8
200
  6
AUSGEZOGEN
 10
1026.0000
 20
 361.5000
 11
1026.0000
 21
  98.5000
  0
LINE
  8
200
  6
AUSGEZOGEN
 10
1032.5000
 20
 373.5000
 11
1026.0000
 21
 361.5000
  0
LINE
  8
200
  6
AUSGEZOGEN
 10
1044.5000
 20
 380.0000
 11
1032.5000
 21
 373.5000
  0
LINE
  8
200
  6
AUSGEZOGEN
 10
2107.5000
 20
 380.0000
 11
1044.5000
 21
 380.0000
  0
LINE
  8
200
  6
AUSGEZOGEN
 10
2119.5000
 20
 373.5000
 11
2107.5000
 21
 380.0000
  0
LINE
  8
200
  6
AUSGEZOGEN
 10
2126.0000
 20
 361.5000
 11
2119.5000
 21
 373.5000
  0
LINE
  8
200
  6
AUSGEZOGEN
 10
2096.0000
 20
 345.8600
 11
2096.0000
 21
 354.1400
  0
LINE
  8
200
  6
AUSGEZOGEN
 10
2081.8600
 20
 360.0000
 11
2090.1400
 21
 360.0000
  0
LINE
  8
200
  6
AUSGEZOGEN
 10
2076.0000
 20
 345.8600
 11
2076.0000
 21
 354.1400
  0
LINE
  8
200
  6
AUSGEZOGEN
 10
2090.1400
 20
 340.0000
 11
2081.8600
 21
 340.0000
  0
LINE
  8
200
  6
AUSGEZOGEN
 10
2066.0000
 20
 354.1400
 11
2066.0000
 21
 345.8600
  0
LINE
  8
200
  6
AUSGEZOGEN
 10
2051.8600
 20
 360.0000
 11
2060.1400
 21
 360.0000
  0
LINE
  8
200
  6
AUSGEZOGEN
 10
2046.0000
 20
 345.8600
 11
2046.0000
 21
 354.1400
  0
LINE
  8
200
  6
AUSGEZOGEN
 10
2060.1400
 20
 340.0000
 11
2051.8600
 21
 340.0000
  0
LINE
  8
200
  6
AUSGEZOGEN
 10
2036.0000
 20
 354.1400
 11
2036.0000
 21
 345.8600
  0
LINE
  8
200
  6
AUSGEZOGEN
 10
2021.8600
 20
 360.0000
 11
2030.1400
 21
 360.0000
  0
LINE
  8
200
  6
AUSGEZOGEN
 10
2016.0000
 20
 345.8600
 11
2016.0000
 21
 354.1400
  0
LINE
  8
200
  6
AUSGEZOGEN
 10
2030.1400
 20
 340.0000
 11
2021.8600
 21
 340.0000
  0
LINE
  8
200
  6
AUSGEZOGEN
 10
2006.0000
 20
 354.1400
 11
2006.0000
 21
 345.8600
  0
LINE
  8
200
  6
AUSGEZOGEN
 10
1991.8600
 20
 360.0000
 11
2000.1400
 21
 360.0000
  0
LINE
  8
200
  6
AUSGEZOGEN
 10
1986.0000
 20
 345.8600
 11
1986.0000
 21
 354.1400
  0
LINE
  8
200
  6
AUSGEZOGEN
 10
2000.1400
 20
 340.0000
 11
1991.8600
 21
 340.0000
  0
LINE
  8
200
  6
AUSGEZOGEN
 10
1976.0000
 20
 354.1400
 11
1976.0000
 21
 345.8600
  0
LINE
  8
200
  6
AUSGEZOGEN
 10
1961.8600
 20
 360.0000
 11
1970.1400
 21
 360.0000
  0
LINE
  8
200
  6
AUSGEZOGEN
 10
1956.0000
 20
 345.8600
 11
1956.0000
 21
 354.1400
  0
LINE
  8
200
  6
AUSGEZOGEN
 10
1970.1400
 20
 340.0000
 11
1961.8600
 21
 340.0000
  0
LINE
  8
200
  6
AUSGEZOGEN
 10
1946.0000
 20
 354.1400
 11
1946.0000
 21
 345.8600
  0
LINE
  8
200
  6
AUSGEZOGEN
 10
1931.8600
 20
 360.0000
 11
1940.1400
 21
 360.0000
  0
LINE
  8
200
  6
AUSGEZOGEN
 10
1926.0000
 20
 345.8600
 11
1926.0000
 21
 354.1400
  0
LINE
  8
200
  6
AUSGEZOGEN
 10
1940.1400
 20
 340.0000
 11
1931.8600
 21
 340.0000
  0
LINE
  8
200
  6
AUSGEZOGEN
 10
1916.0000
 20
 354.1400
 11
1916.0000
 21
 345.8600
  0
LINE
  8
200
  6
AUSGEZOGEN
 10
1901.8600
 20
 360.0000
 11
1910.1400
 21
 360.0000
  0
LINE
  8
200
  6
AUSGEZOGEN
 10
1896.0000
 20
 345.8600
 11
1896.0000
 21
 354.1400
  0
LINE
  8
200
  6
AUSGEZOGEN
 10
1910.1400
 20
 340.0000
 11
1901.8600
 21
 340.0000
  0
LINE
  8
200
  6
AUSGEZOGEN
 10
1886.0000
 20
 354.1400
 11
1886.0000
 21
 345.8600
  0
LINE
  8
200
  6
AUSGEZOGEN
 10
1871.8600
 20
 360.0000
 11
1880.1400
 21
 360.0000
  0
LINE
  8
200
  6
AUSGEZOGEN
 10
1866.0000
 20
 345.8600
 11
1866.0000
 21
 354.1400
  0
LINE
  8
200
  6
AUSGEZOGEN
 10
1880.1400
 20
 340.0000
 11
1871.8600
 21
 340.0000
  0
LINE
  8
200
  6
AUSGEZOGEN
 10
1856.0000
 20
 354.1400
 11
1856.0000
 21
 345.8600
  0
LINE
  8
200
  6
AUSGEZOGEN
 10
1841.8600
 20
 360.0000
 11
1850.1400
 21
 360.0000
  0
LINE
  8
200
  6
AUSGEZOGEN
 10
1836.0000
 20
 345.8600
 11
1836.0000
 21
 354.1400
  0
LINE
  8
200
  6
AUSGEZOGEN
 10
1850.1400
 20
 340.0000
 11
1841.8600
 21
 340.0000
  0
LINE
  8
200
  6
AUSGEZOGEN
 10
1826.0000
 20
 354.1400
 11
1826.0000
 21
 345.8600
  0
LINE
  8
200
  6
AUSGEZOGEN
 10
1811.8600
 20
 360.0000
 11
1820.1400
 21
 360.0000
  0
LINE
  8
200
  6
AUSGEZOGEN
 10
1806.0000
 20
 345.8600
 11
1806.0000
 21
 354.1400
  0
LINE
  8
200
  6
AUSGEZOGEN
 10
1820.1400
 20
 340.0000
 11
1811.8600
 21
 340.0000
  0
LINE
  8
200
  6
AUSGEZOGEN
 10
1796.0000
 20
 354.1400
 11
1796.0000
 21
 345.8600
  0
LINE
  8
200
  6
AUSGEZOGEN
 10
1781.8600
 20
 360.0000
 11
1790.1400
 21
 360.0000
  0
LINE
  8
200
  6
AUSGEZOGEN
 10
1776.0000
 20
 345.8600
 11
1776.0000
 21
 354.1400
  0
LINE
  8
200
  6
AUSGEZOGEN
 10
1790.1400
 20
 340.0000
 11
1781.8600
 21
 340.0000
  0
LINE
  8
200
  6
AUSGEZOGEN
 10
1766.0000
 20
 354.1400
 11
1766.0000
 21
 345.8600
  0
LINE
  8
200
  6
AUSGEZOGEN
 10
1751.8600
 20
 360.0000
 11
1760.1400
 21
 360.0000
  0
LINE
  8
200
  6
AUSGEZOGEN
 10
1746.0000
 20
 345.8600
 11
1746.0000
 21
 354.1400
  0
LINE
  8
200
  6
AUSGEZOGEN
 10
1760.1400
 20
 340.0000
 11
1751.8600
 21
 340.0000
  0
LINE
  8
200
  6
AUSGEZOGEN
 10
1736.0000
 20
 354.1400
 11
1736.0000
 21
 345.8600
  0
LINE
  8
200
  6
AUSGEZOGEN
 10
1721.8600
 20
 360.0000
 11
1730.1400
 21
 360.0000
  0
LINE
  8
200
  6
AUSGEZOGEN
 10
1716.0000
 20
 345.8600
 11
1716.0000
 21
 354.1400
  0
LINE
  8
200
  6
AUSGEZOGEN
 10
1730.1400
 20
 340.0000
 11
1721.8600
 21
 340.0000
  0
LINE
  8
200
  6
AUSGEZOGEN
 10
1706.0000
 20
 354.1400
 11
1706.0000
 21
 345.8600
  0
LINE
  8
200
  6
AUSGEZOGEN
 10
1691.8600
 20
 360.0000
 11
1700.1400
 21
 360.0000
  0
LINE
  8
200
  6
AUSGEZOGEN
 10
1686.0000
 20
 345.8600
 11
1686.0000
 21
 354.1400
  0
LINE
  8
200
  6
AUSGEZOGEN
 10
1700.1400
 20
 340.0000
 11
1691.8600
 21
 340.0000
  0
LINE
  8
200
  6
AUSGEZOGEN
 10
1676.0000
 20
 354.1400
 11
1676.0000
 21
 345.8600
  0
LINE
  8
200
  6
AUSGEZOGEN
 10
1661.8600
 20
 360.0000
 11
1670.1400
 21
 360.0000
  0
LINE
  8
200
  6
AUSGEZOGEN
 10
1656.0000
 20
 345.8600
 11
1656.0000
 21
 354.1400
  0
LINE
  8
200
  6
AUSGEZOGEN
 10
1670.1400
 20
 340.0000
 11
1661.8600
 21
 340.0000
  0
LINE
  8
200
  6
AUSGEZOGEN
 10
1646.0000
 20
 354.1400
 11
1646.0000
 21
 345.8600
  0
LINE
  8
200
  6
AUSGEZOGEN
 10
1631.8600
 20
 360.0000
 11
1640.1400
 21
 360.0000
  0
LINE
  8
200
  6
AUSGEZOGEN
 10
1626.0000
 20
 345.8600
 11
1626.0000
 21
 354.1400
  0
LINE
  8
200
  6
AUSGEZOGEN
 10
1640.1400
 20
 340.0000
 11
1631.8600
 21
 340.0000
  0
LINE
  8
200
  6
AUSGEZOGEN
 10
2096.0000
 20
 315.8600
 11
2096.0000
 21
 324.1400
  0
LINE
  8
200
  6
AUSGEZOGEN
 10
2081.8600
 20
 330.0000
 11
2090.1400
 21
 330.0000
  0
LINE
  8
200
  6
AUSGEZOGEN
 10
2076.0000
 20
 315.8600
 11
2076.0000
 21
 324.1400
  0
LINE
  8
200
  6
AUSGEZOGEN
 10
2090.1400
 20
 310.0000
 11
2081.8600
 21
 310.0000
  0
LINE
  8
200
  6
AUSGEZOGEN
 10
2066.0000
 20
 324.1400
 11
2066.0000
 21
 315.8600
  0
LINE
  8
200
  6
AUSGEZOGEN
 10
2051.8600
 20
 330.0000
 11
2060.1400
 21
 330.0000
  0
LINE
  8
200
  6
AUSGEZOGEN
 10
2046.0000
 20
 315.8600
 11
2046.0000
 21
 324.1400
  0
LINE
  8
200
  6
AUSGEZOGEN
 10
2060.1400
 20
 310.0000
 11
2051.8600
 21
 310.0000
  0
LINE
  8
200
  6
AUSGEZOGEN
 10
2036.0000
 20
 324.1400
 11
2036.0000
 21
 315.8600
  0
LINE
  8
200
  6
AUSGEZOGEN
 10
2021.8600
 20
 330.0000
 11
2030.1400
 21
 330.0000
  0
LINE
  8
200
  6
AUSGEZOGEN
 10
2016.0000
 20
 315.8600
 11
2016.0000
 21
 324.1400
  0
LINE
  8
200
  6
AUSGEZOGEN
 10
2030.1400
 20
 310.0000
 11
2021.8600
 21
 310.0000
  0
LINE
  8
200
  6
AUSGEZOGEN
 10
2006.0000
 20
 324.1400
 11
2006.0000
 21
 315.8600
  0
LINE
  8
200
  6
AUSGEZOGEN
 10
1991.8600
 20
 330.0000
 11
2000.1400
 21
 330.0000
  0
LINE
  8
200
  6
AUSGEZOGEN
 10
1986.0000
 20
 315.8600
 11
1986.0000
 21
 324.1400
  0
LINE
  8
200
  6
AUSGEZOGEN
 10
2000.1400
 20
 310.0000
 11
1991.8600
 21
 310.0000
  0
LINE
  8
200
  6
AUSGEZOGEN
 10
1976.0000
 20
 324.1400
 11
1976.0000
 21
 315.8600
  0
LINE
  8
200
  6
AUSGEZOGEN
 10
1961.8600
 20
 330.0000
 11
1970.1400
 21
 330.0000
  0
LINE
  8
200
  6
AUSGEZOGEN
 10
1956.0000
 20
 315.8600
 11
1956.0000
 21
 324.1400
  0
LINE
  8
200
  6
AUSGEZOGEN
 10
1970.1400
 20
 310.0000
 11
1961.8600
 21
 310.0000
  0
LINE
  8
200
  6
AUSGEZOGEN
 10
1946.0000
 20
 324.1400
 11
1946.0000
 21
 315.8600
  0
LINE
  8
200
  6
AUSGEZOGEN
 10
1931.8600
 20
 330.0000
 11
1940.1400
 21
 330.0000
  0
LINE
  8
200
  6
AUSGEZOGEN
 10
1926.0000
 20
 315.8600
 11
1926.0000
 21
 324.1400
  0
LINE
  8
200
  6
AUSGEZOGEN
 10
1940.1400
 20
 310.0000
 11
1931.8600
 21
 310.0000
  0
LINE
  8
200
  6
AUSGEZOGEN
 10
1916.0000
 20
 324.1400
 11
1916.0000
 21
 315.8600
  0
LINE
  8
200
  6
AUSGEZOGEN
 10
1901.8600
 20
 330.0000
 11
1910.1400
 21
 330.0000
  0
LINE
  8
200
  6
AUSGEZOGEN
 10
1896.0000
 20
 315.8600
 11
1896.0000
 21
 324.1400
  0
LINE
  8
200
  6
AUSGEZOGEN
 10
1910.1400
 20
 310.0000
 11
1901.8600
 21
 310.0000
  0
LINE
  8
200
  6
AUSGEZOGEN
 10
1886.0000
 20
 324.1400
 11
1886.0000
 21
 315.8600
  0
LINE
  8
200
  6
AUSGEZOGEN
 10
1871.8600
 20
 330.0000
 11
1880.1400
 21
 330.0000
  0
LINE
  8
200
  6
AUSGEZOGEN
 10
1866.0000
 20
 315.8600
 11
1866.0000
 21
 324.1400
  0
LINE
  8
200
  6
AUSGEZOGEN
 10
1880.1400
 20
 310.0000
 11
1871.8600
 21
 310.0000
  0
LINE
  8
200
  6
AUSGEZOGEN
 10
1856.0000
 20
 324.1400
 11
1856.0000
 21
 315.8600
  0
LINE
  8
200
  6
AUSGEZOGEN
 10
1841.8600
 20
 330.0000
 11
1850.1400
 21
 330.0000
  0
LINE
  8
200
  6
AUSGEZOGEN
 10
1836.0000
 20
 315.8600
 11
1836.0000
 21
 324.1400
  0
LINE
  8
200
  6
AUSGEZOGEN
 10
1850.1400
 20
 310.0000
 11
1841.8600
 21
 310.0000
  0
LINE
  8
200
  6
AUSGEZOGEN
 10
1826.0000
 20
 324.1400
 11
1826.0000
 21
 315.8600
  0
LINE
  8
200
  6
AUSGEZOGEN
 10
1811.8600
 20
 330.0000
 11
1820.1400
 21
 330.0000
  0
LINE
  8
200
  6
AUSGEZOGEN
 10
1806.0000
 20
 315.8600
 11
1806.0000
 21
 324.1400
  0
LINE
  8
200
  6
AUSGEZOGEN
 10
1820.1400
 20
 310.0000
 11
1811.8600
 21
 310.0000
  0
LINE
  8
200
  6
AUSGEZOGEN
 10
1796.0000
 20
 324.1400
 11
1796.0000
 21
 315.8600
  0
LINE
  8
200
  6
AUSGEZOGEN
 10
1781.8600
 20
 330.0000
 11
1790.1400
 21
 330.0000
  0
LINE
  8
200
  6
AUSGEZOGEN
 10
1776.0000
 20
 315.8600
 11
1776.0000
 21
 324.1400
  0
LINE
  8
200
  6
AUSGEZOGEN
 10
1790.1400
 20
 310.0000
 11
1781.8600
 21
 310.0000
  0
LINE
  8
200
  6
AUSGEZOGEN
 10
1766.0000
 20
 324.1400
 11
1766.0000
 21
 315.8600
  0
LINE
  8
200
  6
AUSGEZOGEN
 10
1751.8600
 20
 330.0000
 11
1760.1400
 21
 330.0000
  0
LINE
  8
200
  6
AUSGEZOGEN
 10
1746.0000
 20
 315.8600
 11
1746.0000
 21
 324.1400
  0
LINE
  8
200
  6
AUSGEZOGEN
 10
1760.1400
 20
 310.0000
 11
1751.8600
 21
 310.0000
  0
LINE
  8
200
  6
AUSGEZOGEN
 10
1736.0000
 20
 324.1400
 11
1736.0000
 21
 315.8600
  0
LINE
  8
200
  6
AUSGEZOGEN
 10
1721.8600
 20
 330.0000
 11
1730.1400
 21
 330.0000
  0
LINE
  8
200
  6
AUSGEZOGEN
 10
1716.0000
 20
 315.8600
 11
1716.0000
 21
 324.1400
  0
LINE
  8
200
  6
AUSGEZOGEN
 10
1730.1400
 20
 310.0000
 11
1721.8600
 21
 310.0000
  0
LINE
  8
200
  6
AUSGEZOGEN
 10
1706.0000
 20
 324.1400
 11
1706.0000
 21
 315.8600
  0
LINE
  8
200
  6
AUSGEZOGEN
 10
1691.8600
 20
 330.0000
 11
1700.1400
 21
 330.0000
  0
LINE
  8
200
  6
AUSGEZOGEN
 10
1686.0000
 20
 315.8600
 11
1686.0000
 21
 324.1400
  0
LINE
  8
200
  6
AUSGEZOGEN
 10
1700.1400
 20
 310.0000
 11
1691.8600
 21
 310.0000
  0
LINE
  8
200
  6
AUSGEZOGEN
 10
1676.0000
 20
 324.1400
 11
1676.0000
 21
 315.8600
  0
LINE
  8
200
  6
AUSGEZOGEN
 10
1661.8600
 20
 330.0000
 11
1670.1400
 21
 330.0000
  0
LINE
  8
200
  6
AUSGEZOGEN
 10
1656.0000
 20
 315.8600
 11
1656.0000
 21
 324.1400
  0
LINE
  8
200
  6
AUSGEZOGEN
 10
1670.1400
 20
 310.0000
 11
1661.8600
 21
 310.0000
  0
LINE
  8
200
  6
AUSGEZOGEN
 10
1646.0000
 20
 324.1400
 11
1646.0000
 21
 315.8600
  0
LINE
  8
200
  6
AUSGEZOGEN
 10
1631.8600
 20
 330.0000
 11
1640.1400
 21
 330.0000
  0
LINE
  8
200
  6
AUSGEZOGEN
 10
1626.0000
 20
 315.8600
 11
1626.0000
 21
 324.1400
  0
LINE
  8
200
  6
AUSGEZOGEN
 10
1640.1400
 20
 310.0000
 11
1631.8600
 21
 310.0000
  0
LINE
  8
200
  6
AUSGEZOGEN
 10
2096.0000
 20
 285.8600
 11
2096.0000
 21
 294.1400
  0
LINE
  8
200
  6
AUSGEZOGEN
 10
2081.8600
 20
 300.0000
 11
2090.1400
 21
 300.0000
  0
LINE
  8
200
  6
AUSGEZOGEN
 10
2076.0000
 20
 285.8600
 11
2076.0000
 21
 294.1400
  0
LINE
  8
200
  6
AUSGEZOGEN
 10
2090.1400
 20
 280.0000
 11
2081.8600
 21
 280.0000
  0
LINE
  8
200
  6
AUSGEZOGEN
 10
2066.0000
 20
 294.1400
 11
2066.0000
 21
 285.8600
  0
LINE
  8
200
  6
AUSGEZOGEN
 10
2051.8600
 20
 300.0000
 11
2060.1400
 21
 300.0000
  0
LINE
  8
200
  6
AUSGEZOGEN
 10
2046.0000
 20
 285.8600
 11
2046.0000
 21
 294.1400
  0
LINE
  8
200
  6
AUSGEZOGEN
 10
2060.1400
 20
 280.0000
 11
2051.8600
 21
 280.0000
  0
LINE
  8
200
  6
AUSGEZOGEN
 10
2036.0000
 20
 294.1400
 11
2036.0000
 21
 285.8600
  0
LINE
  8
200
  6
AUSGEZOGEN
 10
2021.8600
 20
 300.0000
 11
2030.1400
 21
 300.0000
  0
LINE
  8
200
  6
AUSGEZOGEN
 10
2016.0000
 20
 285.8600
 11
2016.0000
 21
 294.1400
  0
LINE
  8
200
  6
AUSGEZOGEN
 10
2030.1400
 20
 280.0000
 11
2021.8600
 21
 280.0000
  0
LINE
  8
200
  6
AUSGEZOGEN
 10
2006.0000
 20
 294.1400
 11
2006.0000
 21
 285.8600
  0
LINE
  8
200
  6
AUSGEZOGEN
 10
1991.8600
 20
 300.0000
 11
2000.1400
 21
 300.0000
  0
LINE
  8
200
  6
AUSGEZOGEN
 10
1986.0000
 20
 285.8600
 11
1986.0000
 21
 294.1400
  0
LINE
  8
200
  6
AUSGEZOGEN
 10
2000.1400
 20
 280.0000
 11
1991.8600
 21
 280.0000
  0
LINE
  8
200
  6
AUSGEZOGEN
 10
1976.0000
 20
 294.1400
 11
1976.0000
 21
 285.8600
  0
LINE
  8
200
  6
AUSGEZOGEN
 10
1961.8600
 20
 300.0000
 11
1970.1400
 21
 300.0000
  0
LINE
  8
200
  6
AUSGEZOGEN
 10
1956.0000
 20
 285.8600
 11
1956.0000
 21
 294.1400
  0
LINE
  8
200
  6
AUSGEZOGEN
 10
1970.1400
 20
 280.0000
 11
1961.8600
 21
 280.0000
  0
LINE
  8
200
  6
AUSGEZOGEN
 10
1946.0000
 20
 294.1400
 11
1946.0000
 21
 285.8600
  0
LINE
  8
200
  6
AUSGEZOGEN
 10
1931.8600
 20
 300.0000
 11
1940.1400
 21
 300.0000
  0
LINE
  8
200
  6
AUSGEZOGEN
 10
1926.0000
 20
 285.8600
 11
1926.0000
 21
 294.1400
  0
LINE
  8
200
  6
AUSGEZOGEN
 10
1940.1400
 20
 280.0000
 11
1931.8600
 21
 280.0000
  0
LINE
  8
200
  6
AUSGEZOGEN
 10
1916.0000
 20
 294.1400
 11
1916.0000
 21
 285.8600
  0
LINE
  8
200
  6
AUSGEZOGEN
 10
1901.8600
 20
 300.0000
 11
1910.1400
 21
 300.0000
  0
LINE
  8
200
  6
AUSGEZOGEN
 10
1896.0000
 20
 285.8600
 11
1896.0000
 21
 294.1400
  0
LINE
  8
200
  6
AUSGEZOGEN
 10
1910.1400
 20
 280.0000
 11
1901.8600
 21
 280.0000
  0
LINE
  8
200
  6
AUSGEZOGEN
 10
1886.0000
 20
 294.1400
 11
1886.0000
 21
 285.8600
  0
LINE
  8
200
  6
AUSGEZOGEN
 10
1871.8600
 20
 300.0000
 11
1880.1400
 21
 300.0000
  0
LINE
  8
200
  6
AUSGEZOGEN
 10
1866.0000
 20
 285.8600
 11
1866.0000
 21
 294.1400
  0
LINE
  8
200
  6
AUSGEZOGEN
 10
1880.1400
 20
 280.0000
 11
1871.8600
 21
 280.0000
  0
LINE
  8
200
  6
AUSGEZOGEN
 10
1856.0000
 20
 294.1400
 11
1856.0000
 21
 285.8600
  0
LINE
  8
200
  6
AUSGEZOGEN
 10
1841.8600
 20
 300.0000
 11
1850.1400
 21
 300.0000
  0
LINE
  8
200
  6
AUSGEZOGEN
 10
1836.0000
 20
 285.8600
 11
1836.0000
 21
 294.1400
  0
LINE
  8
200
  6
AUSGEZOGEN
 10
1850.1400
 20
 280.0000
 11
1841.8600
 21
 280.0000
  0
LINE
  8
200
  6
AUSGEZOGEN
 10
1826.0000
 20
 294.1400
 11
1826.0000
 21
 285.8600
  0
LINE
  8
200
  6
AUSGEZOGEN
 10
1811.8600
 20
 300.0000
 11
1820.1400
 21
 300.0000
  0
LINE
  8
200
  6
AUSGEZOGEN
 10
1806.0000
 20
 285.8600
 11
1806.0000
 21
 294.1400
  0
LINE
  8
200
  6
AUSGEZOGEN
 10
1820.1400
 20
 280.0000
 11
1811.8600
 21
 280.0000
  0
LINE
  8
200
  6
AUSGEZOGEN
 10
1796.0000
 20
 294.1400
 11
1796.0000
 21
 285.8600
  0
LINE
  8
200
  6
AUSGEZOGEN
 10
1781.8600
 20
 300.0000
 11
1790.1400
 21
 300.0000
  0
LINE
  8
200
  6
AUSGEZOGEN
 10
1776.0000
 20
 285.8600
 11
1776.0000
 21
 294.1400
  0
LINE
  8
200
  6
AUSGEZOGEN
 10
1790.1400
 20
 280.0000
 11
1781.8600
 21
 280.0000
  0
LINE
  8
200
  6
AUSGEZOGEN
 10
1766.0000
 20
 294.1400
 11
1766.0000
 21
 285.8600
  0
LINE
  8
200
  6
AUSGEZOGEN
 10
1751.8600
 20
 300.0000
 11
1760.1400
 21
 300.0000
  0
LINE
  8
200
  6
AUSGEZOGEN
 10
1746.0000
 20
 285.8600
 11
1746.0000
 21
 294.1400
  0
LINE
  8
200
  6
AUSGEZOGEN
 10
1760.1400
 20
 280.0000
 11
1751.8600
 21
 280.0000
  0
LINE
  8
200
  6
AUSGEZOGEN
 10
1736.0000
 20
 294.1400
 11
1736.0000
 21
 285.8600
  0
LINE
  8
200
  6
AUSGEZOGEN
 10
1721.8600
 20
 300.0000
 11
1730.1400
 21
 300.0000
  0
LINE
  8
200
  6
AUSGEZOGEN
 10
1716.0000
 20
 285.8600
 11
1716.0000
 21
 294.1400
  0
LINE
  8
200
  6
AUSGEZOGEN
 10
1730.1400
 20
 280.0000
 11
1721.8600
 21
 280.0000
  0
LINE
  8
200
  6
AUSGEZOGEN
 10
1706.0000
 20
 294.1400
 11
1706.0000
 21
 285.8600
  0
LINE
  8
200
  6
AUSGEZOGEN
 10
1691.8600
 20
 300.0000
 11
1700.1400
 21
 300.0000
  0
LINE
  8
200
  6
AUSGEZOGEN
 10
1686.0000
 20
 285.8600
 11
1686.0000
 21
 294.1400
  0
LINE
  8
200
  6
AUSGEZOGEN
 10
1700.1400
 20
 280.0000
 11
1691.8600
 21
 280.0000
  0
LINE
  8
200
  6
AUSGEZOGEN
 10
1676.0000
 20
 294.1400
 11
1676.0000
 21
 285.8600
  0
LINE
  8
200
  6
AUSGEZOGEN
 10
1661.8600
 20
 300.0000
 11
1670.1400
 21
 300.0000
  0
LINE
  8
200
  6
AUSGEZOGEN
 10
1656.0000
 20
 285.8600
 11
1656.0000
 21
 294.1400
  0
LINE
  8
200
  6
AUSGEZOGEN
 10
1670.1400
 20
 280.0000
 11
1661.8600
 21
 280.0000
  0
LINE
  8
200
  6
AUSGEZOGEN
 10
1646.0000
 20
 294.1400
 11
1646.0000
 21
 285.8600
  0
LINE
  8
200
  6
AUSGEZOGEN
 10
1631.8600
 20
 300.0000
 11
1640.1400
 21
 300.0000
  0
LINE
  8
200
  6
AUSGEZOGEN
 10
1626.0000
 20
 285.8600
 11
1626.0000
 21
 294.1400
  0
LINE
  8
200
  6
AUSGEZOGEN
 10
1640.1400
 20
 280.0000
 11
1631.8600
 21
 280.0000
  0
LINE
  8
200
  6
AUSGEZOGEN
 10
2096.0000
 20
 105.8600
 11
2096.0000
 21
 114.1400
  0
LINE
  8
200
  6
AUSGEZOGEN
 10
2081.8600
 20
 120.0000
 11
2090.1400
 21
 120.0000
  0
LINE
  8
200
  6
AUSGEZOGEN
 10
2076.0000
 20
 105.8600
 11
2076.0000
 21
 114.1400
  0
LINE
  8
200
  6
AUSGEZOGEN
 10
2090.1400
 20
 100.0000
 11
2081.8600
 21
 100.0000
  0
LINE
  8
200
  6
AUSGEZOGEN
 10
2066.0000
 20
 114.1400
 11
2066.0000
 21
 105.8600
  0
LINE
  8
200
  6
AUSGEZOGEN
 10
2051.8600
 20
 120.0000
 11
2060.1400
 21
 120.0000
  0
LINE
  8
200
  6
AUSGEZOGEN
 10
2046.0000
 20
 105.8600
 11
2046.0000
 21
 114.1400
  0
LINE
  8
200
  6
AUSGEZOGEN
 10
2060.1400
 20
 100.0000
 11
2051.8600
 21
 100.0000
  0
LINE
  8
200
  6
AUSGEZOGEN
 10
2036.0000
 20
 114.1400
 11
2036.0000
 21
 105.8600
  0
LINE
  8
200
  6
AUSGEZOGEN
 10
2021.8600
 20
 120.0000
 11
2030.1400
 21
 120.0000
  0
LINE
  8
200
  6
AUSGEZOGEN
 10
2016.0000
 20
 105.8600
 11
2016.0000
 21
 114.1400
  0
LINE
  8
200
  6
AUSGEZOGEN
 10
2030.1400
 20
 100.0000
 11
2021.8600
 21
 100.0000
  0
LINE
  8
200
  6
AUSGEZOGEN
 10
2006.0000
 20
 114.1400
 11
2006.0000
 21
 105.8600
  0
LINE
  8
200
  6
AUSGEZOGEN
 10
1991.8600
 20
 120.0000
 11
2000.1400
 21
 120.0000
  0
LINE
  8
200
  6
AUSGEZOGEN
 10
1986.0000
 20
 105.8600
 11
1986.0000
 21
 114.1400
  0
LINE
  8
200
  6
AUSGEZOGEN
 10
2000.1400
 20
 100.0000
 11
1991.8600
 21
 100.0000
  0
LINE
  8
200
  6
AUSGEZOGEN
 10
1976.0000
 20
 114.1400
 11
1976.0000
 21
 105.8600
  0
LINE
  8
200
  6
AUSGEZOGEN
 10
1961.8600
 20
 120.0000
 11
1970.1400
 21
 120.0000
  0
LINE
  8
200
  6
AUSGEZOGEN
 10
1956.0000
 20
 105.8600
 11
1956.0000
 21
 114.1400
  0
LINE
  8
200
  6
AUSGEZOGEN
 10
1970.1400
 20
 100.0000
 11
1961.8600
 21
 100.0000
  0
LINE
  8
200
  6
AUSGEZOGEN
 10
1946.0000
 20
 114.1400
 11
1946.0000
 21
 105.8600
  0
LINE
  8
200
  6
AUSGEZOGEN
 10
1931.8600
 20
 120.0000
 11
1940.1400
 21
 120.0000
  0
LINE
  8
200
  6
AUSGEZOGEN
 10
1926.0000
 20
 105.8600
 11
1926.0000
 21
 114.1400
  0
LINE
  8
200
  6
AUSGEZOGEN
 10
1940.1400
 20
 100.0000
 11
1931.8600
 21
 100.0000
  0
LINE
  8
200
  6
AUSGEZOGEN
 10
1916.0000
 20
 114.1400
 11
1916.0000
 21
 105.8600
  0
LINE
  8
200
  6
AUSGEZOGEN
 10
1901.8600
 20
 120.0000
 11
1910.1400
 21
 120.0000
  0
LINE
  8
200
  6
AUSGEZOGEN
 10
1896.0000
 20
 105.8600
 11
1896.0000
 21
 114.1400
  0
LINE
  8
200
  6
AUSGEZOGEN
 10
1910.1400
 20
 100.0000
 11
1901.8600
 21
 100.0000
  0
LINE
  8
200
  6
AUSGEZOGEN
 10
1886.0000
 20
 114.1400
 11
1886.0000
 21
 105.8600
  0
LINE
  8
200
  6
AUSGEZOGEN
 10
1871.8600
 20
 120.0000
 11
1880.1400
 21
 120.0000
  0
LINE
  8
200
  6
AUSGEZOGEN
 10
1866.0000
 20
 105.8600
 11
1866.0000
 21
 114.1400
  0
LINE
  8
200
  6
AUSGEZOGEN
 10
1880.1400
 20
 100.0000
 11
1871.8600
 21
 100.0000
  0
LINE
  8
200
  6
AUSGEZOGEN
 10
1856.0000
 20
 114.1400
 11
1856.0000
 21
 105.8600
  0
LINE
  8
200
  6
AUSGEZOGEN
 10
1841.8600
 20
 120.0000
 11
1850.1400
 21
 120.0000
  0
LINE
  8
200
  6
AUSGEZOGEN
 10
1836.0000
 20
 105.8600
 11
1836.0000
 21
 114.1400
  0
LINE
  8
200
  6
AUSGEZOGEN
 10
1850.1400
 20
 100.0000
 11
1841.8600
 21
 100.0000
  0
LINE
  8
200
  6
AUSGEZOGEN
 10
1826.0000
 20
 114.1400
 11
1826.0000
 21
 105.8600
  0
LINE
  8
200
  6
AUSGEZOGEN
 10
1811.8600
 20
 120.0000
 11
1820.1400
 21
 120.0000
  0
LINE
  8
200
  6
AUSGEZOGEN
 10
1806.0000
 20
 105.8600
 11
1806.0000
 21
 114.1400
  0
LINE
  8
200
  6
AUSGEZOGEN
 10
1820.1400
 20
 100.0000
 11
1811.8600
 21
 100.0000
  0
LINE
  8
200
  6
AUSGEZOGEN
 10
1796.0000
 20
 114.1400
 11
1796.0000
 21
 105.8600
  0
LINE
  8
200
  6
AUSGEZOGEN
 10
1781.8600
 20
 120.0000
 11
1790.1400
 21
 120.0000
  0
LINE
  8
200
  6
AUSGEZOGEN
 10
1776.0000
 20
 105.8600
 11
1776.0000
 21
 114.1400
  0
LINE
  8
200
  6
AUSGEZOGEN
 10
1790.1400
 20
 100.0000
 11
1781.8600
 21
 100.0000
  0
LINE
  8
200
  6
AUSGEZOGEN
 10
1766.0000
 20
 114.1400
 11
1766.0000
 21
 105.8600
  0
LINE
  8
200
  6
AUSGEZOGEN
 10
1751.8600
 20
 120.0000
 11
1760.1400
 21
 120.0000
  0
LINE
  8
200
  6
AUSGEZOGEN
 10
1746.0000
 20
 105.8600
 11
1746.0000
 21
 114.1400
  0
LINE
  8
200
  6
AUSGEZOGEN
 10
1760.1400
 20
 100.0000
 11
1751.8600
 21
 100.0000
  0
LINE
  8
200
  6
AUSGEZOGEN
 10
1736.0000
 20
 114.1400
 11
1736.0000
 21
 105.8600
  0
LINE
  8
200
  6
AUSGEZOGEN
 10
1721.8600
 20
 120.0000
 11
1730.1400
 21
 120.0000
  0
LINE
  8
200
  6
AUSGEZOGEN
 10
1716.0000
 20
 105.8600
 11
1716.0000
 21
 114.1400
  0
LINE
  8
200
  6
AUSGEZOGEN
 10
1730.1400
 20
 100.0000
 11
1721.8600
 21
 100.0000
  0
LINE
  8
200
  6
AUSGEZOGEN
 10
1706.0000
 20
 114.1400
 11
1706.0000
 21
 105.8600
  0
LINE
  8
200
  6
AUSGEZOGEN
 10
1691.8600
 20
 120.0000
 11
1700.1400
 21
 120.0000
  0
LINE
  8
200
  6
AUSGEZOGEN
 10
1686.0000
 20
 105.8600
 11
1686.0000
 21
 114.1400
  0
LINE
  8
200
  6
AUSGEZOGEN
 10
1700.1400
 20
 100.0000
 11
1691.8600
 21
 100.0000
  0
LINE
  8
200
  6
AUSGEZOGEN
 10
1676.0000
 20
 114.1400
 11
1676.0000
 21
 105.8600
  0
LINE
  8
200
  6
AUSGEZOGEN
 10
1661.8600
 20
 120.0000
 11
1670.1400
 21
 120.0000
  0
LINE
  8
200
  6
AUSGEZOGEN
 10
1656.0000
 20
 105.8600
 11
1656.0000
 21
 114.1400
  0
LINE
  8
200
  6
AUSGEZOGEN
 10
1670.1400
 20
 100.0000
 11
1661.8600
 21
 100.0000
  0
LINE
  8
200
  6
AUSGEZOGEN
 10
1646.0000
 20
 114.1400
 11
1646.0000
 21
 105.8600
  0
LINE
  8
200
  6
AUSGEZOGEN
 10
1631.8600
 20
 120.0000
 11
1640.1400
 21
 120.0000
  0
LINE
  8
200
  6
AUSGEZOGEN
 10
1626.0000
 20
 105.8600
 11
1626.0000
 21
 114.1400
  0
LINE
  8
200
  6
AUSGEZOGEN
 10
1640.1400
 20
 100.0000
 11
1631.8600
 21
 100.0000
  0
LINE
  8
200
  6
AUSGEZOGEN
 10
2096.0000
 20
 144.1400
 11
2096.0000
 21
 135.8600
  0
LINE
  8
200
  6
AUSGEZOGEN
 10
2081.8600
 20
 150.0000
 11
2090.1400
 21
 150.0000
  0
LINE
  8
200
  6
AUSGEZOGEN
 10
2076.0000
 20
 135.8600
 11
2076.0000
 21
 144.1400
  0
LINE
  8
200
  6
AUSGEZOGEN
 10
2090.1400
 20
 130.0000
 11
2081.8600
 21
 130.0000
  0
LINE
  8
200
  6
AUSGEZOGEN
 10
2066.0000
 20
 144.1400
 11
2066.0000
 21
 135.8600
  0
LINE
  8
200
  6
AUSGEZOGEN
 10
2051.8600
 20
 150.0000
 11
2060.1400
 21
 150.0000
  0
LINE
  8
200
  6
AUSGEZOGEN
 10
2046.0000
 20
 135.8600
 11
2046.0000
 21
 144.1400
  0
LINE
  8
200
  6
AUSGEZOGEN
 10
2060.1400
 20
 130.0000
 11
2051.8600
 21
 130.0000
  0
LINE
  8
200
  6
AUSGEZOGEN
 10
2036.0000
 20
 144.1400
 11
2036.0000
 21
 135.8600
  0
LINE
  8
200
  6
AUSGEZOGEN
 10
2021.8600
 20
 150.0000
 11
2030.1400
 21
 150.0000
  0
LINE
  8
200
  6
AUSGEZOGEN
 10
2016.0000
 20
 135.8600
 11
2016.0000
 21
 144.1400
  0
LINE
  8
200
  6
AUSGEZOGEN
 10
2030.1400
 20
 130.0000
 11
2021.8600
 21
 130.0000
  0
LINE
  8
200
  6
AUSGEZOGEN
 10
2006.0000
 20
 144.1400
 11
2006.0000
 21
 135.8600
  0
LINE
  8
200
  6
AUSGEZOGEN
 10
1991.8600
 20
 150.0000
 11
2000.1400
 21
 150.0000
  0
LINE
  8
200
  6
AUSGEZOGEN
 10
1986.0000
 20
 135.8600
 11
1986.0000
 21
 144.1400
  0
LINE
  8
200
  6
AUSGEZOGEN
 10
2000.1400
 20
 130.0000
 11
1991.8600
 21
 130.0000
  0
LINE
  8
200
  6
AUSGEZOGEN
 10
1976.0000
 20
 144.1400
 11
1976.0000
 21
 135.8600
  0
LINE
  8
200
  6
AUSGEZOGEN
 10
1961.8600
 20
 150.0000
 11
1970.1400
 21
 150.0000
  0
LINE
  8
200
  6
AUSGEZOGEN
 10
1956.0000
 20
 135.8600
 11
1956.0000
 21
 144.1400
  0
LINE
  8
200
  6
AUSGEZOGEN
 10
1970.1400
 20
 130.0000
 11
1961.8600
 21
 130.0000
  0
LINE
  8
200
  6
AUSGEZOGEN
 10
1946.0000
 20
 144.1400
 11
1946.0000
 21
 135.8600
  0
LINE
  8
200
  6
AUSGEZOGEN
 10
1931.8600
 20
 150.0000
 11
1940.1400
 21
 150.0000
  0
LINE
  8
200
  6
AUSGEZOGEN
 10
1926.0000
 20
 135.8600
 11
1926.0000
 21
 144.1400
  0
LINE
  8
200
  6
AUSGEZOGEN
 10
1940.1400
 20
 130.0000
 11
1931.8600
 21
 130.0000
  0
LINE
  8
200
  6
AUSGEZOGEN
 10
1916.0000
 20
 144.1400
 11
1916.0000
 21
 135.8600
  0
LINE
  8
200
  6
AUSGEZOGEN
 10
1901.8600
 20
 150.0000
 11
1910.1400
 21
 150.0000
  0
LINE
  8
200
  6
AUSGEZOGEN
 10
1896.0000
 20
 135.8600
 11
1896.0000
 21
 144.1400
  0
LINE
  8
200
  6
AUSGEZOGEN
 10
1910.1400
 20
 130.0000
 11
1901.8600
 21
 130.0000
  0
LINE
  8
200
  6
AUSGEZOGEN
 10
1886.0000
 20
 144.1400
 11
1886.0000
 21
 135.8600
  0
LINE
  8
200
  6
AUSGEZOGEN
 10
1871.8600
 20
 150.0000
 11
1880.1400
 21
 150.0000
  0
LINE
  8
200
  6
AUSGEZOGEN
 10
1866.0000
 20
 135.8600
 11
1866.0000
 21
 144.1400
  0
LINE
  8
200
  6
AUSGEZOGEN
 10
1880.1400
 20
 130.0000
 11
1871.8600
 21
 130.0000
  0
LINE
  8
200
  6
AUSGEZOGEN
 10
1856.0000
 20
 144.1400
 11
1856.0000
 21
 135.8600
  0
LINE
  8
200
  6
AUSGEZOGEN
 10
1841.8600
 20
 150.0000
 11
1850.1400
 21
 150.0000
  0
LINE
  8
200
  6
AUSGEZOGEN
 10
1836.0000
 20
 135.8600
 11
1836.0000
 21
 144.1400
  0
LINE
  8
200
  6
AUSGEZOGEN
 10
1850.1400
 20
 130.0000
 11
1841.8600
 21
 130.0000
  0
LINE
  8
200
  6
AUSGEZOGEN
 10
1826.0000
 20
 144.1400
 11
1826.0000
 21
 135.8600
  0
LINE
  8
200
  6
AUSGEZOGEN
 10
1811.8600
 20
 150.0000
 11
1820.1400
 21
 150.0000
  0
LINE
  8
200
  6
AUSGEZOGEN
 10
1806.0000
 20
 135.8600
 11
1806.0000
 21
 144.1400
  0
LINE
  8
200
  6
AUSGEZOGEN
 10
1820.1400
 20
 130.0000
 11
1811.8600
 21
 130.0000
  0
LINE
  8
200
  6
AUSGEZOGEN
 10
1796.0000
 20
 144.1400
 11
1796.0000
 21
 135.8600
  0
LINE
  8
200
  6
AUSGEZOGEN
 10
1781.8600
 20
 150.0000
 11
1790.1400
 21
 150.0000
  0
LINE
  8
200
  6
AUSGEZOGEN
 10
1776.0000
 20
 135.8600
 11
1776.0000
 21
 144.1400
  0
LINE
  8
200
  6
AUSGEZOGEN
 10
1790.1400
 20
 130.0000
 11
1781.8600
 21
 130.0000
  0
LINE
  8
200
  6
AUSGEZOGEN
 10
1766.0000
 20
 144.1400
 11
1766.0000
 21
 135.8600
  0
LINE
  8
200
  6
AUSGEZOGEN
 10
1751.8600
 20
 150.0000
 11
1760.1400
 21
 150.0000
  0
LINE
  8
200
  6
AUSGEZOGEN
 10
1746.0000
 20
 135.8600
 11
1746.0000
 21
 144.1400
  0
LINE
  8
200
  6
AUSGEZOGEN
 10
1760.1400
 20
 130.0000
 11
1751.8600
 21
 130.0000
  0
LINE
  8
200
  6
AUSGEZOGEN
 10
1736.0000
 20
 144.1400
 11
1736.0000
 21
 135.8600
  0
LINE
  8
200
  6
AUSGEZOGEN
 10
1721.8600
 20
 150.0000
 11
1730.1400
 21
 150.0000
  0
LINE
  8
200
  6
AUSGEZOGEN
 10
1716.0000
 20
 135.8600
 11
1716.0000
 21
 144.1400
  0
LINE
  8
200
  6
AUSGEZOGEN
 10
1730.1400
 20
 130.0000
 11
1721.8600
 21
 130.0000
  0
LINE
  8
200
  6
AUSGEZOGEN
 10
1706.0000
 20
 144.1400
 11
1706.0000
 21
 135.8600
  0
LINE
  8
200
  6
AUSGEZOGEN
 10
1691.8600
 20
 150.0000
 11
1700.1400
 21
 150.0000
  0
LINE
  8
200
  6
AUSGEZOGEN
 10
1686.0000
 20
 135.8600
 11
1686.0000
 21
 144.1400
  0
LINE
  8
200
  6
AUSGEZOGEN
 10
1700.1400
 20
 130.0000
 11
1691.8600
 21
 130.0000
  0
LINE
  8
200
  6
AUSGEZOGEN
 10
1676.0000
 20
 144.1400
 11
1676.0000
 21
 135.8600
  0
LINE
  8
200
  6
AUSGEZOGEN
 10
1661.8600
 20
 150.0000
 11
1670.1400
 21
 150.0000
  0
LINE
  8
200
  6
AUSGEZOGEN
 10
1656.0000
 20
 135.8600
 11
1656.0000
 21
 144.1400
  0
LINE
  8
200
  6
AUSGEZOGEN
 10
1670.1400
 20
 130.0000
 11
1661.8600
 21
 130.0000
  0
LINE
  8
200
  6
AUSGEZOGEN
 10
1646.0000
 20
 144.1400
 11
1646.0000
 21
 135.8600
  0
LINE
  8
200
  6
AUSGEZOGEN
 10
1631.8600
 20
 150.0000
 11
1640.1400
 21
 150.0000
  0
LINE
  8
200
  6
AUSGEZOGEN
 10
1626.0000
 20
 135.8600
 11
1626.0000
 21
 144.1400
  0
LINE
  8
200
  6
AUSGEZOGEN
 10
1640.1400
 20
 130.0000
 11
1631.8600
 21
 130.0000
  0
LINE
  8
200
  6
AUSGEZOGEN
 10
2096.0000
 20
 174.1400
 11
2096.0000
 21
 165.8600
  0
LINE
  8
200
  6
AUSGEZOGEN
 10
2081.8600
 20
 180.0000
 11
2090.1400
 21
 180.0000
  0
LINE
  8
200
  6
AUSGEZOGEN
 10
2076.0000
 20
 165.8600
 11
2076.0000
 21
 174.1400
  0
LINE
  8
200
  6
AUSGEZOGEN
 10
2090.1400
 20
 160.0000
 11
2081.8600
 21
 160.0000
  0
LINE
  8
200
  6
AUSGEZOGEN
 10
2066.0000
 20
 174.1400
 11
2066.0000
 21
 165.8600
  0
LINE
  8
200
  6
AUSGEZOGEN
 10
2051.8600
 20
 180.0000
 11
2060.1400
 21
 180.0000
  0
LINE
  8
200
  6
AUSGEZOGEN
 10
2046.0000
 20
 165.8600
 11
2046.0000
 21
 174.1400
  0
LINE
  8
200
  6
AUSGEZOGEN
 10
2060.1400
 20
 160.0000
 11
2051.8600
 21
 160.0000
  0
LINE
  8
200
  6
AUSGEZOGEN
 10
2036.0000
 20
 174.1400
 11
2036.0000
 21
 165.8600
  0
LINE
  8
200
  6
AUSGEZOGEN
 10
2021.8600
 20
 180.0000
 11
2030.1400
 21
 180.0000
  0
LINE
  8
200
  6
AUSGEZOGEN
 10
2016.0000
 20
 165.8600
 11
2016.0000
 21
 174.1400
  0
LINE
  8
200
  6
AUSGEZOGEN
 10
2030.1400
 20
 160.0000
 11
2021.8600
 21
 160.0000
  0
LINE
  8
200
  6
AUSGEZOGEN
 10
2006.0000
 20
 174.1400
 11
2006.0000
 21
 165.8600
  0
LINE
  8
200
  6
AUSGEZOGEN
 10
1991.8600
 20
 180.0000
 11
2000.1400
 21
 180.0000
  0
LINE
  8
200
  6
AUSGEZOGEN
 10
1986.0000
 20
 165.8600
 11
1986.0000
 21
 174.1400
  0
LINE
  8
200
  6
AUSGEZOGEN
 10
2000.1400
 20
 160.0000
 11
1991.8600
 21
 160.0000
  0
LINE
  8
200
  6
AUSGEZOGEN
 10
1976.0000
 20
 174.1400
 11
1976.0000
 21
 165.8600
  0
LINE
  8
200
  6
AUSGEZOGEN
 10
1961.8600
 20
 180.0000
 11
1970.1400
 21
 180.0000
  0
LINE
  8
200
  6
AUSGEZOGEN
 10
1956.0000
 20
 165.8600
 11
1956.0000
 21
 174.1400
  0
LINE
  8
200
  6
AUSGEZOGEN
 10
1970.1400
 20
 160.0000
 11
1961.8600
 21
 160.0000
  0
LINE
  8
200
  6
AUSGEZOGEN
 10
1946.0000
 20
 174.1400
 11
1946.0000
 21
 165.8600
  0
LINE
  8
200
  6
AUSGEZOGEN
 10
1931.8600
 20
 180.0000
 11
1940.1400
 21
 180.0000
  0
LINE
  8
200
  6
AUSGEZOGEN
 10
1926.0000
 20
 165.8600
 11
1926.0000
 21
 174.1400
  0
LINE
  8
200
  6
AUSGEZOGEN
 10
1940.1400
 20
 160.0000
 11
1931.8600
 21
 160.0000
  0
LINE
  8
200
  6
AUSGEZOGEN
 10
1916.0000
 20
 174.1400
 11
1916.0000
 21
 165.8600
  0
LINE
  8
200
  6
AUSGEZOGEN
 10
1901.8600
 20
 180.0000
 11
1910.1400
 21
 180.0000
  0
LINE
  8
200
  6
AUSGEZOGEN
 10
1896.0000
 20
 165.8600
 11
1896.0000
 21
 174.1400
  0
LINE
  8
200
  6
AUSGEZOGEN
 10
1910.1400
 20
 160.0000
 11
1901.8600
 21
 160.0000
  0
LINE
  8
200
  6
AUSGEZOGEN
 10
1886.0000
 20
 174.1400
 11
1886.0000
 21
 165.8600
  0
LINE
  8
200
  6
AUSGEZOGEN
 10
1871.8600
 20
 180.0000
 11
1880.1400
 21
 180.0000
  0
LINE
  8
200
  6
AUSGEZOGEN
 10
1866.0000
 20
 165.8600
 11
1866.0000
 21
 174.1400
  0
LINE
  8
200
  6
AUSGEZOGEN
 10
1880.1400
 20
 160.0000
 11
1871.8600
 21
 160.0000
  0
LINE
  8
200
  6
AUSGEZOGEN
 10
1856.0000
 20
 174.1400
 11
1856.0000
 21
 165.8600
  0
LINE
  8
200
  6
AUSGEZOGEN
 10
1841.8600
 20
 180.0000
 11
1850.1400
 21
 180.0000
  0
LINE
  8
200
  6
AUSGEZOGEN
 10
1836.0000
 20
 165.8600
 11
1836.0000
 21
 174.1400
  0
LINE
  8
200
  6
AUSGEZOGEN
 10
1850.1400
 20
 160.0000
 11
1841.8600
 21
 160.0000
  0
LINE
  8
200
  6
AUSGEZOGEN
 10
1826.0000
 20
 174.1400
 11
1826.0000
 21
 165.8600
  0
LINE
  8
200
  6
AUSGEZOGEN
 10
1811.8600
 20
 180.0000
 11
1820.1400
 21
 180.0000
  0
LINE
  8
200
  6
AUSGEZOGEN
 10
1806.0000
 20
 165.8600
 11
1806.0000
 21
 174.1400
  0
LINE
  8
200
  6
AUSGEZOGEN
 10
1820.1400
 20
 160.0000
 11
1811.8600
 21
 160.0000
  0
LINE
  8
200
  6
AUSGEZOGEN
 10
1796.0000
 20
 174.1400
 11
1796.0000
 21
 165.8600
  0
LINE
  8
200
  6
AUSGEZOGEN
 10
1781.8600
 20
 180.0000
 11
1790.1400
 21
 180.0000
  0
LINE
  8
200
  6
AUSGEZOGEN
 10
1776.0000
 20
 165.8600
 11
1776.0000
 21
 174.1400
  0
LINE
  8
200
  6
AUSGEZOGEN
 10
1790.1400
 20
 160.0000
 11
1781.8600
 21
 160.0000
  0
LINE
  8
200
  6
AUSGEZOGEN
 10
1766.0000
 20
 174.1400
 11
1766.0000
 21
 165.8600
  0
LINE
  8
200
  6
AUSGEZOGEN
 10
1751.8600
 20
 180.0000
 11
1760.1400
 21
 180.0000
  0
LINE
  8
200
  6
AUSGEZOGEN
 10
1746.0000
 20
 165.8600
 11
1746.0000
 21
 174.1400
  0
LINE
  8
200
  6
AUSGEZOGEN
 10
1760.1400
 20
 160.0000
 11
1751.8600
 21
 160.0000
  0
LINE
  8
200
  6
AUSGEZOGEN
 10
1736.0000
 20
 174.1400
 11
1736.0000
 21
 165.8600
  0
LINE
  8
200
  6
AUSGEZOGEN
 10
1721.8600
 20
 180.0000
 11
1730.1400
 21
 180.0000
  0
LINE
  8
200
  6
AUSGEZOGEN
 10
1716.0000
 20
 165.8600
 11
1716.0000
 21
 174.1400
  0
LINE
  8
200
  6
AUSGEZOGEN
 10
1730.1400
 20
 160.0000
 11
1721.8600
 21
 160.0000
  0
LINE
  8
200
  6
AUSGEZOGEN
 10
1706.0000
 20
 174.1400
 11
1706.0000
 21
 165.8600
  0
LINE
  8
200
  6
AUSGEZOGEN
 10
1691.8600
 20
 180.0000
 11
1700.1400
 21
 180.0000
  0
LINE
  8
200
  6
AUSGEZOGEN
 10
1686.0000
 20
 165.8600
 11
1686.0000
 21
 174.1400
  0
LINE
  8
200
  6
AUSGEZOGEN
 10
1700.1400
 20
 160.0000
 11
1691.8600
 21
 160.0000
  0
LINE
  8
200
  6
AUSGEZOGEN
 10
1676.0000
 20
 174.1400
 11
1676.0000
 21
 165.8600
  0
LINE
  8
200
  6
AUSGEZOGEN
 10
1661.8600
 20
 180.0000
 11
1670.1400
 21
 180.0000
  0
LINE
  8
200
  6
AUSGEZOGEN
 10
1656.0000
 20
 165.8600
 11
1656.0000
 21
 174.1400
  0
LINE
  8
200
  6
AUSGEZOGEN
 10
1670.1400
 20
 160.0000
 11
1661.8600
 21
 160.0000
  0
LINE
  8
200
  6
AUSGEZOGEN
 10
1646.0000
 20
 174.1400
 11
1646.0000
 21
 165.8600
  0
LINE
  8
200
  6
AUSGEZOGEN
 10
1631.8600
 20
 180.0000
 11
1640.1400
 21
 180.0000
  0
LINE
  8
200
  6
AUSGEZOGEN
 10
1626.0000
 20
 165.8600
 11
1626.0000
 21
 174.1400
  0
LINE
  8
200
  6
AUSGEZOGEN
 10
1640.1400
 20
 160.0000
 11
1631.8600
 21
 160.0000
  0
LINE
  8
200
  6
AUSGEZOGEN
 10
2096.0000
 20
 204.1400
 11
2096.0000
 21
 195.8600
  0
LINE
  8
200
  6
AUSGEZOGEN
 10
2081.8600
 20
 210.0000
 11
2090.1400
 21
 210.0000
  0
LINE
  8
200
  6
AUSGEZOGEN
 10
2076.0000
 20
 195.8600
 11
2076.0000
 21
 204.1400
  0
LINE
  8
200
  6
AUSGEZOGEN
 10
2090.1400
 20
 190.0000
 11
2081.8600
 21
 190.0000
  0
LINE
  8
200
  6
AUSGEZOGEN
 10
2066.0000
 20
 204.1400
 11
2066.0000
 21
 195.8600
  0
LINE
  8
200
  6
AUSGEZOGEN
 10
2051.8600
 20
 210.0000
 11
2060.1400
 21
 210.0000
  0
LINE
  8
200
  6
AUSGEZOGEN
 10
2046.0000
 20
 195.8600
 11
2046.0000
 21
 204.1400
  0
LINE
  8
200
  6
AUSGEZOGEN
 10
2060.1400
 20
 190.0000
 11
2051.8600
 21
 190.0000
  0
LINE
  8
200
  6
AUSGEZOGEN
 10
2036.0000
 20
 204.1400
 11
2036.0000
 21
 195.8600
  0
LINE
  8
200
  6
AUSGEZOGEN
 10
2021.8600
 20
 210.0000
 11
2030.1400
 21
 210.0000
  0
LINE
  8
200
  6
AUSGEZOGEN
 10
2016.0000
 20
 195.8600
 11
2016.0000
 21
 204.1400
  0
LINE
  8
200
  6
AUSGEZOGEN
 10
2030.1400
 20
 190.0000
 11
2021.8600
 21
 190.0000
  0
LINE
  8
200
  6
AUSGEZOGEN
 10
2006.0000
 20
 204.1400
 11
2006.0000
 21
 195.8600
  0
LINE
  8
200
  6
AUSGEZOGEN
 10
1991.8600
 20
 210.0000
 11
2000.1400
 21
 210.0000
  0
LINE
  8
200
  6
AUSGEZOGEN
 10
1986.0000
 20
 195.8600
 11
1986.0000
 21
 204.1400
  0
LINE
  8
200
  6
AUSGEZOGEN
 10
2000.1400
 20
 190.0000
 11
1991.8600
 21
 190.0000
  0
LINE
  8
200
  6
AUSGEZOGEN
 10
1976.0000
 20
 204.1400
 11
1976.0000
 21
 195.8600
  0
LINE
  8
200
  6
AUSGEZOGEN
 10
1961.8600
 20
 210.0000
 11
1970.1400
 21
 210.0000
  0
LINE
  8
200
  6
AUSGEZOGEN
 10
1956.0000
 20
 195.8600
 11
1956.0000
 21
 204.1400
  0
LINE
  8
200
  6
AUSGEZOGEN
 10
1970.1400
 20
 190.0000
 11
1961.8600
 21
 190.0000
  0
LINE
  8
200
  6
AUSGEZOGEN
 10
1946.0000
 20
 204.1400
 11
1946.0000
 21
 195.8600
  0
LINE
  8
200
  6
AUSGEZOGEN
 10
1931.8600
 20
 210.0000
 11
1940.1400
 21
 210.0000
  0
LINE
  8
200
  6
AUSGEZOGEN
 10
1926.0000
 20
 195.8600
 11
1926.0000
 21
 204.1400
  0
LINE
  8
200
  6
AUSGEZOGEN
 10
1940.1400
 20
 190.0000
 11
1931.8600
 21
 190.0000
  0
LINE
  8
200
  6
AUSGEZOGEN
 10
1916.0000
 20
 204.1400
 11
1916.0000
 21
 195.8600
  0
LINE
  8
200
  6
AUSGEZOGEN
 10
1901.8600
 20
 210.0000
 11
1910.1400
 21
 210.0000
  0
LINE
  8
200
  6
AUSGEZOGEN
 10
1896.0000
 20
 195.8600
 11
1896.0000
 21
 204.1400
  0
LINE
  8
200
  6
AUSGEZOGEN
 10
1910.1400
 20
 190.0000
 11
1901.8600
 21
 190.0000
  0
LINE
  8
200
  6
AUSGEZOGEN
 10
1886.0000
 20
 204.1400
 11
1886.0000
 21
 195.8600
  0
LINE
  8
200
  6
AUSGEZOGEN
 10
1871.8600
 20
 210.0000
 11
1880.1400
 21
 210.0000
  0
LINE
  8
200
  6
AUSGEZOGEN
 10
1866.0000
 20
 195.8600
 11
1866.0000
 21
 204.1400
  0
LINE
  8
200
  6
AUSGEZOGEN
 10
1880.1400
 20
 190.0000
 11
1871.8600
 21
 190.0000
  0
LINE
  8
200
  6
AUSGEZOGEN
 10
1856.0000
 20
 204.1400
 11
1856.0000
 21
 195.8600
  0
LINE
  8
200
  6
AUSGEZOGEN
 10
1841.8600
 20
 210.0000
 11
1850.1400
 21
 210.0000
  0
LINE
  8
200
  6
AUSGEZOGEN
 10
1836.0000
 20
 195.8600
 11
1836.0000
 21
 204.1400
  0
LINE
  8
200
  6
AUSGEZOGEN
 10
1850.1400
 20
 190.0000
 11
1841.8600
 21
 190.0000
  0
LINE
  8
200
  6
AUSGEZOGEN
 10
1826.0000
 20
 204.1400
 11
1826.0000
 21
 195.8600
  0
LINE
  8
200
  6
AUSGEZOGEN
 10
1811.8600
 20
 210.0000
 11
1820.1400
 21
 210.0000
  0
LINE
  8
200
  6
AUSGEZOGEN
 10
1806.0000
 20
 195.8600
 11
1806.0000
 21
 204.1400
  0
LINE
  8
200
  6
AUSGEZOGEN
 10
1820.1400
 20
 190.0000
 11
1811.8600
 21
 190.0000
  0
LINE
  8
200
  6
AUSGEZOGEN
 10
1796.0000
 20
 204.1400
 11
1796.0000
 21
 195.8600
  0
LINE
  8
200
  6
AUSGEZOGEN
 10
1781.8600
 20
 210.0000
 11
1790.1400
 21
 210.0000
  0
LINE
  8
200
  6
AUSGEZOGEN
 10
1776.0000
 20
 195.8600
 11
1776.0000
 21
 204.1400
  0
LINE
  8
200
  6
AUSGEZOGEN
 10
1790.1400
 20
 190.0000
 11
1781.8600
 21
 190.0000
  0
LINE
  8
200
  6
AUSGEZOGEN
 10
1766.0000
 20
 204.1400
 11
1766.0000
 21
 195.8600
  0
LINE
  8
200
  6
AUSGEZOGEN
 10
1751.8600
 20
 210.0000
 11
1760.1400
 21
 210.0000
  0
LINE
  8
200
  6
AUSGEZOGEN
 10
1746.0000
 20
 195.8600
 11
1746.0000
 21
 204.1400
  0
LINE
  8
200
  6
AUSGEZOGEN
 10
1760.1400
 20
 190.0000
 11
1751.8600
 21
 190.0000
  0
LINE
  8
200
  6
AUSGEZOGEN
 10
1736.0000
 20
 204.1400
 11
1736.0000
 21
 195.8600
  0
LINE
  8
200
  6
AUSGEZOGEN
 10
1721.8600
 20
 210.0000
 11
1730.1400
 21
 210.0000
  0
LINE
  8
200
  6
AUSGEZOGEN
 10
1716.0000
 20
 195.8600
 11
1716.0000
 21
 204.1400
  0
LINE
  8
200
  6
AUSGEZOGEN
 10
1730.1400
 20
 190.0000
 11
1721.8600
 21
 190.0000
  0
LINE
  8
200
  6
AUSGEZOGEN
 10
1706.0000
 20
 204.1400
 11
1706.0000
 21
 195.8600
  0
LINE
  8
200
  6
AUSGEZOGEN
 10
1691.8600
 20
 210.0000
 11
1700.1400
 21
 210.0000
  0
LINE
  8
200
  6
AUSGEZOGEN
 10
1686.0000
 20
 195.8600
 11
1686.0000
 21
 204.1400
  0
LINE
  8
200
  6
AUSGEZOGEN
 10
1700.1400
 20
 190.0000
 11
1691.8600
 21
 190.0000
  0
LINE
  8
200
  6
AUSGEZOGEN
 10
1676.0000
 20
 204.1400
 11
1676.0000
 21
 195.8600
  0
LINE
  8
200
  6
AUSGEZOGEN
 10
1661.8600
 20
 210.0000
 11
1670.1400
 21
 210.0000
  0
LINE
  8
200
  6
AUSGEZOGEN
 10
1656.0000
 20
 195.8600
 11
1656.0000
 21
 204.1400
  0
LINE
  8
200
  6
AUSGEZOGEN
 10
1670.1400
 20
 190.0000
 11
1661.8600
 21
 190.0000
  0
LINE
  8
200
  6
AUSGEZOGEN
 10
1646.0000
 20
 204.1400
 11
1646.0000
 21
 195.8600
  0
LINE
  8
200
  6
AUSGEZOGEN
 10
1631.8600
 20
 210.0000
 11
1640.1400
 21
 210.0000
  0
LINE
  8
200
  6
AUSGEZOGEN
 10
1626.0000
 20
 195.8600
 11
1626.0000
 21
 204.1400
  0
LINE
  8
200
  6
AUSGEZOGEN
 10
1640.1400
 20
 190.0000
 11
1631.8600
 21
 190.0000
  0
LINE
  8
200
  6
AUSGEZOGEN
 10
2096.0000
 20
 234.1400
 11
2096.0000
 21
 225.8600
  0
LINE
  8
200
  6
AUSGEZOGEN
 10
2081.8600
 20
 240.0000
 11
2090.1400
 21
 240.0000
  0
LINE
  8
200
  6
AUSGEZOGEN
 10
2076.0000
 20
 225.8600
 11
2076.0000
 21
 234.1400
  0
LINE
  8
200
  6
AUSGEZOGEN
 10
2090.1400
 20
 220.0000
 11
2081.8600
 21
 220.0000
  0
LINE
  8
200
  6
AUSGEZOGEN
 10
2066.0000
 20
 234.1400
 11
2066.0000
 21
 225.8600
  0
LINE
  8
200
  6
AUSGEZOGEN
 10
2051.8600
 20
 240.0000
 11
2060.1400
 21
 240.0000
  0
LINE
  8
200
  6
AUSGEZOGEN
 10
2046.0000
 20
 225.8600
 11
2046.0000
 21
 234.1400
  0
LINE
  8
200
  6
AUSGEZOGEN
 10
2060.1400
 20
 220.0000
 11
2051.8600
 21
 220.0000
  0
LINE
  8
200
  6
AUSGEZOGEN
 10
2036.0000
 20
 234.1400
 11
2036.0000
 21
 225.8600
  0
LINE
  8
200
  6
AUSGEZOGEN
 10
2021.8600
 20
 240.0000
 11
2030.1400
 21
 240.0000
  0
LINE
  8
200
  6
AUSGEZOGEN
 10
2016.0000
 20
 225.8600
 11
2016.0000
 21
 234.1400
  0
LINE
  8
200
  6
AUSGEZOGEN
 10
2030.1400
 20
 220.0000
 11
2021.8600
 21
 220.0000
  0
LINE
  8
200
  6
AUSGEZOGEN
 10
2006.0000
 20
 234.1400
 11
2006.0000
 21
 225.8600
  0
LINE
  8
200
  6
AUSGEZOGEN
 10
1991.8600
 20
 240.0000
 11
2000.1400
 21
 240.0000
  0
LINE
  8
200
  6
AUSGEZOGEN
 10
1986.0000
 20
 225.8600
 11
1986.0000
 21
 234.1400
  0
LINE
  8
200
  6
AUSGEZOGEN
 10
2000.1400
 20
 220.0000
 11
1991.8600
 21
 220.0000
  0
LINE
  8
200
  6
AUSGEZOGEN
 10
1976.0000
 20
 234.1400
 11
1976.0000
 21
 225.8600
  0
LINE
  8
200
  6
AUSGEZOGEN
 10
1961.8600
 20
 240.0000
 11
1970.1400
 21
 240.0000
  0
LINE
  8
200
  6
AUSGEZOGEN
 10
1956.0000
 20
 225.8600
 11
1956.0000
 21
 234.1400
  0
LINE
  8
200
  6
AUSGEZOGEN
 10
1970.1400
 20
 220.0000
 11
1961.8600
 21
 220.0000
  0
LINE
  8
200
  6
AUSGEZOGEN
 10
1946.0000
 20
 234.1400
 11
1946.0000
 21
 225.8600
  0
LINE
  8
200
  6
AUSGEZOGEN
 10
1931.8600
 20
 240.0000
 11
1940.1400
 21
 240.0000
  0
LINE
  8
200
  6
AUSGEZOGEN
 10
1926.0000
 20
 225.8600
 11
1926.0000
 21
 234.1400
  0
LINE
  8
200
  6
AUSGEZOGEN
 10
1940.1400
 20
 220.0000
 11
1931.8600
 21
 220.0000
  0
LINE
  8
200
  6
AUSGEZOGEN
 10
1916.0000
 20
 234.1400
 11
1916.0000
 21
 225.8600
  0
LINE
  8
200
  6
AUSGEZOGEN
 10
1901.8600
 20
 240.0000
 11
1910.1400
 21
 240.0000
  0
LINE
  8
200
  6
AUSGEZOGEN
 10
1896.0000
 20
 225.8600
 11
1896.0000
 21
 234.1400
  0
LINE
  8
200
  6
AUSGEZOGEN
 10
1910.1400
 20
 220.0000
 11
1901.8600
 21
 220.0000
  0
LINE
  8
200
  6
AUSGEZOGEN
 10
1886.0000
 20
 234.1400
 11
1886.0000
 21
 225.8600
  0
LINE
  8
200
  6
AUSGEZOGEN
 10
1871.8600
 20
 240.0000
 11
1880.1400
 21
 240.0000
  0
LINE
  8
200
  6
AUSGEZOGEN
 10
1866.0000
 20
 225.8600
 11
1866.0000
 21
 234.1400
  0
LINE
  8
200
  6
AUSGEZOGEN
 10
1880.1400
 20
 220.0000
 11
1871.8600
 21
 220.0000
  0
LINE
  8
200
  6
AUSGEZOGEN
 10
1856.0000
 20
 234.1400
 11
1856.0000
 21
 225.8600
  0
LINE
  8
200
  6
AUSGEZOGEN
 10
1841.8600
 20
 240.0000
 11
1850.1400
 21
 240.0000
  0
LINE
  8
200
  6
AUSGEZOGEN
 10
1836.0000
 20
 225.8600
 11
1836.0000
 21
 234.1400
  0
LINE
  8
200
  6
AUSGEZOGEN
 10
1850.1400
 20
 220.0000
 11
1841.8600
 21
 220.0000
  0
LINE
  8
200
  6
AUSGEZOGEN
 10
1826.0000
 20
 234.1400
 11
1826.0000
 21
 225.8600
  0
LINE
  8
200
  6
AUSGEZOGEN
 10
1811.8600
 20
 240.0000
 11
1820.1400
 21
 240.0000
  0
LINE
  8
200
  6
AUSGEZOGEN
 10
1806.0000
 20
 225.8600
 11
1806.0000
 21
 234.1400
  0
LINE
  8
200
  6
AUSGEZOGEN
 10
1820.1400
 20
 220.0000
 11
1811.8600
 21
 220.0000
  0
LINE
  8
200
  6
AUSGEZOGEN
 10
1796.0000
 20
 234.1400
 11
1796.0000
 21
 225.8600
  0
LINE
  8
200
  6
AUSGEZOGEN
 10
1781.8600
 20
 240.0000
 11
1790.1400
 21
 240.0000
  0
LINE
  8
200
  6
AUSGEZOGEN
 10
1776.0000
 20
 225.8600
 11
1776.0000
 21
 234.1400
  0
LINE
  8
200
  6
AUSGEZOGEN
 10
1790.1400
 20
 220.0000
 11
1781.8600
 21
 220.0000
  0
LINE
  8
200
  6
AUSGEZOGEN
 10
1766.0000
 20
 234.1400
 11
1766.0000
 21
 225.8600
  0
LINE
  8
200
  6
AUSGEZOGEN
 10
1751.8600
 20
 240.0000
 11
1760.1400
 21
 240.0000
  0
LINE
  8
200
  6
AUSGEZOGEN
 10
1746.0000
 20
 225.8600
 11
1746.0000
 21
 234.1400
  0
LINE
  8
200
  6
AUSGEZOGEN
 10
1760.1400
 20
 220.0000
 11
1751.8600
 21
 220.0000
  0
LINE
  8
200
  6
AUSGEZOGEN
 10
1736.0000
 20
 234.1400
 11
1736.0000
 21
 225.8600
  0
LINE
  8
200
  6
AUSGEZOGEN
 10
1721.8600
 20
 240.0000
 11
1730.1400
 21
 240.0000
  0
LINE
  8
200
  6
AUSGEZOGEN
 10
1716.0000
 20
 225.8600
 11
1716.0000
 21
 234.1400
  0
LINE
  8
200
  6
AUSGEZOGEN
 10
1730.1400
 20
 220.0000
 11
1721.8600
 21
 220.0000
  0
LINE
  8
200
  6
AUSGEZOGEN
 10
1706.0000
 20
 234.1400
 11
1706.0000
 21
 225.8600
  0
LINE
  8
200
  6
AUSGEZOGEN
 10
1691.8600
 20
 240.0000
 11
1700.1400
 21
 240.0000
  0
LINE
  8
200
  6
AUSGEZOGEN
 10
1686.0000
 20
 225.8600
 11
1686.0000
 21
 234.1400
  0
LINE
  8
200
  6
AUSGEZOGEN
 10
1700.1400
 20
 220.0000
 11
1691.8600
 21
 220.0000
  0
LINE
  8
200
  6
AUSGEZOGEN
 10
1676.0000
 20
 234.1400
 11
1676.0000
 21
 225.8600
  0
LINE
  8
200
  6
AUSGEZOGEN
 10
1661.8600
 20
 240.0000
 11
1670.1400
 21
 240.0000
  0
LINE
  8
200
  6
AUSGEZOGEN
 10
1656.0000
 20
 225.8600
 11
1656.0000
 21
 234.1400
  0
LINE
  8
200
  6
AUSGEZOGEN
 10
1670.1400
 20
 220.0000
 11
1661.8600
 21
 220.0000
  0
LINE
  8
200
  6
AUSGEZOGEN
 10
1646.0000
 20
 234.1400
 11
1646.0000
 21
 225.8600
  0
LINE
  8
200
  6
AUSGEZOGEN
 10
1631.8600
 20
 240.0000
 11
1640.1400
 21
 240.0000
  0
LINE
  8
200
  6
AUSGEZOGEN
 10
1626.0000
 20
 225.8600
 11
1626.0000
 21
 234.1400
  0
LINE
  8
200
  6
AUSGEZOGEN
 10
1640.1400
 20
 220.0000
 11
1631.8600
 21
 220.0000
  0
LINE
  8
200
  6
AUSGEZOGEN
 10
2096.0000
 20
 264.1400
 11
2096.0000
 21
 255.8600
  0
LINE
  8
200
  6
AUSGEZOGEN
 10
2081.8600
 20
 270.0000
 11
2090.1400
 21
 270.0000
  0
LINE
  8
200
  6
AUSGEZOGEN
 10
2076.0000
 20
 255.8600
 11
2076.0000
 21
 264.1400
  0
LINE
  8
200
  6
AUSGEZOGEN
 10
2090.1400
 20
 250.0000
 11
2081.8600
 21
 250.0000
  0
LINE
  8
200
  6
AUSGEZOGEN
 10
2066.0000
 20
 264.1400
 11
2066.0000
 21
 255.8600
  0
LINE
  8
200
  6
AUSGEZOGEN
 10
2051.8600
 20
 270.0000
 11
2060.1400
 21
 270.0000
  0
LINE
  8
200
  6
AUSGEZOGEN
 10
2046.0000
 20
 255.8600
 11
2046.0000
 21
 264.1400
  0
LINE
  8
200
  6
AUSGEZOGEN
 10
2060.1400
 20
 250.0000
 11
2051.8600
 21
 250.0000
  0
LINE
  8
200
  6
AUSGEZOGEN
 10
2036.0000
 20
 264.1400
 11
2036.0000
 21
 255.8600
  0
LINE
  8
200
  6
AUSGEZOGEN
 10
2021.8600
 20
 270.0000
 11
2030.1400
 21
 270.0000
  0
LINE
  8
200
  6
AUSGEZOGEN
 10
2016.0000
 20
 255.8600
 11
2016.0000
 21
 264.1400
  0
LINE
  8
200
  6
AUSGEZOGEN
 10
2030.1400
 20
 250.0000
 11
2021.8600
 21
 250.0000
  0
LINE
  8
200
  6
AUSGEZOGEN
 10
2006.0000
 20
 264.1400
 11
2006.0000
 21
 255.8600
  0
LINE
  8
200
  6
AUSGEZOGEN
 10
1991.8600
 20
 270.0000
 11
2000.1400
 21
 270.0000
  0
LINE
  8
200
  6
AUSGEZOGEN
 10
1986.0000
 20
 255.8600
 11
1986.0000
 21
 264.1400
  0
LINE
  8
200
  6
AUSGEZOGEN
 10
2000.1400
 20
 250.0000
 11
1991.8600
 21
 250.0000
  0
LINE
  8
200
  6
AUSGEZOGEN
 10
1976.0000
 20
 264.1400
 11
1976.0000
 21
 255.8600
  0
LINE
  8
200
  6
AUSGEZOGEN
 10
1961.8600
 20
 270.0000
 11
1970.1400
 21
 270.0000
  0
LINE
  8
200
  6
AUSGEZOGEN
 10
1956.0000
 20
 255.8600
 11
1956.0000
 21
 264.1400
  0
LINE
  8
200
  6
AUSGEZOGEN
 10
1970.1400
 20
 250.0000
 11
1961.8600
 21
 250.0000
  0
LINE
  8
200
  6
AUSGEZOGEN
 10
1946.0000
 20
 264.1400
 11
1946.0000
 21
 255.8600
  0
LINE
  8
200
  6
AUSGEZOGEN
 10
1931.8600
 20
 270.0000
 11
1940.1400
 21
 270.0000
  0
LINE
  8
200
  6
AUSGEZOGEN
 10
1926.0000
 20
 255.8600
 11
1926.0000
 21
 264.1400
  0
LINE
  8
200
  6
AUSGEZOGEN
 10
1940.1400
 20
 250.0000
 11
1931.8600
 21
 250.0000
  0
LINE
  8
200
  6
AUSGEZOGEN
 10
1916.0000
 20
 264.1400
 11
1916.0000
 21
 255.8600
  0
LINE
  8
200
  6
AUSGEZOGEN
 10
1901.8600
 20
 270.0000
 11
1910.1400
 21
 270.0000
  0
LINE
  8
200
  6
AUSGEZOGEN
 10
1896.0000
 20
 255.8600
 11
1896.0000
 21
 264.1400
  0
LINE
  8
200
  6
AUSGEZOGEN
 10
1910.1400
 20
 250.0000
 11
1901.8600
 21
 250.0000
  0
LINE
  8
200
  6
AUSGEZOGEN
 10
1886.0000
 20
 264.1400
 11
1886.0000
 21
 255.8600
  0
LINE
  8
200
  6
AUSGEZOGEN
 10
1871.8600
 20
 270.0000
 11
1880.1400
 21
 270.0000
  0
LINE
  8
200
  6
AUSGEZOGEN
 10
1866.0000
 20
 255.8600
 11
1866.0000
 21
 264.1400
  0
LINE
  8
200
  6
AUSGEZOGEN
 10
1880.1400
 20
 250.0000
 11
1871.8600
 21
 250.0000
  0
LINE
  8
200
  6
AUSGEZOGEN
 10
1856.0000
 20
 264.1400
 11
1856.0000
 21
 255.8600
  0
LINE
  8
200
  6
AUSGEZOGEN
 10
1841.8600
 20
 270.0000
 11
1850.1400
 21
 270.0000
  0
LINE
  8
200
  6
AUSGEZOGEN
 10
1836.0000
 20
 255.8600
 11
1836.0000
 21
 264.1400
  0
LINE
  8
200
  6
AUSGEZOGEN
 10
1850.1400
 20
 250.0000
 11
1841.8600
 21
 250.0000
  0
LINE
  8
200
  6
AUSGEZOGEN
 10
1826.0000
 20
 264.1400
 11
1826.0000
 21
 255.8600
  0
LINE
  8
200
  6
AUSGEZOGEN
 10
1811.8600
 20
 270.0000
 11
1820.1400
 21
 270.0000
  0
LINE
  8
200
  6
AUSGEZOGEN
 10
1806.0000
 20
 255.8600
 11
1806.0000
 21
 264.1400
  0
LINE
  8
200
  6
AUSGEZOGEN
 10
1820.1400
 20
 250.0000
 11
1811.8600
 21
 250.0000
  0
LINE
  8
200
  6
AUSGEZOGEN
 10
1796.0000
 20
 264.1400
 11
1796.0000
 21
 255.8600
  0
LINE
  8
200
  6
AUSGEZOGEN
 10
1781.8600
 20
 270.0000
 11
1790.1400
 21
 270.0000
  0
LINE
  8
200
  6
AUSGEZOGEN
 10
1776.0000
 20
 255.8600
 11
1776.0000
 21
 264.1400
  0
LINE
  8
200
  6
AUSGEZOGEN
 10
1790.1400
 20
 250.0000
 11
1781.8600
 21
 250.0000
  0
LINE
  8
200
  6
AUSGEZOGEN
 10
1766.0000
 20
 264.1400
 11
1766.0000
 21
 255.8600
  0
LINE
  8
200
  6
AUSGEZOGEN
 10
1751.8600
 20
 270.0000
 11
1760.1400
 21
 270.0000
  0
LINE
  8
200
  6
AUSGEZOGEN
 10
1746.0000
 20
 255.8600
 11
1746.0000
 21
 264.1400
  0
LINE
  8
200
  6
AUSGEZOGEN
 10
1760.1400
 20
 250.0000
 11
1751.8600
 21
 250.0000
  0
LINE
  8
200
  6
AUSGEZOGEN
 10
1736.0000
 20
 264.1400
 11
1736.0000
 21
 255.8600
  0
LINE
  8
200
  6
AUSGEZOGEN
 10
1721.8600
 20
 270.0000
 11
1730.1400
 21
 270.0000
  0
LINE
  8
200
  6
AUSGEZOGEN
 10
1716.0000
 20
 255.8600
 11
1716.0000
 21
 264.1400
  0
LINE
  8
200
  6
AUSGEZOGEN
 10
1730.1400
 20
 250.0000
 11
1721.8600
 21
 250.0000
  0
LINE
  8
200
  6
AUSGEZOGEN
 10
1706.0000
 20
 264.1400
 11
1706.0000
 21
 255.8600
  0
LINE
  8
200
  6
AUSGEZOGEN
 10
1691.8600
 20
 270.0000
 11
1700.1400
 21
 270.0000
  0
LINE
  8
200
  6
AUSGEZOGEN
 10
1686.0000
 20
 255.8600
 11
1686.0000
 21
 264.1400
  0
LINE
  8
200
  6
AUSGEZOGEN
 10
1700.1400
 20
 250.0000
 11
1691.8600
 21
 250.0000
  0
LINE
  8
200
  6
AUSGEZOGEN
 10
1676.0000
 20
 264.1400
 11
1676.0000
 21
 255.8600
  0
LINE
  8
200
  6
AUSGEZOGEN
 10
1661.8600
 20
 270.0000
 11
1670.1400
 21
 270.0000
  0
LINE
  8
200
  6
AUSGEZOGEN
 10
1656.0000
 20
 255.8600
 11
1656.0000
 21
 264.1400
  0
LINE
  8
200
  6
AUSGEZOGEN
 10
1670.1400
 20
 250.0000
 11
1661.8600
 21
 250.0000
  0
LINE
  8
200
  6
AUSGEZOGEN
 10
1646.0000
 20
 264.1400
 11
1646.0000
 21
 255.8600
  0
LINE
  8
200
  6
AUSGEZOGEN
 10
1631.8600
 20
 270.0000
 11
1640.1400
 21
 270.0000
  0
LINE
  8
200
  6
AUSGEZOGEN
 10
1626.0000
 20
 255.8600
 11
1626.0000
 21
 264.1400
  0
LINE
  8
200
  6
AUSGEZOGEN
 10
1640.1400
 20
 250.0000
 11
1631.8600
 21
 250.0000
  0
LINE
  8
200
  6
AUSGEZOGEN
 10
1616.0000
 20
 354.1400
 11
1616.0000
 21
 345.8600
  0
LINE
  8
200
  6
AUSGEZOGEN
 10
1601.8600
 20
 360.0000
 11
1610.1400
 21
 360.0000
  0
LINE
  8
200
  6
AUSGEZOGEN
 10
1596.0000
 20
 345.8600
 11
1596.0000
 21
 354.1400
  0
LINE
  8
200
  6
AUSGEZOGEN
 10
1610.1400
 20
 340.0000
 11
1601.8600
 21
 340.0000
  0
LINE
  8
200
  6
AUSGEZOGEN
 10
1616.0000
 20
 315.8600
 11
1616.0000
 21
 324.1400
  0
LINE
  8
200
  6
AUSGEZOGEN
 10
1601.8600
 20
 330.0000
 11
1610.1400
 21
 330.0000
  0
LINE
  8
200
  6
AUSGEZOGEN
 10
1596.0000
 20
 315.8600
 11
1596.0000
 21
 324.1400
  0
LINE
  8
200
  6
AUSGEZOGEN
 10
1610.1400
 20
 310.0000
 11
1601.8600
 21
 310.0000
  0
LINE
  8
200
  6
AUSGEZOGEN
 10
1616.0000
 20
 285.8600
 11
1616.0000
 21
 294.1400
  0
LINE
  8
200
  6
AUSGEZOGEN
 10
1601.8600
 20
 300.0000
 11
1610.1400
 21
 300.0000
  0
LINE
  8
200
  6
AUSGEZOGEN
 10
1596.0000
 20
 285.8600
 11
1596.0000
 21
 294.1400
  0
LINE
  8
200
  6
AUSGEZOGEN
 10
1610.1400
 20
 280.0000
 11
1601.8600
 21
 280.0000
  0
LINE
  8
200
  6
AUSGEZOGEN
 10
1616.0000
 20
 105.8600
 11
1616.0000
 21
 114.1400
  0
LINE
  8
200
  6
AUSGEZOGEN
 10
1601.8600
 20
 120.0000
 11
1610.1400
 21
 120.0000
  0
LINE
  8
200
  6
AUSGEZOGEN
 10
1596.0000
 20
 105.8600
 11
1596.0000
 21
 114.1400
  0
LINE
  8
200
  6
AUSGEZOGEN
 10
1610.1400
 20
 100.0000
 11
1601.8600
 21
 100.0000
  0
LINE
  8
200
  6
AUSGEZOGEN
 10
1616.0000
 20
 144.1400
 11
1616.0000
 21
 135.8600
  0
LINE
  8
200
  6
AUSGEZOGEN
 10
1601.8600
 20
 150.0000
 11
1610.1400
 21
 150.0000
  0
LINE
  8
200
  6
AUSGEZOGEN
 10
1596.0000
 20
 135.8600
 11
1596.0000
 21
 144.1400
  0
LINE
  8
200
  6
AUSGEZOGEN
 10
1610.1400
 20
 130.0000
 11
1601.8600
 21
 130.0000
  0
LINE
  8
200
  6
AUSGEZOGEN
 10
1616.0000
 20
 174.1400
 11
1616.0000
 21
 165.8600
  0
LINE
  8
200
  6
AUSGEZOGEN
 10
1601.8600
 20
 180.0000
 11
1610.1400
 21
 180.0000
  0
LINE
  8
200
  6
AUSGEZOGEN
 10
1596.0000
 20
 165.8600
 11
1596.0000
 21
 174.1400
  0
LINE
  8
200
  6
AUSGEZOGEN
 10
1610.1400
 20
 160.0000
 11
1601.8600
 21
 160.0000
  0
LINE
  8
200
  6
AUSGEZOGEN
 10
1616.0000
 20
 204.1400
 11
1616.0000
 21
 195.8600
  0
LINE
  8
200
  6
AUSGEZOGEN
 10
1601.8600
 20
 210.0000
 11
1610.1400
 21
 210.0000
  0
LINE
  8
200
  6
AUSGEZOGEN
 10
1596.0000
 20
 195.8600
 11
1596.0000
 21
 204.1400
  0
LINE
  8
200
  6
AUSGEZOGEN
 10
1610.1400
 20
 190.0000
 11
1601.8600
 21
 190.0000
  0
LINE
  8
200
  6
AUSGEZOGEN
 10
1616.0000
 20
 234.1400
 11
1616.0000
 21
 225.8600
  0
LINE
  8
200
  6
AUSGEZOGEN
 10
1601.8600
 20
 240.0000
 11
1610.1400
 21
 240.0000
  0
LINE
  8
200
  6
AUSGEZOGEN
 10
1596.0000
 20
 225.8600
 11
1596.0000
 21
 234.1400
  0
LINE
  8
200
  6
AUSGEZOGEN
 10
1610.1400
 20
 220.0000
 11
1601.8600
 21
 220.0000
  0
LINE
  8
200
  6
AUSGEZOGEN
 10
1616.0000
 20
 264.1400
 11
1616.0000
 21
 255.8600
  0
LINE
  8
200
  6
AUSGEZOGEN
 10
1601.8600
 20
 270.0000
 11
1610.1400
 21
 270.0000
  0
LINE
  8
200
  6
AUSGEZOGEN
 10
1596.0000
 20
 255.8600
 11
1596.0000
 21
 264.1400
  0
LINE
  8
200
  6
AUSGEZOGEN
 10
1610.1400
 20
 250.0000
 11
1601.8600
 21
 250.0000
  0
LINE
  8
200
  6
AUSGEZOGEN
 10
1556.0000
 20
 354.1400
 11
1556.0000
 21
 345.8600
  0
LINE
  8
200
  6
AUSGEZOGEN
 10
1541.8600
 20
 360.0000
 11
1550.1400
 21
 360.0000
  0
LINE
  8
200
  6
AUSGEZOGEN
 10
1536.0000
 20
 345.8600
 11
1536.0000
 21
 354.1400
  0
LINE
  8
200
  6
AUSGEZOGEN
 10
1550.1400
 20
 340.0000
 11
1541.8600
 21
 340.0000
  0
LINE
  8
200
  6
AUSGEZOGEN
 10
1526.0000
 20
 354.1400
 11
1526.0000
 21
 345.8600
  0
LINE
  8
200
  6
AUSGEZOGEN
 10
1511.8600
 20
 360.0000
 11
1520.1400
 21
 360.0000
  0
LINE
  8
200
  6
AUSGEZOGEN
 10
1506.0000
 20
 345.8600
 11
1506.0000
 21
 354.1400
  0
LINE
  8
200
  6
AUSGEZOGEN
 10
1520.1400
 20
 340.0000
 11
1511.8600
 21
 340.0000
  0
LINE
  8
200
  6
AUSGEZOGEN
 10
1496.0000
 20
 354.1400
 11
1496.0000
 21
 345.8600
  0
LINE
  8
200
  6
AUSGEZOGEN
 10
1481.8600
 20
 360.0000
 11
1490.1400
 21
 360.0000
  0
LINE
  8
200
  6
AUSGEZOGEN
 10
1476.0000
 20
 345.8600
 11
1476.0000
 21
 354.1400
  0
LINE
  8
200
  6
AUSGEZOGEN
 10
1490.1400
 20
 340.0000
 11
1481.8600
 21
 340.0000
  0
LINE
  8
200
  6
AUSGEZOGEN
 10
1466.0000
 20
 354.1400
 11
1466.0000
 21
 345.8600
  0
LINE
  8
200
  6
AUSGEZOGEN
 10
1451.8600
 20
 360.0000
 11
1460.1400
 21
 360.0000
  0
LINE
  8
200
  6
AUSGEZOGEN
 10
1446.0000
 20
 345.8600
 11
1446.0000
 21
 354.1400
  0
LINE
  8
200
  6
AUSGEZOGEN
 10
1460.1400
 20
 340.0000
 11
1451.8600
 21
 340.0000
  0
LINE
  8
200
  6
AUSGEZOGEN
 10
1436.0000
 20
 354.1400
 11
1436.0000
 21
 345.8600
  0
LINE
  8
200
  6
AUSGEZOGEN
 10
1421.8600
 20
 360.0000
 11
1430.1400
 21
 360.0000
  0
LINE
  8
200
  6
AUSGEZOGEN
 10
1416.0000
 20
 345.8600
 11
1416.0000
 21
 354.1400
  0
LINE
  8
200
  6
AUSGEZOGEN
 10
1430.1400
 20
 340.0000
 11
1421.8600
 21
 340.0000
  0
LINE
  8
200
  6
AUSGEZOGEN
 10
1406.0000
 20
 354.1400
 11
1406.0000
 21
 345.8600
  0
LINE
  8
200
  6
AUSGEZOGEN
 10
1391.8600
 20
 360.0000
 11
1400.1400
 21
 360.0000
  0
LINE
  8
200
  6
AUSGEZOGEN
 10
1386.0000
 20
 345.8600
 11
1386.0000
 21
 354.1400
  0
LINE
  8
200
  6
AUSGEZOGEN
 10
1400.1400
 20
 340.0000
 11
1391.8600
 21
 340.0000
  0
LINE
  8
200
  6
AUSGEZOGEN
 10
1376.0000
 20
 354.1400
 11
1376.0000
 21
 345.8600
  0
LINE
  8
200
  6
AUSGEZOGEN
 10
1361.8600
 20
 360.0000
 11
1370.1400
 21
 360.0000
  0
LINE
  8
200
  6
AUSGEZOGEN
 10
1356.0000
 20
 345.8600
 11
1356.0000
 21
 354.1400
  0
LINE
  8
200
  6
AUSGEZOGEN
 10
1370.1400
 20
 340.0000
 11
1361.8600
 21
 340.0000
  0
LINE
  8
200
  6
AUSGEZOGEN
 10
1346.0000
 20
 354.1400
 11
1346.0000
 21
 345.8600
  0
LINE
  8
200
  6
AUSGEZOGEN
 10
1331.8600
 20
 360.0000
 11
1340.1400
 21
 360.0000
  0
LINE
  8
200
  6
AUSGEZOGEN
 10
1326.0000
 20
 345.8600
 11
1326.0000
 21
 354.1400
  0
LINE
  8
200
  6
AUSGEZOGEN
 10
1340.1400
 20
 340.0000
 11
1331.8600
 21
 340.0000
  0
LINE
  8
200
  6
AUSGEZOGEN
 10
1316.0000
 20
 354.1400
 11
1316.0000
 21
 345.8600
  0
LINE
  8
200
  6
AUSGEZOGEN
 10
1301.8600
 20
 360.0000
 11
1310.1400
 21
 360.0000
  0
LINE
  8
200
  6
AUSGEZOGEN
 10
1296.0000
 20
 345.8600
 11
1296.0000
 21
 354.1400
  0
LINE
  8
200
  6
AUSGEZOGEN
 10
1310.1400
 20
 340.0000
 11
1301.8600
 21
 340.0000
  0
LINE
  8
200
  6
AUSGEZOGEN
 10
1286.0000
 20
 354.1400
 11
1286.0000
 21
 345.8600
  0
LINE
  8
200
  6
AUSGEZOGEN
 10
1271.8600
 20
 360.0000
 11
1280.1400
 21
 360.0000
  0
LINE
  8
200
  6
AUSGEZOGEN
 10
1266.0000
 20
 345.8600
 11
1266.0000
 21
 354.1400
  0
LINE
  8
200
  6
AUSGEZOGEN
 10
1280.1400
 20
 340.0000
 11
1271.8600
 21
 340.0000
  0
LINE
  8
200
  6
AUSGEZOGEN
 10
1256.0000
 20
 354.1400
 11
1256.0000
 21
 345.8600
  0
LINE
  8
200
  6
AUSGEZOGEN
 10
1241.8600
 20
 360.0000
 11
1250.1400
 21
 360.0000
  0
LINE
  8
200
  6
AUSGEZOGEN
 10
1236.0000
 20
 345.8600
 11
1236.0000
 21
 354.1400
  0
LINE
  8
200
  6
AUSGEZOGEN
 10
1250.1400
 20
 340.0000
 11
1241.8600
 21
 340.0000
  0
LINE
  8
200
  6
AUSGEZOGEN
 10
1226.0000
 20
 354.1400
 11
1226.0000
 21
 345.8600
  0
LINE
  8
200
  6
AUSGEZOGEN
 10
1211.8600
 20
 360.0000
 11
1220.1400
 21
 360.0000
  0
LINE
  8
200
  6
AUSGEZOGEN
 10
1206.0000
 20
 345.8600
 11
1206.0000
 21
 354.1400
  0
LINE
  8
200
  6
AUSGEZOGEN
 10
1220.1400
 20
 340.0000
 11
1211.8600
 21
 340.0000
  0
LINE
  8
200
  6
AUSGEZOGEN
 10
1196.0000
 20
 354.1400
 11
1196.0000
 21
 345.8600
  0
LINE
  8
200
  6
AUSGEZOGEN
 10
1181.8600
 20
 360.0000
 11
1190.1400
 21
 360.0000
  0
LINE
  8
200
  6
AUSGEZOGEN
 10
1176.0000
 20
 345.8600
 11
1176.0000
 21
 354.1400
  0
LINE
  8
200
  6
AUSGEZOGEN
 10
1190.1400
 20
 340.0000
 11
1181.8600
 21
 340.0000
  0
LINE
  8
200
  6
AUSGEZOGEN
 10
1166.0000
 20
 354.1400
 11
1166.0000
 21
 345.8600
  0
LINE
  8
200
  6
AUSGEZOGEN
 10
1151.8600
 20
 360.0000
 11
1160.1400
 21
 360.0000
  0
LINE
  8
200
  6
AUSGEZOGEN
 10
1146.0000
 20
 345.8600
 11
1146.0000
 21
 354.1400
  0
LINE
  8
200
  6
AUSGEZOGEN
 10
1160.1400
 20
 340.0000
 11
1151.8600
 21
 340.0000
  0
LINE
  8
200
  6
AUSGEZOGEN
 10
1136.0000
 20
 354.1400
 11
1136.0000
 21
 345.8600
  0
LINE
  8
200
  6
AUSGEZOGEN
 10
1121.8600
 20
 360.0000
 11
1130.1400
 21
 360.0000
  0
LINE
  8
200
  6
AUSGEZOGEN
 10
1116.0000
 20
 345.8600
 11
1116.0000
 21
 354.1400
  0
LINE
  8
200
  6
AUSGEZOGEN
 10
1130.1400
 20
 340.0000
 11
1121.8600
 21
 340.0000
  0
LINE
  8
200
  6
AUSGEZOGEN
 10
1106.0000
 20
 354.1400
 11
1106.0000
 21
 345.8600
  0
LINE
  8
200
  6
AUSGEZOGEN
 10
1091.8600
 20
 360.0000
 11
1100.1400
 21
 360.0000
  0
LINE
  8
200
  6
AUSGEZOGEN
 10
1086.0000
 20
 345.8600
 11
1086.0000
 21
 354.1400
  0
LINE
  8
200
  6
AUSGEZOGEN
 10
1100.1400
 20
 340.0000
 11
1091.8600
 21
 340.0000
  0
LINE
  8
200
  6
AUSGEZOGEN
 10
1556.0000
 20
 315.8600
 11
1556.0000
 21
 324.1400
  0
LINE
  8
200
  6
AUSGEZOGEN
 10
1541.8600
 20
 330.0000
 11
1550.1400
 21
 330.0000
  0
LINE
  8
200
  6
AUSGEZOGEN
 10
1536.0000
 20
 315.8600
 11
1536.0000
 21
 324.1400
  0
LINE
  8
200
  6
AUSGEZOGEN
 10
1550.1400
 20
 310.0000
 11
1541.8600
 21
 310.0000
  0
LINE
  8
200
  6
AUSGEZOGEN
 10
1526.0000
 20
 324.1400
 11
1526.0000
 21
 315.8600
  0
LINE
  8
200
  6
AUSGEZOGEN
 10
1511.8600
 20
 330.0000
 11
1520.1400
 21
 330.0000
  0
LINE
  8
200
  6
AUSGEZOGEN
 10
1506.0000
 20
 315.8600
 11
1506.0000
 21
 324.1400
  0
LINE
  8
200
  6
AUSGEZOGEN
 10
1520.1400
 20
 310.0000
 11
1511.8600
 21
 310.0000
  0
LINE
  8
200
  6
AUSGEZOGEN
 10
1496.0000
 20
 324.1400
 11
1496.0000
 21
 315.8600
  0
LINE
  8
200
  6
AUSGEZOGEN
 10
1481.8600
 20
 330.0000
 11
1490.1400
 21
 330.0000
  0
LINE
  8
200
  6
AUSGEZOGEN
 10
1476.0000
 20
 315.8600
 11
1476.0000
 21
 324.1400
  0
LINE
  8
200
  6
AUSGEZOGEN
 10
1490.1400
 20
 310.0000
 11
1481.8600
 21
 310.0000
  0
LINE
  8
200
  6
AUSGEZOGEN
 10
1466.0000
 20
 324.1400
 11
1466.0000
 21
 315.8600
  0
LINE
  8
200
  6
AUSGEZOGEN
 10
1451.8600
 20
 330.0000
 11
1460.1400
 21
 330.0000
  0
LINE
  8
200
  6
AUSGEZOGEN
 10
1446.0000
 20
 315.8600
 11
1446.0000
 21
 324.1400
  0
LINE
  8
200
  6
AUSGEZOGEN
 10
1460.1400
 20
 310.0000
 11
1451.8600
 21
 310.0000
  0
LINE
  8
200
  6
AUSGEZOGEN
 10
1436.0000
 20
 324.1400
 11
1436.0000
 21
 315.8600
  0
LINE
  8
200
  6
AUSGEZOGEN
 10
1421.8600
 20
 330.0000
 11
1430.1400
 21
 330.0000
  0
LINE
  8
200
  6
AUSGEZOGEN
 10
1416.0000
 20
 315.8600
 11
1416.0000
 21
 324.1400
  0
LINE
  8
200
  6
AUSGEZOGEN
 10
1430.1400
 20
 310.0000
 11
1421.8600
 21
 310.0000
  0
LINE
  8
200
  6
AUSGEZOGEN
 10
1406.0000
 20
 324.1400
 11
1406.0000
 21
 315.8600
  0
LINE
  8
200
  6
AUSGEZOGEN
 10
1391.8600
 20
 330.0000
 11
1400.1400
 21
 330.0000
  0
LINE
  8
200
  6
AUSGEZOGEN
 10
1386.0000
 20
 315.8600
 11
1386.0000
 21
 324.1400
  0
LINE
  8
200
  6
AUSGEZOGEN
 10
1400.1400
 20
 310.0000
 11
1391.8600
 21
 310.0000
  0
LINE
  8
200
  6
AUSGEZOGEN
 10
1376.0000
 20
 324.1400
 11
1376.0000
 21
 315.8600
  0
LINE
  8
200
  6
AUSGEZOGEN
 10
1361.8600
 20
 330.0000
 11
1370.1400
 21
 330.0000
  0
LINE
  8
200
  6
AUSGEZOGEN
 10
1356.0000
 20
 315.8600
 11
1356.0000
 21
 324.1400
  0
LINE
  8
200
  6
AUSGEZOGEN
 10
1370.1400
 20
 310.0000
 11
1361.8600
 21
 310.0000
  0
LINE
  8
200
  6
AUSGEZOGEN
 10
1346.0000
 20
 324.1400
 11
1346.0000
 21
 315.8600
  0
LINE
  8
200
  6
AUSGEZOGEN
 10
1331.8600
 20
 330.0000
 11
1340.1400
 21
 330.0000
  0
LINE
  8
200
  6
AUSGEZOGEN
 10
1326.0000
 20
 315.8600
 11
1326.0000
 21
 324.1400
  0
LINE
  8
200
  6
AUSGEZOGEN
 10
1340.1400
 20
 310.0000
 11
1331.8600
 21
 310.0000
  0
LINE
  8
200
  6
AUSGEZOGEN
 10
1316.0000
 20
 324.1400
 11
1316.0000
 21
 315.8600
  0
LINE
  8
200
  6
AUSGEZOGEN
 10
1301.8600
 20
 330.0000
 11
1310.1400
 21
 330.0000
  0
LINE
  8
200
  6
AUSGEZOGEN
 10
1296.0000
 20
 315.8600
 11
1296.0000
 21
 324.1400
  0
LINE
  8
200
  6
AUSGEZOGEN
 10
1310.1400
 20
 310.0000
 11
1301.8600
 21
 310.0000
  0
LINE
  8
200
  6
AUSGEZOGEN
 10
1286.0000
 20
 324.1400
 11
1286.0000
 21
 315.8600
  0
LINE
  8
200
  6
AUSGEZOGEN
 10
1271.8600
 20
 330.0000
 11
1280.1400
 21
 330.0000
  0
LINE
  8
200
  6
AUSGEZOGEN
 10
1266.0000
 20
 315.8600
 11
1266.0000
 21
 324.1400
  0
LINE
  8
200
  6
AUSGEZOGEN
 10
1280.1400
 20
 310.0000
 11
1271.8600
 21
 310.0000
  0
LINE
  8
200
  6
AUSGEZOGEN
 10
1256.0000
 20
 324.1400
 11
1256.0000
 21
 315.8600
  0
LINE
  8
200
  6
AUSGEZOGEN
 10
1241.8600
 20
 330.0000
 11
1250.1400
 21
 330.0000
  0
LINE
  8
200
  6
AUSGEZOGEN
 10
1236.0000
 20
 315.8600
 11
1236.0000
 21
 324.1400
  0
LINE
  8
200
  6
AUSGEZOGEN
 10
1250.1400
 20
 310.0000
 11
1241.8600
 21
 310.0000
  0
LINE
  8
200
  6
AUSGEZOGEN
 10
1226.0000
 20
 324.1400
 11
1226.0000
 21
 315.8600
  0
LINE
  8
200
  6
AUSGEZOGEN
 10
1211.8600
 20
 330.0000
 11
1220.1400
 21
 330.0000
  0
LINE
  8
200
  6
AUSGEZOGEN
 10
1206.0000
 20
 315.8600
 11
1206.0000
 21
 324.1400
  0
LINE
  8
200
  6
AUSGEZOGEN
 10
1220.1400
 20
 310.0000
 11
1211.8600
 21
 310.0000
  0
LINE
  8
200
  6
AUSGEZOGEN
 10
1196.0000
 20
 324.1400
 11
1196.0000
 21
 315.8600
  0
LINE
  8
200
  6
AUSGEZOGEN
 10
1181.8600
 20
 330.0000
 11
1190.1400
 21
 330.0000
  0
LINE
  8
200
  6
AUSGEZOGEN
 10
1176.0000
 20
 315.8600
 11
1176.0000
 21
 324.1400
  0
LINE
  8
200
  6
AUSGEZOGEN
 10
1190.1400
 20
 310.0000
 11
1181.8600
 21
 310.0000
  0
LINE
  8
200
  6
AUSGEZOGEN
 10
1166.0000
 20
 324.1400
 11
1166.0000
 21
 315.8600
  0
LINE
  8
200
  6
AUSGEZOGEN
 10
1151.8600
 20
 330.0000
 11
1160.1400
 21
 330.0000
  0
LINE
  8
200
  6
AUSGEZOGEN
 10
1146.0000
 20
 315.8600
 11
1146.0000
 21
 324.1400
  0
LINE
  8
200
  6
AUSGEZOGEN
 10
1160.1400
 20
 310.0000
 11
1151.8600
 21
 310.0000
  0
LINE
  8
200
  6
AUSGEZOGEN
 10
1136.0000
 20
 324.1400
 11
1136.0000
 21
 315.8600
  0
LINE
  8
200
  6
AUSGEZOGEN
 10
1121.8600
 20
 330.0000
 11
1130.1400
 21
 330.0000
  0
LINE
  8
200
  6
AUSGEZOGEN
 10
1116.0000
 20
 315.8600
 11
1116.0000
 21
 324.1400
  0
LINE
  8
200
  6
AUSGEZOGEN
 10
1130.1400
 20
 310.0000
 11
1121.8600
 21
 310.0000
  0
LINE
  8
200
  6
AUSGEZOGEN
 10
1106.0000
 20
 324.1400
 11
1106.0000
 21
 315.8600
  0
LINE
  8
200
  6
AUSGEZOGEN
 10
1091.8600
 20
 330.0000
 11
1100.1400
 21
 330.0000
  0
LINE
  8
200
  6
AUSGEZOGEN
 10
1086.0000
 20
 315.8600
 11
1086.0000
 21
 324.1400
  0
LINE
  8
200
  6
AUSGEZOGEN
 10
1100.1400
 20
 310.0000
 11
1091.8600
 21
 310.0000
  0
LINE
  8
200
  6
AUSGEZOGEN
 10
1556.0000
 20
 285.8600
 11
1556.0000
 21
 294.1400
  0
LINE
  8
200
  6
AUSGEZOGEN
 10
1541.8600
 20
 300.0000
 11
1550.1400
 21
 300.0000
  0
LINE
  8
200
  6
AUSGEZOGEN
 10
1536.0000
 20
 285.8600
 11
1536.0000
 21
 294.1400
  0
LINE
  8
200
  6
AUSGEZOGEN
 10
1550.1400
 20
 280.0000
 11
1541.8600
 21
 280.0000
  0
LINE
  8
200
  6
AUSGEZOGEN
 10
1526.0000
 20
 294.1400
 11
1526.0000
 21
 285.8600
  0
LINE
  8
200
  6
AUSGEZOGEN
 10
1511.8600
 20
 300.0000
 11
1520.1400
 21
 300.0000
  0
LINE
  8
200
  6
AUSGEZOGEN
 10
1506.0000
 20
 285.8600
 11
1506.0000
 21
 294.1400
  0
LINE
  8
200
  6
AUSGEZOGEN
 10
1520.1400
 20
 280.0000
 11
1511.8600
 21
 280.0000
  0
LINE
  8
200
  6
AUSGEZOGEN
 10
1496.0000
 20
 294.1400
 11
1496.0000
 21
 285.8600
  0
LINE
  8
200
  6
AUSGEZOGEN
 10
1481.8600
 20
 300.0000
 11
1490.1400
 21
 300.0000
  0
LINE
  8
200
  6
AUSGEZOGEN
 10
1476.0000
 20
 285.8600
 11
1476.0000
 21
 294.1400
  0
LINE
  8
200
  6
AUSGEZOGEN
 10
1490.1400
 20
 280.0000
 11
1481.8600
 21
 280.0000
  0
LINE
  8
200
  6
AUSGEZOGEN
 10
1466.0000
 20
 294.1400
 11
1466.0000
 21
 285.8600
  0
LINE
  8
200
  6
AUSGEZOGEN
 10
1451.8600
 20
 300.0000
 11
1460.1400
 21
 300.0000
  0
LINE
  8
200
  6
AUSGEZOGEN
 10
1446.0000
 20
 285.8600
 11
1446.0000
 21
 294.1400
  0
LINE
  8
200
  6
AUSGEZOGEN
 10
1460.1400
 20
 280.0000
 11
1451.8600
 21
 280.0000
  0
LINE
  8
200
  6
AUSGEZOGEN
 10
1436.0000
 20
 294.1400
 11
1436.0000
 21
 285.8600
  0
LINE
  8
200
  6
AUSGEZOGEN
 10
1421.8600
 20
 300.0000
 11
1430.1400
 21
 300.0000
  0
LINE
  8
200
  6
AUSGEZOGEN
 10
1416.0000
 20
 285.8600
 11
1416.0000
 21
 294.1400
  0
LINE
  8
200
  6
AUSGEZOGEN
 10
1430.1400
 20
 280.0000
 11
1421.8600
 21
 280.0000
  0
LINE
  8
200
  6
AUSGEZOGEN
 10
1406.0000
 20
 294.1400
 11
1406.0000
 21
 285.8600
  0
LINE
  8
200
  6
AUSGEZOGEN
 10
1391.8600
 20
 300.0000
 11
1400.1400
 21
 300.0000
  0
LINE
  8
200
  6
AUSGEZOGEN
 10
1386.0000
 20
 285.8600
 11
1386.0000
 21
 294.1400
  0
LINE
  8
200
  6
AUSGEZOGEN
 10
1400.1400
 20
 280.0000
 11
1391.8600
 21
 280.0000
  0
LINE
  8
200
  6
AUSGEZOGEN
 10
1376.0000
 20
 294.1400
 11
1376.0000
 21
 285.8600
  0
LINE
  8
200
  6
AUSGEZOGEN
 10
1361.8600
 20
 300.0000
 11
1370.1400
 21
 300.0000
  0
LINE
  8
200
  6
AUSGEZOGEN
 10
1356.0000
 20
 285.8600
 11
1356.0000
 21
 294.1400
  0
LINE
  8
200
  6
AUSGEZOGEN
 10
1370.1400
 20
 280.0000
 11
1361.8600
 21
 280.0000
  0
LINE
  8
200
  6
AUSGEZOGEN
 10
1346.0000
 20
 294.1400
 11
1346.0000
 21
 285.8600
  0
LINE
  8
200
  6
AUSGEZOGEN
 10
1331.8600
 20
 300.0000
 11
1340.1400
 21
 300.0000
  0
LINE
  8
200
  6
AUSGEZOGEN
 10
1326.0000
 20
 285.8600
 11
1326.0000
 21
 294.1400
  0
LINE
  8
200
  6
AUSGEZOGEN
 10
1340.1400
 20
 280.0000
 11
1331.8600
 21
 280.0000
  0
LINE
  8
200
  6
AUSGEZOGEN
 10
1316.0000
 20
 294.1400
 11
1316.0000
 21
 285.8600
  0
LINE
  8
200
  6
AUSGEZOGEN
 10
1301.8600
 20
 300.0000
 11
1310.1400
 21
 300.0000
  0
LINE
  8
200
  6
AUSGEZOGEN
 10
1296.0000
 20
 285.8600
 11
1296.0000
 21
 294.1400
  0
LINE
  8
200
  6
AUSGEZOGEN
 10
1310.1400
 20
 280.0000
 11
1301.8600
 21
 280.0000
  0
LINE
  8
200
  6
AUSGEZOGEN
 10
1286.0000
 20
 294.1400
 11
1286.0000
 21
 285.8600
  0
LINE
  8
200
  6
AUSGEZOGEN
 10
1271.8600
 20
 300.0000
 11
1280.1400
 21
 300.0000
  0
LINE
  8
200
  6
AUSGEZOGEN
 10
1266.0000
 20
 285.8600
 11
1266.0000
 21
 294.1400
  0
LINE
  8
200
  6
AUSGEZOGEN
 10
1280.1400
 20
 280.0000
 11
1271.8600
 21
 280.0000
  0
LINE
  8
200
  6
AUSGEZOGEN
 10
1256.0000
 20
 294.1400
 11
1256.0000
 21
 285.8600
  0
LINE
  8
200
  6
AUSGEZOGEN
 10
1241.8600
 20
 300.0000
 11
1250.1400
 21
 300.0000
  0
LINE
  8
200
  6
AUSGEZOGEN
 10
1236.0000
 20
 285.8600
 11
1236.0000
 21
 294.1400
  0
LINE
  8
200
  6
AUSGEZOGEN
 10
1250.1400
 20
 280.0000
 11
1241.8600
 21
 280.0000
  0
LINE
  8
200
  6
AUSGEZOGEN
 10
1226.0000
 20
 294.1400
 11
1226.0000
 21
 285.8600
  0
LINE
  8
200
  6
AUSGEZOGEN
 10
1211.8600
 20
 300.0000
 11
1220.1400
 21
 300.0000
  0
LINE
  8
200
  6
AUSGEZOGEN
 10
1206.0000
 20
 285.8600
 11
1206.0000
 21
 294.1400
  0
LINE
  8
200
  6
AUSGEZOGEN
 10
1220.1400
 20
 280.0000
 11
1211.8600
 21
 280.0000
  0
LINE
  8
200
  6
AUSGEZOGEN
 10
1196.0000
 20
 294.1400
 11
1196.0000
 21
 285.8600
  0
LINE
  8
200
  6
AUSGEZOGEN
 10
1181.8600
 20
 300.0000
 11
1190.1400
 21
 300.0000
  0
LINE
  8
200
  6
AUSGEZOGEN
 10
1176.0000
 20
 285.8600
 11
1176.0000
 21
 294.1400
  0
LINE
  8
200
  6
AUSGEZOGEN
 10
1190.1400
 20
 280.0000
 11
1181.8600
 21
 280.0000
  0
LINE
  8
200
  6
AUSGEZOGEN
 10
1166.0000
 20
 294.1400
 11
1166.0000
 21
 285.8600
  0
LINE
  8
200
  6
AUSGEZOGEN
 10
1151.8600
 20
 300.0000
 11
1160.1400
 21
 300.0000
  0
LINE
  8
200
  6
AUSGEZOGEN
 10
1146.0000
 20
 285.8600
 11
1146.0000
 21
 294.1400
  0
LINE
  8
200
  6
AUSGEZOGEN
 10
1160.1400
 20
 280.0000
 11
1151.8600
 21
 280.0000
  0
LINE
  8
200
  6
AUSGEZOGEN
 10
1136.0000
 20
 294.1400
 11
1136.0000
 21
 285.8600
  0
LINE
  8
200
  6
AUSGEZOGEN
 10
1121.8600
 20
 300.0000
 11
1130.1400
 21
 300.0000
  0
LINE
  8
200
  6
AUSGEZOGEN
 10
1116.0000
 20
 285.8600
 11
1116.0000
 21
 294.1400
  0
LINE
  8
200
  6
AUSGEZOGEN
 10
1130.1400
 20
 280.0000
 11
1121.8600
 21
 280.0000
  0
LINE
  8
200
  6
AUSGEZOGEN
 10
1106.0000
 20
 294.1400
 11
1106.0000
 21
 285.8600
  0
LINE
  8
200
  6
AUSGEZOGEN
 10
1091.8600
 20
 300.0000
 11
1100.1400
 21
 300.0000
  0
LINE
  8
200
  6
AUSGEZOGEN
 10
1086.0000
 20
 285.8600
 11
1086.0000
 21
 294.1400
  0
LINE
  8
200
  6
AUSGEZOGEN
 10
1100.1400
 20
 280.0000
 11
1091.8600
 21
 280.0000
  0
LINE
  8
200
  6
AUSGEZOGEN
 10
1556.0000
 20
 105.8600
 11
1556.0000
 21
 114.1400
  0
LINE
  8
200
  6
AUSGEZOGEN
 10
1541.8600
 20
 120.0000
 11
1550.1400
 21
 120.0000
  0
LINE
  8
200
  6
AUSGEZOGEN
 10
1536.0000
 20
 105.8600
 11
1536.0000
 21
 114.1400
  0
LINE
  8
200
  6
AUSGEZOGEN
 10
1550.1400
 20
 100.0000
 11
1541.8600
 21
 100.0000
  0
LINE
  8
200
  6
AUSGEZOGEN
 10
1526.0000
 20
 114.1400
 11
1526.0000
 21
 105.8600
  0
LINE
  8
200
  6
AUSGEZOGEN
 10
1511.8600
 20
 120.0000
 11
1520.1400
 21
 120.0000
  0
LINE
  8
200
  6
AUSGEZOGEN
 10
1506.0000
 20
 105.8600
 11
1506.0000
 21
 114.1400
  0
LINE
  8
200
  6
AUSGEZOGEN
 10
1520.1400
 20
 100.0000
 11
1511.8600
 21
 100.0000
  0
LINE
  8
200
  6
AUSGEZOGEN
 10
1496.0000
 20
 114.1400
 11
1496.0000
 21
 105.8600
  0
LINE
  8
200
  6
AUSGEZOGEN
 10
1481.8600
 20
 120.0000
 11
1490.1400
 21
 120.0000
  0
LINE
  8
200
  6
AUSGEZOGEN
 10
1476.0000
 20
 105.8600
 11
1476.0000
 21
 114.1400
  0
LINE
  8
200
  6
AUSGEZOGEN
 10
1490.1400
 20
 100.0000
 11
1481.8600
 21
 100.0000
  0
LINE
  8
200
  6
AUSGEZOGEN
 10
1466.0000
 20
 114.1400
 11
1466.0000
 21
 105.8600
  0
LINE
  8
200
  6
AUSGEZOGEN
 10
1451.8600
 20
 120.0000
 11
1460.1400
 21
 120.0000
  0
LINE
  8
200
  6
AUSGEZOGEN
 10
1446.0000
 20
 105.8600
 11
1446.0000
 21
 114.1400
  0
LINE
  8
200
  6
AUSGEZOGEN
 10
1460.1400
 20
 100.0000
 11
1451.8600
 21
 100.0000
  0
LINE
  8
200
  6
AUSGEZOGEN
 10
1436.0000
 20
 114.1400
 11
1436.0000
 21
 105.8600
  0
LINE
  8
200
  6
AUSGEZOGEN
 10
1421.8600
 20
 120.0000
 11
1430.1400
 21
 120.0000
  0
LINE
  8
200
  6
AUSGEZOGEN
 10
1416.0000
 20
 105.8600
 11
1416.0000
 21
 114.1400
  0
LINE
  8
200
  6
AUSGEZOGEN
 10
1430.1400
 20
 100.0000
 11
1421.8600
 21
 100.0000
  0
LINE
  8
200
  6
AUSGEZOGEN
 10
1406.0000
 20
 114.1400
 11
1406.0000
 21
 105.8600
  0
LINE
  8
200
  6
AUSGEZOGEN
 10
1391.8600
 20
 120.0000
 11
1400.1400
 21
 120.0000
  0
LINE
  8
200
  6
AUSGEZOGEN
 10
1386.0000
 20
 105.8600
 11
1386.0000
 21
 114.1400
  0
LINE
  8
200
  6
AUSGEZOGEN
 10
1400.1400
 20
 100.0000
 11
1391.8600
 21
 100.0000
  0
LINE
  8
200
  6
AUSGEZOGEN
 10
1376.0000
 20
 114.1400
 11
1376.0000
 21
 105.8600
  0
LINE
  8
200
  6
AUSGEZOGEN
 10
1361.8600
 20
 120.0000
 11
1370.1400
 21
 120.0000
  0
LINE
  8
200
  6
AUSGEZOGEN
 10
1356.0000
 20
 105.8600
 11
1356.0000
 21
 114.1400
  0
LINE
  8
200
  6
AUSGEZOGEN
 10
1370.1400
 20
 100.0000
 11
1361.8600
 21
 100.0000
  0
LINE
  8
200
  6
AUSGEZOGEN
 10
1346.0000
 20
 114.1400
 11
1346.0000
 21
 105.8600
  0
LINE
  8
200
  6
AUSGEZOGEN
 10
1331.8600
 20
 120.0000
 11
1340.1400
 21
 120.0000
  0
LINE
  8
200
  6
AUSGEZOGEN
 10
1326.0000
 20
 105.8600
 11
1326.0000
 21
 114.1400
  0
LINE
  8
200
  6
AUSGEZOGEN
 10
1340.1400
 20
 100.0000
 11
1331.8600
 21
 100.0000
  0
LINE
  8
200
  6
AUSGEZOGEN
 10
1316.0000
 20
 114.1400
 11
1316.0000
 21
 105.8600
  0
LINE
  8
200
  6
AUSGEZOGEN
 10
1301.8600
 20
 120.0000
 11
1310.1400
 21
 120.0000
  0
LINE
  8
200
  6
AUSGEZOGEN
 10
1296.0000
 20
 105.8600
 11
1296.0000
 21
 114.1400
  0
LINE
  8
200
  6
AUSGEZOGEN
 10
1310.1400
 20
 100.0000
 11
1301.8600
 21
 100.0000
  0
LINE
  8
200
  6
AUSGEZOGEN
 10
1286.0000
 20
 114.1400
 11
1286.0000
 21
 105.8600
  0
LINE
  8
200
  6
AUSGEZOGEN
 10
1271.8600
 20
 120.0000
 11
1280.1400
 21
 120.0000
  0
LINE
  8
200
  6
AUSGEZOGEN
 10
1266.0000
 20
 105.8600
 11
1266.0000
 21
 114.1400
  0
LINE
  8
200
  6
AUSGEZOGEN
 10
1280.1400
 20
 100.0000
 11
1271.8600
 21
 100.0000
  0
LINE
  8
200
  6
AUSGEZOGEN
 10
1256.0000
 20
 114.1400
 11
1256.0000
 21
 105.8600
  0
LINE
  8
200
  6
AUSGEZOGEN
 10
1241.8600
 20
 120.0000
 11
1250.1400
 21
 120.0000
  0
LINE
  8
200
  6
AUSGEZOGEN
 10
1236.0000
 20
 105.8600
 11
1236.0000
 21
 114.1400
  0
LINE
  8
200
  6
AUSGEZOGEN
 10
1250.1400
 20
 100.0000
 11
1241.8600
 21
 100.0000
  0
LINE
  8
200
  6
AUSGEZOGEN
 10
1226.0000
 20
 114.1400
 11
1226.0000
 21
 105.8600
  0
LINE
  8
200
  6
AUSGEZOGEN
 10
1211.8600
 20
 120.0000
 11
1220.1400
 21
 120.0000
  0
LINE
  8
200
  6
AUSGEZOGEN
 10
1206.0000
 20
 105.8600
 11
1206.0000
 21
 114.1400
  0
LINE
  8
200
  6
AUSGEZOGEN
 10
1220.1400
 20
 100.0000
 11
1211.8600
 21
 100.0000
  0
LINE
  8
200
  6
AUSGEZOGEN
 10
1196.0000
 20
 114.1400
 11
1196.0000
 21
 105.8600
  0
LINE
  8
200
  6
AUSGEZOGEN
 10
1181.8600
 20
 120.0000
 11
1190.1400
 21
 120.0000
  0
LINE
  8
200
  6
AUSGEZOGEN
 10
1176.0000
 20
 105.8600
 11
1176.0000
 21
 114.1400
  0
LINE
  8
200
  6
AUSGEZOGEN
 10
1190.1400
 20
 100.0000
 11
1181.8600
 21
 100.0000
  0
LINE
  8
200
  6
AUSGEZOGEN
 10
1166.0000
 20
 114.1400
 11
1166.0000
 21
 105.8600
  0
LINE
  8
200
  6
AUSGEZOGEN
 10
1151.8600
 20
 120.0000
 11
1160.1400
 21
 120.0000
  0
LINE
  8
200
  6
AUSGEZOGEN
 10
1146.0000
 20
 105.8600
 11
1146.0000
 21
 114.1400
  0
LINE
  8
200
  6
AUSGEZOGEN
 10
1160.1400
 20
 100.0000
 11
1151.8600
 21
 100.0000
  0
LINE
  8
200
  6
AUSGEZOGEN
 10
1136.0000
 20
 114.1400
 11
1136.0000
 21
 105.8600
  0
LINE
  8
200
  6
AUSGEZOGEN
 10
1121.8600
 20
 120.0000
 11
1130.1400
 21
 120.0000
  0
LINE
  8
200
  6
AUSGEZOGEN
 10
1116.0000
 20
 105.8600
 11
1116.0000
 21
 114.1400
  0
LINE
  8
200
  6
AUSGEZOGEN
 10
1130.1400
 20
 100.0000
 11
1121.8600
 21
 100.0000
  0
LINE
  8
200
  6
AUSGEZOGEN
 10
1106.0000
 20
 114.1400
 11
1106.0000
 21
 105.8600
  0
LINE
  8
200
  6
AUSGEZOGEN
 10
1091.8600
 20
 120.0000
 11
1100.1400
 21
 120.0000
  0
LINE
  8
200
  6
AUSGEZOGEN
 10
1086.0000
 20
 105.8600
 11
1086.0000
 21
 114.1400
  0
LINE
  8
200
  6
AUSGEZOGEN
 10
1100.1400
 20
 100.0000
 11
1091.8600
 21
 100.0000
  0
LINE
  8
200
  6
AUSGEZOGEN
 10
1556.0000
 20
 144.1400
 11
1556.0000
 21
 135.8600
  0
LINE
  8
200
  6
AUSGEZOGEN
 10
1541.8600
 20
 150.0000
 11
1550.1400
 21
 150.0000
  0
LINE
  8
200
  6
AUSGEZOGEN
 10
1536.0000
 20
 135.8600
 11
1536.0000
 21
 144.1400
  0
LINE
  8
200
  6
AUSGEZOGEN
 10
1550.1400
 20
 130.0000
 11
1541.8600
 21
 130.0000
  0
LINE
  8
200
  6
AUSGEZOGEN
 10
1526.0000
 20
 144.1400
 11
1526.0000
 21
 135.8600
  0
LINE
  8
200
  6
AUSGEZOGEN
 10
1511.8600
 20
 150.0000
 11
1520.1400
 21
 150.0000
  0
LINE
  8
200
  6
AUSGEZOGEN
 10
1506.0000
 20
 135.8600
 11
1506.0000
 21
 144.1400
  0
LINE
  8
200
  6
AUSGEZOGEN
 10
1520.1400
 20
 130.0000
 11
1511.8600
 21
 130.0000
  0
LINE
  8
200
  6
AUSGEZOGEN
 10
1496.0000
 20
 144.1400
 11
1496.0000
 21
 135.8600
  0
LINE
  8
200
  6
AUSGEZOGEN
 10
1481.8600
 20
 150.0000
 11
1490.1400
 21
 150.0000
  0
LINE
  8
200
  6
AUSGEZOGEN
 10
1476.0000
 20
 135.8600
 11
1476.0000
 21
 144.1400
  0
LINE
  8
200
  6
AUSGEZOGEN
 10
1490.1400
 20
 130.0000
 11
1481.8600
 21
 130.0000
  0
LINE
  8
200
  6
AUSGEZOGEN
 10
1466.0000
 20
 144.1400
 11
1466.0000
 21
 135.8600
  0
LINE
  8
200
  6
AUSGEZOGEN
 10
1451.8600
 20
 150.0000
 11
1460.1400
 21
 150.0000
  0
LINE
  8
200
  6
AUSGEZOGEN
 10
1446.0000
 20
 135.8600
 11
1446.0000
 21
 144.1400
  0
LINE
  8
200
  6
AUSGEZOGEN
 10
1460.1400
 20
 130.0000
 11
1451.8600
 21
 130.0000
  0
LINE
  8
200
  6
AUSGEZOGEN
 10
1436.0000
 20
 144.1400
 11
1436.0000
 21
 135.8600
  0
LINE
  8
200
  6
AUSGEZOGEN
 10
1421.8600
 20
 150.0000
 11
1430.1400
 21
 150.0000
  0
LINE
  8
200
  6
AUSGEZOGEN
 10
1416.0000
 20
 135.8600
 11
1416.0000
 21
 144.1400
  0
LINE
  8
200
  6
AUSGEZOGEN
 10
1430.1400
 20
 130.0000
 11
1421.8600
 21
 130.0000
  0
LINE
  8
200
  6
AUSGEZOGEN
 10
1406.0000
 20
 144.1400
 11
1406.0000
 21
 135.8600
  0
LINE
  8
200
  6
AUSGEZOGEN
 10
1391.8600
 20
 150.0000
 11
1400.1400
 21
 150.0000
  0
LINE
  8
200
  6
AUSGEZOGEN
 10
1386.0000
 20
 135.8600
 11
1386.0000
 21
 144.1400
  0
LINE
  8
200
  6
AUSGEZOGEN
 10
1400.1400
 20
 130.0000
 11
1391.8600
 21
 130.0000
  0
LINE
  8
200
  6
AUSGEZOGEN
 10
1376.0000
 20
 144.1400
 11
1376.0000
 21
 135.8600
  0
LINE
  8
200
  6
AUSGEZOGEN
 10
1361.8600
 20
 150.0000
 11
1370.1400
 21
 150.0000
  0
LINE
  8
200
  6
AUSGEZOGEN
 10
1356.0000
 20
 135.8600
 11
1356.0000
 21
 144.1400
  0
LINE
  8
200
  6
AUSGEZOGEN
 10
1370.1400
 20
 130.0000
 11
1361.8600
 21
 130.0000
  0
LINE
  8
200
  6
AUSGEZOGEN
 10
1346.0000
 20
 144.1400
 11
1346.0000
 21
 135.8600
  0
LINE
  8
200
  6
AUSGEZOGEN
 10
1331.8600
 20
 150.0000
 11
1340.1400
 21
 150.0000
  0
LINE
  8
200
  6
AUSGEZOGEN
 10
1326.0000
 20
 135.8600
 11
1326.0000
 21
 144.1400
  0
LINE
  8
200
  6
AUSGEZOGEN
 10
1340.1400
 20
 130.0000
 11
1331.8600
 21
 130.0000
  0
LINE
  8
200
  6
AUSGEZOGEN
 10
1316.0000
 20
 144.1400
 11
1316.0000
 21
 135.8600
  0
LINE
  8
200
  6
AUSGEZOGEN
 10
1301.8600
 20
 150.0000
 11
1310.1400
 21
 150.0000
  0
LINE
  8
200
  6
AUSGEZOGEN
 10
1296.0000
 20
 135.8600
 11
1296.0000
 21
 144.1400
  0
LINE
  8
200
  6
AUSGEZOGEN
 10
1310.1400
 20
 130.0000
 11
1301.8600
 21
 130.0000
  0
LINE
  8
200
  6
AUSGEZOGEN
 10
1286.0000
 20
 144.1400
 11
1286.0000
 21
 135.8600
  0
LINE
  8
200
  6
AUSGEZOGEN
 10
1271.8600
 20
 150.0000
 11
1280.1400
 21
 150.0000
  0
LINE
  8
200
  6
AUSGEZOGEN
 10
1266.0000
 20
 135.8600
 11
1266.0000
 21
 144.1400
  0
LINE
  8
200
  6
AUSGEZOGEN
 10
1280.1400
 20
 130.0000
 11
1271.8600
 21
 130.0000
  0
LINE
  8
200
  6
AUSGEZOGEN
 10
1256.0000
 20
 144.1400
 11
1256.0000
 21
 135.8600
  0
LINE
  8
200
  6
AUSGEZOGEN
 10
1241.8600
 20
 150.0000
 11
1250.1400
 21
 150.0000
  0
LINE
  8
200
  6
AUSGEZOGEN
 10
1236.0000
 20
 135.8600
 11
1236.0000
 21
 144.1400
  0
LINE
  8
200
  6
AUSGEZOGEN
 10
1250.1400
 20
 130.0000
 11
1241.8600
 21
 130.0000
  0
LINE
  8
200
  6
AUSGEZOGEN
 10
1226.0000
 20
 144.1400
 11
1226.0000
 21
 135.8600
  0
LINE
  8
200
  6
AUSGEZOGEN
 10
1211.8600
 20
 150.0000
 11
1220.1400
 21
 150.0000
  0
LINE
  8
200
  6
AUSGEZOGEN
 10
1206.0000
 20
 135.8600
 11
1206.0000
 21
 144.1400
  0
LINE
  8
200
  6
AUSGEZOGEN
 10
1220.1400
 20
 130.0000
 11
1211.8600
 21
 130.0000
  0
LINE
  8
200
  6
AUSGEZOGEN
 10
1196.0000
 20
 144.1400
 11
1196.0000
 21
 135.8600
  0
LINE
  8
200
  6
AUSGEZOGEN
 10
1181.8600
 20
 150.0000
 11
1190.1400
 21
 150.0000
  0
LINE
  8
200
  6
AUSGEZOGEN
 10
1176.0000
 20
 135.8600
 11
1176.0000
 21
 144.1400
  0
LINE
  8
200
  6
AUSGEZOGEN
 10
1190.1400
 20
 130.0000
 11
1181.8600
 21
 130.0000
  0
LINE
  8
200
  6
AUSGEZOGEN
 10
1166.0000
 20
 144.1400
 11
1166.0000
 21
 135.8600
  0
LINE
  8
200
  6
AUSGEZOGEN
 10
1151.8600
 20
 150.0000
 11
1160.1400
 21
 150.0000
  0
LINE
  8
200
  6
AUSGEZOGEN
 10
1146.0000
 20
 135.8600
 11
1146.0000
 21
 144.1400
  0
LINE
  8
200
  6
AUSGEZOGEN
 10
1160.1400
 20
 130.0000
 11
1151.8600
 21
 130.0000
  0
LINE
  8
200
  6
AUSGEZOGEN
 10
1136.0000
 20
 144.1400
 11
1136.0000
 21
 135.8600
  0
LINE
  8
200
  6
AUSGEZOGEN
 10
1121.8600
 20
 150.0000
 11
1130.1400
 21
 150.0000
  0
LINE
  8
200
  6
AUSGEZOGEN
 10
1116.0000
 20
 135.8600
 11
1116.0000
 21
 144.1400
  0
LINE
  8
200
  6
AUSGEZOGEN
 10
1130.1400
 20
 130.0000
 11
1121.8600
 21
 130.0000
  0
LINE
  8
200
  6
AUSGEZOGEN
 10
1106.0000
 20
 144.1400
 11
1106.0000
 21
 135.8600
  0
LINE
  8
200
  6
AUSGEZOGEN
 10
1091.8600
 20
 150.0000
 11
1100.1400
 21
 150.0000
  0
LINE
  8
200
  6
AUSGEZOGEN
 10
1086.0000
 20
 135.8600
 11
1086.0000
 21
 144.1400
  0
LINE
  8
200
  6
AUSGEZOGEN
 10
1100.1400
 20
 130.0000
 11
1091.8600
 21
 130.0000
  0
LINE
  8
200
  6
AUSGEZOGEN
 10
1556.0000
 20
 174.1400
 11
1556.0000
 21
 165.8600
  0
LINE
  8
200
  6
AUSGEZOGEN
 10
1541.8600
 20
 180.0000
 11
1550.1400
 21
 180.0000
  0
LINE
  8
200
  6
AUSGEZOGEN
 10
1536.0000
 20
 165.8600
 11
1536.0000
 21
 174.1400
  0
LINE
  8
200
  6
AUSGEZOGEN
 10
1550.1400
 20
 160.0000
 11
1541.8600
 21
 160.0000
  0
LINE
  8
200
  6
AUSGEZOGEN
 10
1526.0000
 20
 174.1400
 11
1526.0000
 21
 165.8600
  0
LINE
  8
200
  6
AUSGEZOGEN
 10
1511.8600
 20
 180.0000
 11
1520.1400
 21
 180.0000
  0
LINE
  8
200
  6
AUSGEZOGEN
 10
1506.0000
 20
 165.8600
 11
1506.0000
 21
 174.1400
  0
LINE
  8
200
  6
AUSGEZOGEN
 10
1520.1400
 20
 160.0000
 11
1511.8600
 21
 160.0000
  0
LINE
  8
200
  6
AUSGEZOGEN
 10
1496.0000
 20
 174.1400
 11
1496.0000
 21
 165.8600
  0
LINE
  8
200
  6
AUSGEZOGEN
 10
1481.8600
 20
 180.0000
 11
1490.1400
 21
 180.0000
  0
LINE
  8
200
  6
AUSGEZOGEN
 10
1476.0000
 20
 165.8600
 11
1476.0000
 21
 174.1400
  0
LINE
  8
200
  6
AUSGEZOGEN
 10
1490.1400
 20
 160.0000
 11
1481.8600
 21
 160.0000
  0
LINE
  8
200
  6
AUSGEZOGEN
 10
1466.0000
 20
 174.1400
 11
1466.0000
 21
 165.8600
  0
LINE
  8
200
  6
AUSGEZOGEN
 10
1451.8600
 20
 180.0000
 11
1460.1400
 21
 180.0000
  0
LINE
  8
200
  6
AUSGEZOGEN
 10
1446.0000
 20
 165.8600
 11
1446.0000
 21
 174.1400
  0
LINE
  8
200
  6
AUSGEZOGEN
 10
1460.1400
 20
 160.0000
 11
1451.8600
 21
 160.0000
  0
LINE
  8
200
  6
AUSGEZOGEN
 10
1436.0000
 20
 174.1400
 11
1436.0000
 21
 165.8600
  0
LINE
  8
200
  6
AUSGEZOGEN
 10
1421.8600
 20
 180.0000
 11
1430.1400
 21
 180.0000
  0
LINE
  8
200
  6
AUSGEZOGEN
 10
1416.0000
 20
 165.8600
 11
1416.0000
 21
 174.1400
  0
LINE
  8
200
  6
AUSGEZOGEN
 10
1430.1400
 20
 160.0000
 11
1421.8600
 21
 160.0000
  0
LINE
  8
200
  6
AUSGEZOGEN
 10
1406.0000
 20
 174.1400
 11
1406.0000
 21
 165.8600
  0
LINE
  8
200
  6
AUSGEZOGEN
 10
1391.8600
 20
 180.0000
 11
1400.1400
 21
 180.0000
  0
LINE
  8
200
  6
AUSGEZOGEN
 10
1386.0000
 20
 165.8600
 11
1386.0000
 21
 174.1400
  0
LINE
  8
200
  6
AUSGEZOGEN
 10
1400.1400
 20
 160.0000
 11
1391.8600
 21
 160.0000
  0
LINE
  8
200
  6
AUSGEZOGEN
 10
1376.0000
 20
 174.1400
 11
1376.0000
 21
 165.8600
  0
LINE
  8
200
  6
AUSGEZOGEN
 10
1361.8600
 20
 180.0000
 11
1370.1400
 21
 180.0000
  0
LINE
  8
200
  6
AUSGEZOGEN
 10
1356.0000
 20
 165.8600
 11
1356.0000
 21
 174.1400
  0
LINE
  8
200
  6
AUSGEZOGEN
 10
1370.1400
 20
 160.0000
 11
1361.8600
 21
 160.0000
  0
LINE
  8
200
  6
AUSGEZOGEN
 10
1346.0000
 20
 174.1400
 11
1346.0000
 21
 165.8600
  0
LINE
  8
200
  6
AUSGEZOGEN
 10
1331.8600
 20
 180.0000
 11
1340.1400
 21
 180.0000
  0
LINE
  8
200
  6
AUSGEZOGEN
 10
1326.0000
 20
 165.8600
 11
1326.0000
 21
 174.1400
  0
LINE
  8
200
  6
AUSGEZOGEN
 10
1340.1400
 20
 160.0000
 11
1331.8600
 21
 160.0000
  0
LINE
  8
200
  6
AUSGEZOGEN
 10
1316.0000
 20
 174.1400
 11
1316.0000
 21
 165.8600
  0
LINE
  8
200
  6
AUSGEZOGEN
 10
1301.8600
 20
 180.0000
 11
1310.1400
 21
 180.0000
  0
LINE
  8
200
  6
AUSGEZOGEN
 10
1296.0000
 20
 165.8600
 11
1296.0000
 21
 174.1400
  0
LINE
  8
200
  6
AUSGEZOGEN
 10
1310.1400
 20
 160.0000
 11
1301.8600
 21
 160.0000
  0
LINE
  8
200
  6
AUSGEZOGEN
 10
1286.0000
 20
 174.1400
 11
1286.0000
 21
 165.8600
  0
LINE
  8
200
  6
AUSGEZOGEN
 10
1271.8600
 20
 180.0000
 11
1280.1400
 21
 180.0000
  0
LINE
  8
200
  6
AUSGEZOGEN
 10
1266.0000
 20
 165.8600
 11
1266.0000
 21
 174.1400
  0
LINE
  8
200
  6
AUSGEZOGEN
 10
1280.1400
 20
 160.0000
 11
1271.8600
 21
 160.0000
  0
LINE
  8
200
  6
AUSGEZOGEN
 10
1256.0000
 20
 174.1400
 11
1256.0000
 21
 165.8600
  0
LINE
  8
200
  6
AUSGEZOGEN
 10
1241.8600
 20
 180.0000
 11
1250.1400
 21
 180.0000
  0
LINE
  8
200
  6
AUSGEZOGEN
 10
1236.0000
 20
 165.8600
 11
1236.0000
 21
 174.1400
  0
LINE
  8
200
  6
AUSGEZOGEN
 10
1250.1400
 20
 160.0000
 11
1241.8600
 21
 160.0000
  0
LINE
  8
200
  6
AUSGEZOGEN
 10
1226.0000
 20
 174.1400
 11
1226.0000
 21
 165.8600
  0
LINE
  8
200
  6
AUSGEZOGEN
 10
1211.8600
 20
 180.0000
 11
1220.1400
 21
 180.0000
  0
LINE
  8
200
  6
AUSGEZOGEN
 10
1206.0000
 20
 165.8600
 11
1206.0000
 21
 174.1400
  0
LINE
  8
200
  6
AUSGEZOGEN
 10
1220.1400
 20
 160.0000
 11
1211.8600
 21
 160.0000
  0
LINE
  8
200
  6
AUSGEZOGEN
 10
1196.0000
 20
 174.1400
 11
1196.0000
 21
 165.8600
  0
LINE
  8
200
  6
AUSGEZOGEN
 10
1181.8600
 20
 180.0000
 11
1190.1400
 21
 180.0000
  0
LINE
  8
200
  6
AUSGEZOGEN
 10
1176.0000
 20
 165.8600
 11
1176.0000
 21
 174.1400
  0
LINE
  8
200
  6
AUSGEZOGEN
 10
1190.1400
 20
 160.0000
 11
1181.8600
 21
 160.0000
  0
LINE
  8
200
  6
AUSGEZOGEN
 10
1166.0000
 20
 174.1400
 11
1166.0000
 21
 165.8600
  0
LINE
  8
200
  6
AUSGEZOGEN
 10
1151.8600
 20
 180.0000
 11
1160.1400
 21
 180.0000
  0
LINE
  8
200
  6
AUSGEZOGEN
 10
1146.0000
 20
 165.8600
 11
1146.0000
 21
 174.1400
  0
LINE
  8
200
  6
AUSGEZOGEN
 10
1160.1400
 20
 160.0000
 11
1151.8600
 21
 160.0000
  0
LINE
  8
200
  6
AUSGEZOGEN
 10
1136.0000
 20
 174.1400
 11
1136.0000
 21
 165.8600
  0
LINE
  8
200
  6
AUSGEZOGEN
 10
1121.8600
 20
 180.0000
 11
1130.1400
 21
 180.0000
  0
LINE
  8
200
  6
AUSGEZOGEN
 10
1116.0000
 20
 165.8600
 11
1116.0000
 21
 174.1400
  0
LINE
  8
200
  6
AUSGEZOGEN
 10
1130.1400
 20
 160.0000
 11
1121.8600
 21
 160.0000
  0
LINE
  8
200
  6
AUSGEZOGEN
 10
1106.0000
 20
 174.1400
 11
1106.0000
 21
 165.8600
  0
LINE
  8
200
  6
AUSGEZOGEN
 10
1091.8600
 20
 180.0000
 11
1100.1400
 21
 180.0000
  0
LINE
  8
200
  6
AUSGEZOGEN
 10
1086.0000
 20
 165.8600
 11
1086.0000
 21
 174.1400
  0
LINE
  8
200
  6
AUSGEZOGEN
 10
1100.1400
 20
 160.0000
 11
1091.8600
 21
 160.0000
  0
LINE
  8
200
  6
AUSGEZOGEN
 10
1556.0000
 20
 204.1400
 11
1556.0000
 21
 195.8600
  0
LINE
  8
200
  6
AUSGEZOGEN
 10
1541.8600
 20
 210.0000
 11
1550.1400
 21
 210.0000
  0
LINE
  8
200
  6
AUSGEZOGEN
 10
1536.0000
 20
 195.8600
 11
1536.0000
 21
 204.1400
  0
LINE
  8
200
  6
AUSGEZOGEN
 10
1550.1400
 20
 190.0000
 11
1541.8600
 21
 190.0000
  0
LINE
  8
200
  6
AUSGEZOGEN
 10
1526.0000
 20
 204.1400
 11
1526.0000
 21
 195.8600
  0
LINE
  8
200
  6
AUSGEZOGEN
 10
1511.8600
 20
 210.0000
 11
1520.1400
 21
 210.0000
  0
LINE
  8
200
  6
AUSGEZOGEN
 10
1506.0000
 20
 195.8600
 11
1506.0000
 21
 204.1400
  0
LINE
  8
200
  6
AUSGEZOGEN
 10
1520.1400
 20
 190.0000
 11
1511.8600
 21
 190.0000
  0
LINE
  8
200
  6
AUSGEZOGEN
 10
1496.0000
 20
 204.1400
 11
1496.0000
 21
 195.8600
  0
LINE
  8
200
  6
AUSGEZOGEN
 10
1481.8600
 20
 210.0000
 11
1490.1400
 21
 210.0000
  0
LINE
  8
200
  6
AUSGEZOGEN
 10
1476.0000
 20
 195.8600
 11
1476.0000
 21
 204.1400
  0
LINE
  8
200
  6
AUSGEZOGEN
 10
1490.1400
 20
 190.0000
 11
1481.8600
 21
 190.0000
  0
LINE
  8
200
  6
AUSGEZOGEN
 10
1466.0000
 20
 204.1400
 11
1466.0000
 21
 195.8600
  0
LINE
  8
200
  6
AUSGEZOGEN
 10
1451.8600
 20
 210.0000
 11
1460.1400
 21
 210.0000
  0
LINE
  8
200
  6
AUSGEZOGEN
 10
1446.0000
 20
 195.8600
 11
1446.0000
 21
 204.1400
  0
LINE
  8
200
  6
AUSGEZOGEN
 10
1460.1400
 20
 190.0000
 11
1451.8600
 21
 190.0000
  0
LINE
  8
200
  6
AUSGEZOGEN
 10
1436.0000
 20
 204.1400
 11
1436.0000
 21
 195.8600
  0
LINE
  8
200
  6
AUSGEZOGEN
 10
1421.8600
 20
 210.0000
 11
1430.1400
 21
 210.0000
  0
LINE
  8
200
  6
AUSGEZOGEN
 10
1416.0000
 20
 195.8600
 11
1416.0000
 21
 204.1400
  0
LINE
  8
200
  6
AUSGEZOGEN
 10
1430.1400
 20
 190.0000
 11
1421.8600
 21
 190.0000
  0
LINE
  8
200
  6
AUSGEZOGEN
 10
1406.0000
 20
 204.1400
 11
1406.0000
 21
 195.8600
  0
LINE
  8
200
  6
AUSGEZOGEN
 10
1391.8600
 20
 210.0000
 11
1400.1400
 21
 210.0000
  0
LINE
  8
200
  6
AUSGEZOGEN
 10
1386.0000
 20
 195.8600
 11
1386.0000
 21
 204.1400
  0
LINE
  8
200
  6
AUSGEZOGEN
 10
1400.1400
 20
 190.0000
 11
1391.8600
 21
 190.0000
  0
LINE
  8
200
  6
AUSGEZOGEN
 10
1376.0000
 20
 204.1400
 11
1376.0000
 21
 195.8600
  0
LINE
  8
200
  6
AUSGEZOGEN
 10
1361.8600
 20
 210.0000
 11
1370.1400
 21
 210.0000
  0
LINE
  8
200
  6
AUSGEZOGEN
 10
1356.0000
 20
 195.8600
 11
1356.0000
 21
 204.1400
  0
LINE
  8
200
  6
AUSGEZOGEN
 10
1370.1400
 20
 190.0000
 11
1361.8600
 21
 190.0000
  0
LINE
  8
200
  6
AUSGEZOGEN
 10
1346.0000
 20
 204.1400
 11
1346.0000
 21
 195.8600
  0
LINE
  8
200
  6
AUSGEZOGEN
 10
1331.8600
 20
 210.0000
 11
1340.1400
 21
 210.0000
  0
LINE
  8
200
  6
AUSGEZOGEN
 10
1326.0000
 20
 195.8600
 11
1326.0000
 21
 204.1400
  0
LINE
  8
200
  6
AUSGEZOGEN
 10
1340.1400
 20
 190.0000
 11
1331.8600
 21
 190.0000
  0
LINE
  8
200
  6
AUSGEZOGEN
 10
1316.0000
 20
 204.1400
 11
1316.0000
 21
 195.8600
  0
LINE
  8
200
  6
AUSGEZOGEN
 10
1301.8600
 20
 210.0000
 11
1310.1400
 21
 210.0000
  0
LINE
  8
200
  6
AUSGEZOGEN
 10
1296.0000
 20
 195.8600
 11
1296.0000
 21
 204.1400
  0
LINE
  8
200
  6
AUSGEZOGEN
 10
1310.1400
 20
 190.0000
 11
1301.8600
 21
 190.0000
  0
LINE
  8
200
  6
AUSGEZOGEN
 10
1286.0000
 20
 204.1400
 11
1286.0000
 21
 195.8600
  0
LINE
  8
200
  6
AUSGEZOGEN
 10
1271.8600
 20
 210.0000
 11
1280.1400
 21
 210.0000
  0
LINE
  8
200
  6
AUSGEZOGEN
 10
1266.0000
 20
 195.8600
 11
1266.0000
 21
 204.1400
  0
LINE
  8
200
  6
AUSGEZOGEN
 10
1280.1400
 20
 190.0000
 11
1271.8600
 21
 190.0000
  0
LINE
  8
200
  6
AUSGEZOGEN
 10
1256.0000
 20
 204.1400
 11
1256.0000
 21
 195.8600
  0
LINE
  8
200
  6
AUSGEZOGEN
 10
1241.8600
 20
 210.0000
 11
1250.1400
 21
 210.0000
  0
LINE
  8
200
  6
AUSGEZOGEN
 10
1236.0000
 20
 195.8600
 11
1236.0000
 21
 204.1400
  0
LINE
  8
200
  6
AUSGEZOGEN
 10
1250.1400
 20
 190.0000
 11
1241.8600
 21
 190.0000
  0
LINE
  8
200
  6
AUSGEZOGEN
 10
1226.0000
 20
 204.1400
 11
1226.0000
 21
 195.8600
  0
LINE
  8
200
  6
AUSGEZOGEN
 10
1211.8600
 20
 210.0000
 11
1220.1400
 21
 210.0000
  0
LINE
  8
200
  6
AUSGEZOGEN
 10
1206.0000
 20
 195.8600
 11
1206.0000
 21
 204.1400
  0
LINE
  8
200
  6
AUSGEZOGEN
 10
1220.1400
 20
 190.0000
 11
1211.8600
 21
 190.0000
  0
LINE
  8
200
  6
AUSGEZOGEN
 10
1196.0000
 20
 204.1400
 11
1196.0000
 21
 195.8600
  0
LINE
  8
200
  6
AUSGEZOGEN
 10
1181.8600
 20
 210.0000
 11
1190.1400
 21
 210.0000
  0
LINE
  8
200
  6
AUSGEZOGEN
 10
1176.0000
 20
 195.8600
 11
1176.0000
 21
 204.1400
  0
LINE
  8
200
  6
AUSGEZOGEN
 10
1190.1400
 20
 190.0000
 11
1181.8600
 21
 190.0000
  0
LINE
  8
200
  6
AUSGEZOGEN
 10
1166.0000
 20
 204.1400
 11
1166.0000
 21
 195.8600
  0
LINE
  8
200
  6
AUSGEZOGEN
 10
1151.8600
 20
 210.0000
 11
1160.1400
 21
 210.0000
  0
LINE
  8
200
  6
AUSGEZOGEN
 10
1146.0000
 20
 195.8600
 11
1146.0000
 21
 204.1400
  0
LINE
  8
200
  6
AUSGEZOGEN
 10
1160.1400
 20
 190.0000
 11
1151.8600
 21
 190.0000
  0
LINE
  8
200
  6
AUSGEZOGEN
 10
1136.0000
 20
 204.1400
 11
1136.0000
 21
 195.8600
  0
LINE
  8
200
  6
AUSGEZOGEN
 10
1121.8600
 20
 210.0000
 11
1130.1400
 21
 210.0000
  0
LINE
  8
200
  6
AUSGEZOGEN
 10
1116.0000
 20
 195.8600
 11
1116.0000
 21
 204.1400
  0
LINE
  8
200
  6
AUSGEZOGEN
 10
1130.1400
 20
 190.0000
 11
1121.8600
 21
 190.0000
  0
LINE
  8
200
  6
AUSGEZOGEN
 10
1106.0000
 20
 204.1400
 11
1106.0000
 21
 195.8600
  0
LINE
  8
200
  6
AUSGEZOGEN
 10
1091.8600
 20
 210.0000
 11
1100.1400
 21
 210.0000
  0
LINE
  8
200
  6
AUSGEZOGEN
 10
1086.0000
 20
 195.8600
 11
1086.0000
 21
 204.1400
  0
LINE
  8
200
  6
AUSGEZOGEN
 10
1100.1400
 20
 190.0000
 11
1091.8600
 21
 190.0000
  0
LINE
  8
200
  6
AUSGEZOGEN
 10
1556.0000
 20
 234.1400
 11
1556.0000
 21
 225.8600
  0
LINE
  8
200
  6
AUSGEZOGEN
 10
1541.8600
 20
 240.0000
 11
1550.1400
 21
 240.0000
  0
LINE
  8
200
  6
AUSGEZOGEN
 10
1536.0000
 20
 225.8600
 11
1536.0000
 21
 234.1400
  0
LINE
  8
200
  6
AUSGEZOGEN
 10
1550.1400
 20
 220.0000
 11
1541.8600
 21
 220.0000
  0
LINE
  8
200
  6
AUSGEZOGEN
 10
1526.0000
 20
 234.1400
 11
1526.0000
 21
 225.8600
  0
LINE
  8
200
  6
AUSGEZOGEN
 10
1511.8600
 20
 240.0000
 11
1520.1400
 21
 240.0000
  0
LINE
  8
200
  6
AUSGEZOGEN
 10
1506.0000
 20
 225.8600
 11
1506.0000
 21
 234.1400
  0
LINE
  8
200
  6
AUSGEZOGEN
 10
1520.1400
 20
 220.0000
 11
1511.8600
 21
 220.0000
  0
LINE
  8
200
  6
AUSGEZOGEN
 10
1496.0000
 20
 234.1400
 11
1496.0000
 21
 225.8600
  0
LINE
  8
200
  6
AUSGEZOGEN
 10
1481.8600
 20
 240.0000
 11
1490.1400
 21
 240.0000
  0
LINE
  8
200
  6
AUSGEZOGEN
 10
1476.0000
 20
 225.8600
 11
1476.0000
 21
 234.1400
  0
LINE
  8
200
  6
AUSGEZOGEN
 10
1490.1400
 20
 220.0000
 11
1481.8600
 21
 220.0000
  0
LINE
  8
200
  6
AUSGEZOGEN
 10
1466.0000
 20
 234.1400
 11
1466.0000
 21
 225.8600
  0
LINE
  8
200
  6
AUSGEZOGEN
 10
1451.8600
 20
 240.0000
 11
1460.1400
 21
 240.0000
  0
LINE
  8
200
  6
AUSGEZOGEN
 10
1446.0000
 20
 225.8600
 11
1446.0000
 21
 234.1400
  0
LINE
  8
200
  6
AUSGEZOGEN
 10
1460.1400
 20
 220.0000
 11
1451.8600
 21
 220.0000
  0
LINE
  8
200
  6
AUSGEZOGEN
 10
1436.0000
 20
 234.1400
 11
1436.0000
 21
 225.8600
  0
LINE
  8
200
  6
AUSGEZOGEN
 10
1421.8600
 20
 240.0000
 11
1430.1400
 21
 240.0000
  0
LINE
  8
200
  6
AUSGEZOGEN
 10
1416.0000
 20
 225.8600
 11
1416.0000
 21
 234.1400
  0
LINE
  8
200
  6
AUSGEZOGEN
 10
1430.1400
 20
 220.0000
 11
1421.8600
 21
 220.0000
  0
LINE
  8
200
  6
AUSGEZOGEN
 10
1406.0000
 20
 234.1400
 11
1406.0000
 21
 225.8600
  0
LINE
  8
200
  6
AUSGEZOGEN
 10
1391.8600
 20
 240.0000
 11
1400.1400
 21
 240.0000
  0
LINE
  8
200
  6
AUSGEZOGEN
 10
1386.0000
 20
 225.8600
 11
1386.0000
 21
 234.1400
  0
LINE
  8
200
  6
AUSGEZOGEN
 10
1400.1400
 20
 220.0000
 11
1391.8600
 21
 220.0000
  0
LINE
  8
200
  6
AUSGEZOGEN
 10
1376.0000
 20
 234.1400
 11
1376.0000
 21
 225.8600
  0
LINE
  8
200
  6
AUSGEZOGEN
 10
1361.8600
 20
 240.0000
 11
1370.1400
 21
 240.0000
  0
LINE
  8
200
  6
AUSGEZOGEN
 10
1356.0000
 20
 225.8600
 11
1356.0000
 21
 234.1400
  0
LINE
  8
200
  6
AUSGEZOGEN
 10
1370.1400
 20
 220.0000
 11
1361.8600
 21
 220.0000
  0
LINE
  8
200
  6
AUSGEZOGEN
 10
1346.0000
 20
 234.1400
 11
1346.0000
 21
 225.8600
  0
LINE
  8
200
  6
AUSGEZOGEN
 10
1331.8600
 20
 240.0000
 11
1340.1400
 21
 240.0000
  0
LINE
  8
200
  6
AUSGEZOGEN
 10
1326.0000
 20
 225.8600
 11
1326.0000
 21
 234.1400
  0
LINE
  8
200
  6
AUSGEZOGEN
 10
1340.1400
 20
 220.0000
 11
1331.8600
 21
 220.0000
  0
LINE
  8
200
  6
AUSGEZOGEN
 10
1316.0000
 20
 234.1400
 11
1316.0000
 21
 225.8600
  0
LINE
  8
200
  6
AUSGEZOGEN
 10
1301.8600
 20
 240.0000
 11
1310.1400
 21
 240.0000
  0
LINE
  8
200
  6
AUSGEZOGEN
 10
1296.0000
 20
 225.8600
 11
1296.0000
 21
 234.1400
  0
LINE
  8
200
  6
AUSGEZOGEN
 10
1310.1400
 20
 220.0000
 11
1301.8600
 21
 220.0000
  0
LINE
  8
200
  6
AUSGEZOGEN
 10
1286.0000
 20
 234.1400
 11
1286.0000
 21
 225.8600
  0
LINE
  8
200
  6
AUSGEZOGEN
 10
1271.8600
 20
 240.0000
 11
1280.1400
 21
 240.0000
  0
LINE
  8
200
  6
AUSGEZOGEN
 10
1266.0000
 20
 225.8600
 11
1266.0000
 21
 234.1400
  0
LINE
  8
200
  6
AUSGEZOGEN
 10
1280.1400
 20
 220.0000
 11
1271.8600
 21
 220.0000
  0
LINE
  8
200
  6
AUSGEZOGEN
 10
1256.0000
 20
 234.1400
 11
1256.0000
 21
 225.8600
  0
LINE
  8
200
  6
AUSGEZOGEN
 10
1241.8600
 20
 240.0000
 11
1250.1400
 21
 240.0000
  0
LINE
  8
200
  6
AUSGEZOGEN
 10
1236.0000
 20
 225.8600
 11
1236.0000
 21
 234.1400
  0
LINE
  8
200
  6
AUSGEZOGEN
 10
1250.1400
 20
 220.0000
 11
1241.8600
 21
 220.0000
  0
LINE
  8
200
  6
AUSGEZOGEN
 10
1226.0000
 20
 234.1400
 11
1226.0000
 21
 225.8600
  0
LINE
  8
200
  6
AUSGEZOGEN
 10
1211.8600
 20
 240.0000
 11
1220.1400
 21
 240.0000
  0
LINE
  8
200
  6
AUSGEZOGEN
 10
1206.0000
 20
 225.8600
 11
1206.0000
 21
 234.1400
  0
LINE
  8
200
  6
AUSGEZOGEN
 10
1220.1400
 20
 220.0000
 11
1211.8600
 21
 220.0000
  0
LINE
  8
200
  6
AUSGEZOGEN
 10
1196.0000
 20
 234.1400
 11
1196.0000
 21
 225.8600
  0
LINE
  8
200
  6
AUSGEZOGEN
 10
1181.8600
 20
 240.0000
 11
1190.1400
 21
 240.0000
  0
LINE
  8
200
  6
AUSGEZOGEN
 10
1176.0000
 20
 225.8600
 11
1176.0000
 21
 234.1400
  0
LINE
  8
200
  6
AUSGEZOGEN
 10
1190.1400
 20
 220.0000
 11
1181.8600
 21
 220.0000
  0
LINE
  8
200
  6
AUSGEZOGEN
 10
1166.0000
 20
 234.1400
 11
1166.0000
 21
 225.8600
  0
LINE
  8
200
  6
AUSGEZOGEN
 10
1151.8600
 20
 240.0000
 11
1160.1400
 21
 240.0000
  0
LINE
  8
200
  6
AUSGEZOGEN
 10
1146.0000
 20
 225.8600
 11
1146.0000
 21
 234.1400
  0
LINE
  8
200
  6
AUSGEZOGEN
 10
1160.1400
 20
 220.0000
 11
1151.8600
 21
 220.0000
  0
LINE
  8
200
  6
AUSGEZOGEN
 10
1136.0000
 20
 234.1400
 11
1136.0000
 21
 225.8600
  0
LINE
  8
200
  6
AUSGEZOGEN
 10
1121.8600
 20
 240.0000
 11
1130.1400
 21
 240.0000
  0
LINE
  8
200
  6
AUSGEZOGEN
 10
1116.0000
 20
 225.8600
 11
1116.0000
 21
 234.1400
  0
LINE
  8
200
  6
AUSGEZOGEN
 10
1130.1400
 20
 220.0000
 11
1121.8600
 21
 220.0000
  0
LINE
  8
200
  6
AUSGEZOGEN
 10
1106.0000
 20
 234.1400
 11
1106.0000
 21
 225.8600
  0
LINE
  8
200
  6
AUSGEZOGEN
 10
1091.8600
 20
 240.0000
 11
1100.1400
 21
 240.0000
  0
LINE
  8
200
  6
AUSGEZOGEN
 10
1086.0000
 20
 225.8600
 11
1086.0000
 21
 234.1400
  0
LINE
  8
200
  6
AUSGEZOGEN
 10
1100.1400
 20
 220.0000
 11
1091.8600
 21
 220.0000
  0
LINE
  8
200
  6
AUSGEZOGEN
 10
1556.0000
 20
 264.1400
 11
1556.0000
 21
 255.8600
  0
LINE
  8
200
  6
AUSGEZOGEN
 10
1541.8600
 20
 270.0000
 11
1550.1400
 21
 270.0000
  0
LINE
  8
200
  6
AUSGEZOGEN
 10
1536.0000
 20
 255.8600
 11
1536.0000
 21
 264.1400
  0
LINE
  8
200
  6
AUSGEZOGEN
 10
1550.1400
 20
 250.0000
 11
1541.8600
 21
 250.0000
  0
LINE
  8
200
  6
AUSGEZOGEN
 10
1526.0000
 20
 264.1400
 11
1526.0000
 21
 255.8600
  0
LINE
  8
200
  6
AUSGEZOGEN
 10
1511.8600
 20
 270.0000
 11
1520.1400
 21
 270.0000
  0
LINE
  8
200
  6
AUSGEZOGEN
 10
1506.0000
 20
 255.8600
 11
1506.0000
 21
 264.1400
  0
LINE
  8
200
  6
AUSGEZOGEN
 10
1520.1400
 20
 250.0000
 11
1511.8600
 21
 250.0000
  0
LINE
  8
200
  6
AUSGEZOGEN
 10
1496.0000
 20
 264.1400
 11
1496.0000
 21
 255.8600
  0
LINE
  8
200
  6
AUSGEZOGEN
 10
1481.8600
 20
 270.0000
 11
1490.1400
 21
 270.0000
  0
LINE
  8
200
  6
AUSGEZOGEN
 10
1476.0000
 20
 255.8600
 11
1476.0000
 21
 264.1400
  0
LINE
  8
200
  6
AUSGEZOGEN
 10
1490.1400
 20
 250.0000
 11
1481.8600
 21
 250.0000
  0
LINE
  8
200
  6
AUSGEZOGEN
 10
1466.0000
 20
 264.1400
 11
1466.0000
 21
 255.8600
  0
LINE
  8
200
  6
AUSGEZOGEN
 10
1451.8600
 20
 270.0000
 11
1460.1400
 21
 270.0000
  0
LINE
  8
200
  6
AUSGEZOGEN
 10
1446.0000
 20
 255.8600
 11
1446.0000
 21
 264.1400
  0
LINE
  8
200
  6
AUSGEZOGEN
 10
1460.1400
 20
 250.0000
 11
1451.8600
 21
 250.0000
  0
LINE
  8
200
  6
AUSGEZOGEN
 10
1436.0000
 20
 264.1400
 11
1436.0000
 21
 255.8600
  0
LINE
  8
200
  6
AUSGEZOGEN
 10
1421.8600
 20
 270.0000
 11
1430.1400
 21
 270.0000
  0
LINE
  8
200
  6
AUSGEZOGEN
 10
1416.0000
 20
 255.8600
 11
1416.0000
 21
 264.1400
  0
LINE
  8
200
  6
AUSGEZOGEN
 10
1430.1400
 20
 250.0000
 11
1421.8600
 21
 250.0000
  0
LINE
  8
200
  6
AUSGEZOGEN
 10
1406.0000
 20
 264.1400
 11
1406.0000
 21
 255.8600
  0
LINE
  8
200
  6
AUSGEZOGEN
 10
1391.8600
 20
 270.0000
 11
1400.1400
 21
 270.0000
  0
LINE
  8
200
  6
AUSGEZOGEN
 10
1386.0000
 20
 255.8600
 11
1386.0000
 21
 264.1400
  0
LINE
  8
200
  6
AUSGEZOGEN
 10
1400.1400
 20
 250.0000
 11
1391.8600
 21
 250.0000
  0
LINE
  8
200
  6
AUSGEZOGEN
 10
1376.0000
 20
 264.1400
 11
1376.0000
 21
 255.8600
  0
LINE
  8
200
  6
AUSGEZOGEN
 10
1361.8600
 20
 270.0000
 11
1370.1400
 21
 270.0000
  0
LINE
  8
200
  6
AUSGEZOGEN
 10
1356.0000
 20
 255.8600
 11
1356.0000
 21
 264.1400
  0
LINE
  8
200
  6
AUSGEZOGEN
 10
1370.1400
 20
 250.0000
 11
1361.8600
 21
 250.0000
  0
LINE
  8
200
  6
AUSGEZOGEN
 10
1346.0000
 20
 264.1400
 11
1346.0000
 21
 255.8600
  0
LINE
  8
200
  6
AUSGEZOGEN
 10
1331.8600
 20
 270.0000
 11
1340.1400
 21
 270.0000
  0
LINE
  8
200
  6
AUSGEZOGEN
 10
1326.0000
 20
 255.8600
 11
1326.0000
 21
 264.1400
  0
LINE
  8
200
  6
AUSGEZOGEN
 10
1340.1400
 20
 250.0000
 11
1331.8600
 21
 250.0000
  0
LINE
  8
200
  6
AUSGEZOGEN
 10
1316.0000
 20
 264.1400
 11
1316.0000
 21
 255.8600
  0
LINE
  8
200
  6
AUSGEZOGEN
 10
1301.8600
 20
 270.0000
 11
1310.1400
 21
 270.0000
  0
LINE
  8
200
  6
AUSGEZOGEN
 10
1296.0000
 20
 255.8600
 11
1296.0000
 21
 264.1400
  0
LINE
  8
200
  6
AUSGEZOGEN
 10
1310.1400
 20
 250.0000
 11
1301.8600
 21
 250.0000
  0
LINE
  8
200
  6
AUSGEZOGEN
 10
1286.0000
 20
 264.1400
 11
1286.0000
 21
 255.8600
  0
LINE
  8
200
  6
AUSGEZOGEN
 10
1271.8600
 20
 270.0000
 11
1280.1400
 21
 270.0000
  0
LINE
  8
200
  6
AUSGEZOGEN
 10
1266.0000
 20
 255.8600
 11
1266.0000
 21
 264.1400
  0
LINE
  8
200
  6
AUSGEZOGEN
 10
1280.1400
 20
 250.0000
 11
1271.8600
 21
 250.0000
  0
LINE
  8
200
  6
AUSGEZOGEN
 10
1256.0000
 20
 264.1400
 11
1256.0000
 21
 255.8600
  0
LINE
  8
200
  6
AUSGEZOGEN
 10
1241.8600
 20
 270.0000
 11
1250.1400
 21
 270.0000
  0
LINE
  8
200
  6
AUSGEZOGEN
 10
1236.0000
 20
 255.8600
 11
1236.0000
 21
 264.1400
  0
LINE
  8
200
  6
AUSGEZOGEN
 10
1250.1400
 20
 250.0000
 11
1241.8600
 21
 250.0000
  0
LINE
  8
200
  6
AUSGEZOGEN
 10
1226.0000
 20
 264.1400
 11
1226.0000
 21
 255.8600
  0
LINE
  8
200
  6
AUSGEZOGEN
 10
1211.8600
 20
 270.0000
 11
1220.1400
 21
 270.0000
  0
LINE
  8
200
  6
AUSGEZOGEN
 10
1206.0000
 20
 255.8600
 11
1206.0000
 21
 264.1400
  0
LINE
  8
200
  6
AUSGEZOGEN
 10
1220.1400
 20
 250.0000
 11
1211.8600
 21
 250.0000
  0
LINE
  8
200
  6
AUSGEZOGEN
 10
1196.0000
 20
 264.1400
 11
1196.0000
 21
 255.8600
  0
LINE
  8
200
  6
AUSGEZOGEN
 10
1181.8600
 20
 270.0000
 11
1190.1400
 21
 270.0000
  0
LINE
  8
200
  6
AUSGEZOGEN
 10
1176.0000
 20
 255.8600
 11
1176.0000
 21
 264.1400
  0
LINE
  8
200
  6
AUSGEZOGEN
 10
1190.1400
 20
 250.0000
 11
1181.8600
 21
 250.0000
  0
LINE
  8
200
  6
AUSGEZOGEN
 10
1166.0000
 20
 264.1400
 11
1166.0000
 21
 255.8600
  0
LINE
  8
200
  6
AUSGEZOGEN
 10
1151.8600
 20
 270.0000
 11
1160.1400
 21
 270.0000
  0
LINE
  8
200
  6
AUSGEZOGEN
 10
1146.0000
 20
 255.8600
 11
1146.0000
 21
 264.1400
  0
LINE
  8
200
  6
AUSGEZOGEN
 10
1160.1400
 20
 250.0000
 11
1151.8600
 21
 250.0000
  0
LINE
  8
200
  6
AUSGEZOGEN
 10
1136.0000
 20
 264.1400
 11
1136.0000
 21
 255.8600
  0
LINE
  8
200
  6
AUSGEZOGEN
 10
1121.8600
 20
 270.0000
 11
1130.1400
 21
 270.0000
  0
LINE
  8
200
  6
AUSGEZOGEN
 10
1116.0000
 20
 255.8600
 11
1116.0000
 21
 264.1400
  0
LINE
  8
200
  6
AUSGEZOGEN
 10
1130.1400
 20
 250.0000
 11
1121.8600
 21
 250.0000
  0
LINE
  8
200
  6
AUSGEZOGEN
 10
1106.0000
 20
 264.1400
 11
1106.0000
 21
 255.8600
  0
LINE
  8
200
  6
AUSGEZOGEN
 10
1091.8600
 20
 270.0000
 11
1100.1400
 21
 270.0000
  0
LINE
  8
200
  6
AUSGEZOGEN
 10
1086.0000
 20
 255.8600
 11
1086.0000
 21
 264.1400
  0
LINE
  8
200
  6
AUSGEZOGEN
 10
1100.1400
 20
 250.0000
 11
1091.8600
 21
 250.0000
  0
LINE
  8
200
  6
AUSGEZOGEN
 10
1076.0000
 20
 354.1400
 11
1076.0000
 21
 345.8600
  0
LINE
  8
200
  6
AUSGEZOGEN
 10
1061.8600
 20
 360.0000
 11
1070.1400
 21
 360.0000
  0
LINE
  8
200
  6
AUSGEZOGEN
 10
1056.0000
 20
 345.8600
 11
1056.0000
 21
 354.1400
  0
LINE
  8
200
  6
AUSGEZOGEN
 10
1070.1400
 20
 340.0000
 11
1061.8600
 21
 340.0000
  0
LINE
  8
200
  6
AUSGEZOGEN
 10
1076.0000
 20
 315.8600
 11
1076.0000
 21
 324.1400
  0
LINE
  8
200
  6
AUSGEZOGEN
 10
1061.8600
 20
 330.0000
 11
1070.1400
 21
 330.0000
  0
LINE
  8
200
  6
AUSGEZOGEN
 10
1056.0000
 20
 315.8600
 11
1056.0000
 21
 324.1400
  0
LINE
  8
200
  6
AUSGEZOGEN
 10
1070.1400
 20
 310.0000
 11
1061.8600
 21
 310.0000
  0
LINE
  8
200
  6
AUSGEZOGEN
 10
1076.0000
 20
 285.8600
 11
1076.0000
 21
 294.1400
  0
LINE
  8
200
  6
AUSGEZOGEN
 10
1061.8600
 20
 300.0000
 11
1070.1400
 21
 300.0000
  0
LINE
  8
200
  6
AUSGEZOGEN
 10
1056.0000
 20
 285.8600
 11
1056.0000
 21
 294.1400
  0
LINE
  8
200
  6
AUSGEZOGEN
 10
1070.1400
 20
 280.0000
 11
1061.8600
 21
 280.0000
  0
LINE
  8
200
  6
AUSGEZOGEN
 10
1076.0000
 20
 105.8600
 11
1076.0000
 21
 114.1400
  0
LINE
  8
200
  6
AUSGEZOGEN
 10
1061.8600
 20
 120.0000
 11
1070.1400
 21
 120.0000
  0
LINE
  8
200
  6
AUSGEZOGEN
 10
1056.0000
 20
 105.8600
 11
1056.0000
 21
 114.1400
  0
LINE
  8
200
  6
AUSGEZOGEN
 10
1070.1400
 20
 100.0000
 11
1061.8600
 21
 100.0000
  0
LINE
  8
200
  6
AUSGEZOGEN
 10
1076.0000
 20
 144.1400
 11
1076.0000
 21
 135.8600
  0
LINE
  8
200
  6
AUSGEZOGEN
 10
1061.8600
 20
 150.0000
 11
1070.1400
 21
 150.0000
  0
LINE
  8
200
  6
AUSGEZOGEN
 10
1056.0000
 20
 135.8600
 11
1056.0000
 21
 144.1400
  0
LINE
  8
200
  6
AUSGEZOGEN
 10
1070.1400
 20
 130.0000
 11
1061.8600
 21
 130.0000
  0
LINE
  8
200
  6
AUSGEZOGEN
 10
1076.0000
 20
 174.1400
 11
1076.0000
 21
 165.8600
  0
LINE
  8
200
  6
AUSGEZOGEN
 10
1061.8600
 20
 180.0000
 11
1070.1400
 21
 180.0000
  0
LINE
  8
200
  6
AUSGEZOGEN
 10
1056.0000
 20
 165.8600
 11
1056.0000
 21
 174.1400
  0
LINE
  8
200
  6
AUSGEZOGEN
 10
1070.1400
 20
 160.0000
 11
1061.8600
 21
 160.0000
  0
LINE
  8
200
  6
AUSGEZOGEN
 10
1076.0000
 20
 204.1400
 11
1076.0000
 21
 195.8600
  0
LINE
  8
200
  6
AUSGEZOGEN
 10
1061.8600
 20
 210.0000
 11
1070.1400
 21
 210.0000
  0
LINE
  8
200
  6
AUSGEZOGEN
 10
1056.0000
 20
 195.8600
 11
1056.0000
 21
 204.1400
  0
LINE
  8
200
  6
AUSGEZOGEN
 10
1070.1400
 20
 190.0000
 11
1061.8600
 21
 190.0000
  0
LINE
  8
200
  6
AUSGEZOGEN
 10
1076.0000
 20
 234.1400
 11
1076.0000
 21
 225.8600
  0
LINE
  8
200
  6
AUSGEZOGEN
 10
1061.8600
 20
 240.0000
 11
1070.1400
 21
 240.0000
  0
LINE
  8
200
  6
AUSGEZOGEN
 10
1056.0000
 20
 225.8600
 11
1056.0000
 21
 234.1400
  0
LINE
  8
200
  6
AUSGEZOGEN
 10
1070.1400
 20
 220.0000
 11
1061.8600
 21
 220.0000
  0
LINE
  8
200
  6
AUSGEZOGEN
 10
1076.0000
 20
 264.1400
 11
1076.0000
 21
 255.8600
  0
LINE
  8
200
  6
AUSGEZOGEN
 10
1061.8600
 20
 270.0000
 11
1070.1400
 21
 270.0000
  0
LINE
  8
200
  6
AUSGEZOGEN
 10
1056.0000
 20
 255.8600
 11
1056.0000
 21
 264.1400
  0
LINE
  8
200
  6
AUSGEZOGEN
 10
1070.1400
 20
 250.0000
 11
1061.8600
 21
 250.0000
  0
LINE
  8
200
  6
AUSGEZOGEN
 10
1476.0000
 20
 315.8600
 11
1481.8600
 21
 310.0000
  0
LINE
  8
200
  6
AUSGEZOGEN
 10
1556.0000
 20
 345.8600
 11
1550.1400
 21
 340.0000
  0
LINE
  8
200
  6
AUSGEZOGEN
 10
1550.1400
 20
 360.0000
 11
1556.0000
 21
 354.1400
  0
LINE
  8
200
  6
AUSGEZOGEN
 10
1536.0000
 20
 354.1400
 11
1541.8600
 21
 360.0000
  0
LINE
  8
200
  6
AUSGEZOGEN
 10
1541.8600
 20
 340.0000
 11
1536.0000
 21
 345.8600
  0
LINE
  8
200
  6
AUSGEZOGEN
 10
1520.1400
 20
 340.0000
 11
1526.0000
 21
 345.8600
  0
LINE
  8
200
  6
AUSGEZOGEN
 10
1526.0000
 20
 354.1400
 11
1520.1400
 21
 360.0000
  0
LINE
  8
200
  6
AUSGEZOGEN
 10
1511.8600
 20
 360.0000
 11
1506.0000
 21
 354.1400
  0
LINE
  8
200
  6
AUSGEZOGEN
 10
1506.0000
 20
 345.8600
 11
1511.8600
 21
 340.0000
  0
LINE
  8
200
  6
AUSGEZOGEN
 10
1490.1400
 20
 340.0000
 11
1496.0000
 21
 345.8600
  0
LINE
  8
200
  6
AUSGEZOGEN
 10
1496.0000
 20
 354.1400
 11
1490.1400
 21
 360.0000
  0
LINE
  8
200
  6
AUSGEZOGEN
 10
1481.8600
 20
 360.0000
 11
1476.0000
 21
 354.1400
  0
LINE
  8
200
  6
AUSGEZOGEN
 10
1476.0000
 20
 345.8600
 11
1481.8600
 21
 340.0000
  0
LINE
  8
200
  6
AUSGEZOGEN
 10
1460.1400
 20
 340.0000
 11
1466.0000
 21
 345.8600
  0
LINE
  8
200
  6
AUSGEZOGEN
 10
1466.0000
 20
 354.1400
 11
1460.1400
 21
 360.0000
  0
LINE
  8
200
  6
AUSGEZOGEN
 10
1451.8600
 20
 360.0000
 11
1446.0000
 21
 354.1400
  0
LINE
  8
200
  6
AUSGEZOGEN
 10
1446.0000
 20
 345.8600
 11
1451.8600
 21
 340.0000
  0
LINE
  8
200
  6
AUSGEZOGEN
 10
1430.1400
 20
 340.0000
 11
1436.0000
 21
 345.8600
  0
LINE
  8
200
  6
AUSGEZOGEN
 10
1436.0000
 20
 354.1400
 11
1430.1400
 21
 360.0000
  0
LINE
  8
200
  6
AUSGEZOGEN
 10
1421.8600
 20
 360.0000
 11
1416.0000
 21
 354.1400
  0
LINE
  8
200
  6
AUSGEZOGEN
 10
1416.0000
 20
 345.8600
 11
1421.8600
 21
 340.0000
  0
LINE
  8
200
  6
AUSGEZOGEN
 10
1400.1400
 20
 340.0000
 11
1406.0000
 21
 345.8600
  0
LINE
  8
200
  6
AUSGEZOGEN
 10
1406.0000
 20
 354.1400
 11
1400.1400
 21
 360.0000
  0
LINE
  8
200
  6
AUSGEZOGEN
 10
1391.8600
 20
 360.0000
 11
1386.0000
 21
 354.1400
  0
LINE
  8
200
  6
AUSGEZOGEN
 10
1386.0000
 20
 345.8600
 11
1391.8600
 21
 340.0000
  0
LINE
  8
200
  6
AUSGEZOGEN
 10
1370.1400
 20
 340.0000
 11
1376.0000
 21
 345.8600
  0
LINE
  8
200
  6
AUSGEZOGEN
 10
1376.0000
 20
 354.1400
 11
1370.1400
 21
 360.0000
  0
LINE
  8
200
  6
AUSGEZOGEN
 10
1361.8600
 20
 360.0000
 11
1356.0000
 21
 354.1400
  0
LINE
  8
200
  6
AUSGEZOGEN
 10
1356.0000
 20
 345.8600
 11
1361.8600
 21
 340.0000
  0
LINE
  8
200
  6
AUSGEZOGEN
 10
1340.1400
 20
 340.0000
 11
1346.0000
 21
 345.8600
  0
LINE
  8
200
  6
AUSGEZOGEN
 10
1346.0000
 20
 354.1400
 11
1340.1400
 21
 360.0000
  0
LINE
  8
200
  6
AUSGEZOGEN
 10
1331.8600
 20
 360.0000
 11
1326.0000
 21
 354.1400
  0
LINE
  8
200
  6
AUSGEZOGEN
 10
1326.0000
 20
 345.8600
 11
1331.8600
 21
 340.0000
  0
LINE
  8
200
  6
AUSGEZOGEN
 10
1310.1400
 20
 340.0000
 11
1316.0000
 21
 345.8600
  0
LINE
  8
200
  6
AUSGEZOGEN
 10
1316.0000
 20
 354.1400
 11
1310.1400
 21
 360.0000
  0
LINE
  8
200
  6
AUSGEZOGEN
 10
1301.8600
 20
 360.0000
 11
1296.0000
 21
 354.1400
  0
LINE
  8
200
  6
AUSGEZOGEN
 10
1296.0000
 20
 345.8600
 11
1301.8600
 21
 340.0000
  0
LINE
  8
200
  6
AUSGEZOGEN
 10
1280.1400
 20
 340.0000
 11
1286.0000
 21
 345.8600
  0
LINE
  8
200
  6
AUSGEZOGEN
 10
1286.0000
 20
 354.1400
 11
1280.1400
 21
 360.0000
  0
LINE
  8
200
  6
AUSGEZOGEN
 10
1271.8600
 20
 360.0000
 11
1266.0000
 21
 354.1400
  0
LINE
  8
200
  6
AUSGEZOGEN
 10
1266.0000
 20
 345.8600
 11
1271.8600
 21
 340.0000
  0
LINE
  8
200
  6
AUSGEZOGEN
 10
1250.1400
 20
 340.0000
 11
1256.0000
 21
 345.8600
  0
LINE
  8
200
  6
AUSGEZOGEN
 10
1256.0000
 20
 354.1400
 11
1250.1400
 21
 360.0000
  0
LINE
  8
200
  6
AUSGEZOGEN
 10
1241.8600
 20
 360.0000
 11
1236.0000
 21
 354.1400
  0
LINE
  8
200
  6
AUSGEZOGEN
 10
1236.0000
 20
 345.8600
 11
1241.8600
 21
 340.0000
  0
LINE
  8
200
  6
AUSGEZOGEN
 10
1220.1400
 20
 340.0000
 11
1226.0000
 21
 345.8600
  0
LINE
  8
200
  6
AUSGEZOGEN
 10
1226.0000
 20
 354.1400
 11
1220.1400
 21
 360.0000
  0
LINE
  8
200
  6
AUSGEZOGEN
 10
1211.8600
 20
 360.0000
 11
1206.0000
 21
 354.1400
  0
LINE
  8
200
  6
AUSGEZOGEN
 10
1206.0000
 20
 345.8600
 11
1211.8600
 21
 340.0000
  0
LINE
  8
200
  6
AUSGEZOGEN
 10
1190.1400
 20
 340.0000
 11
1196.0000
 21
 345.8600
  0
LINE
  8
200
  6
AUSGEZOGEN
 10
1196.0000
 20
 354.1400
 11
1190.1400
 21
 360.0000
  0
LINE
  8
200
  6
AUSGEZOGEN
 10
1181.8600
 20
 360.0000
 11
1176.0000
 21
 354.1400
  0
LINE
  8
200
  6
AUSGEZOGEN
 10
1176.0000
 20
 345.8600
 11
1181.8600
 21
 340.0000
  0
LINE
  8
200
  6
AUSGEZOGEN
 10
1160.1400
 20
 340.0000
 11
1166.0000
 21
 345.8600
  0
LINE
  8
200
  6
AUSGEZOGEN
 10
1166.0000
 20
 354.1400
 11
1160.1400
 21
 360.0000
  0
LINE
  8
200
  6
AUSGEZOGEN
 10
1151.8600
 20
 360.0000
 11
1146.0000
 21
 354.1400
  0
LINE
  8
200
  6
AUSGEZOGEN
 10
1146.0000
 20
 345.8600
 11
1151.8600
 21
 340.0000
  0
LINE
  8
200
  6
AUSGEZOGEN
 10
1130.1400
 20
 340.0000
 11
1136.0000
 21
 345.8600
  0
LINE
  8
200
  6
AUSGEZOGEN
 10
1136.0000
 20
 354.1400
 11
1130.1400
 21
 360.0000
  0
LINE
  8
200
  6
AUSGEZOGEN
 10
1121.8600
 20
 360.0000
 11
1116.0000
 21
 354.1400
  0
LINE
  8
200
  6
AUSGEZOGEN
 10
1116.0000
 20
 345.8600
 11
1121.8600
 21
 340.0000
  0
LINE
  8
200
  6
AUSGEZOGEN
 10
1100.1400
 20
 340.0000
 11
1106.0000
 21
 345.8600
  0
LINE
  8
200
  6
AUSGEZOGEN
 10
1106.0000
 20
 354.1400
 11
1100.1400
 21
 360.0000
  0
LINE
  8
200
  6
AUSGEZOGEN
 10
1091.8600
 20
 360.0000
 11
1086.0000
 21
 354.1400
  0
LINE
  8
200
  6
AUSGEZOGEN
 10
1086.0000
 20
 345.8600
 11
1091.8600
 21
 340.0000
  0
LINE
  8
200
  6
AUSGEZOGEN
 10
1070.1400
 20
 340.0000
 11
1076.0000
 21
 345.8600
  0
LINE
  8
200
  6
AUSGEZOGEN
 10
1076.0000
 20
 354.1400
 11
1070.1400
 21
 360.0000
  0
LINE
  8
200
  6
AUSGEZOGEN
 10
1061.8600
 20
 360.0000
 11
1056.0000
 21
 354.1400
  0
LINE
  8
200
  6
AUSGEZOGEN
 10
1056.0000
 20
 345.8600
 11
1061.8600
 21
 340.0000
  0
LINE
  8
200
  6
AUSGEZOGEN
 10
1070.1400
 20
 310.0000
 11
1076.0000
 21
 315.8600
  0
LINE
  8
200
  6
AUSGEZOGEN
 10
1076.0000
 20
 324.1400
 11
1070.1400
 21
 330.0000
  0
LINE
  8
200
  6
AUSGEZOGEN
 10
1061.8600
 20
 330.0000
 11
1056.0000
 21
 324.1400
  0
LINE
  8
200
  6
AUSGEZOGEN
 10
1056.0000
 20
 315.8600
 11
1061.8600
 21
 310.0000
  0
LINE
  8
200
  6
AUSGEZOGEN
 10
1070.1400
 20
 280.0000
 11
1076.0000
 21
 285.8600
  0
LINE
  8
200
  6
AUSGEZOGEN
 10
1076.0000
 20
 294.1400
 11
1070.1400
 21
 300.0000
  0
LINE
  8
200
  6
AUSGEZOGEN
 10
1061.8600
 20
 300.0000
 11
1056.0000
 21
 294.1400
  0
LINE
  8
200
  6
AUSGEZOGEN
 10
1056.0000
 20
 285.8600
 11
1061.8600
 21
 280.0000
  0
LINE
  8
200
  6
AUSGEZOGEN
 10
1070.1400
 20
 100.0000
 11
1076.0000
 21
 105.8600
  0
LINE
  8
200
  6
AUSGEZOGEN
 10
1076.0000
 20
 114.1400
 11
1070.1400
 21
 120.0000
  0
LINE
  8
200
  6
AUSGEZOGEN
 10
1061.8600
 20
 120.0000
 11
1056.0000
 21
 114.1400
  0
LINE
  8
200
  6
AUSGEZOGEN
 10
1056.0000
 20
 105.8600
 11
1061.8600
 21
 100.0000
  0
LINE
  8
200
  6
AUSGEZOGEN
 10
1076.0000
 20
 135.8600
 11
1070.1400
 21
 130.0000
  0
LINE
  8
200
  6
AUSGEZOGEN
 10
1070.1400
 20
 150.0000
 11
1076.0000
 21
 144.1400
  0
LINE
  8
200
  6
AUSGEZOGEN
 10
1056.0000
 20
 144.1400
 11
1061.8600
 21
 150.0000
  0
LINE
  8
200
  6
AUSGEZOGEN
 10
1061.8600
 20
 130.0000
 11
1056.0000
 21
 135.8600
  0
LINE
  8
200
  6
AUSGEZOGEN
 10
1076.0000
 20
 165.8600
 11
1070.1400
 21
 160.0000
  0
LINE
  8
200
  6
AUSGEZOGEN
 10
1070.1400
 20
 180.0000
 11
1076.0000
 21
 174.1400
  0
LINE
  8
200
  6
AUSGEZOGEN
 10
1056.0000
 20
 174.1400
 11
1061.8600
 21
 180.0000
  0
LINE
  8
200
  6
AUSGEZOGEN
 10
1061.8600
 20
 160.0000
 11
1056.0000
 21
 165.8600
  0
LINE
  8
200
  6
AUSGEZOGEN
 10
1076.0000
 20
 195.8600
 11
1070.1400
 21
 190.0000
  0
LINE
  8
200
  6
AUSGEZOGEN
 10
1070.1400
 20
 210.0000
 11
1076.0000
 21
 204.1400
  0
LINE
  8
200
  6
AUSGEZOGEN
 10
1056.0000
 20
 204.1400
 11
1061.8600
 21
 210.0000
  0
LINE
  8
200
  6
AUSGEZOGEN
 10
1061.8600
 20
 190.0000
 11
1056.0000
 21
 195.8600
  0
LINE
  8
200
  6
AUSGEZOGEN
 10
1076.0000
 20
 225.8600
 11
1070.1400
 21
 220.0000
  0
LINE
  8
200
  6
AUSGEZOGEN
 10
1070.1400
 20
 240.0000
 11
1076.0000
 21
 234.1400
  0
LINE
  8
200
  6
AUSGEZOGEN
 10
1056.0000
 20
 234.1400
 11
1061.8600
 21
 240.0000
  0
LINE
  8
200
  6
AUSGEZOGEN
 10
1061.8600
 20
 220.0000
 11
1056.0000
 21
 225.8600
  0
LINE
  8
200
  6
AUSGEZOGEN
 10
1076.0000
 20
 255.8600
 11
1070.1400
 21
 250.0000
  0
LINE
  8
200
  6
AUSGEZOGEN
 10
1070.1400
 20
 270.0000
 11
1076.0000
 21
 264.1400
  0
LINE
  8
200
  6
AUSGEZOGEN
 10
1056.0000
 20
 264.1400
 11
1061.8600
 21
 270.0000
  0
LINE
  8
200
  6
AUSGEZOGEN
 10
1061.8600
 20
 250.0000
 11
1056.0000
 21
 255.8600
  0
LINE
  8
200
  6
AUSGEZOGEN
 10
1556.0000
 20
 315.8600
 11
1550.1400
 21
 310.0000
  0
LINE
  8
200
  6
AUSGEZOGEN
 10
1550.1400
 20
 330.0000
 11
1556.0000
 21
 324.1400
  0
LINE
  8
200
  6
AUSGEZOGEN
 10
1536.0000
 20
 324.1400
 11
1541.8600
 21
 330.0000
  0
LINE
  8
200
  6
AUSGEZOGEN
 10
1541.8600
 20
 310.0000
 11
1536.0000
 21
 315.8600
  0
LINE
  8
200
  6
AUSGEZOGEN
 10
1520.1400
 20
 310.0000
 11
1526.0000
 21
 315.8600
  0
LINE
  8
200
  6
AUSGEZOGEN
 10
1526.0000
 20
 324.1400
 11
1520.1400
 21
 330.0000
  0
LINE
  8
200
  6
AUSGEZOGEN
 10
1511.8600
 20
 330.0000
 11
1506.0000
 21
 324.1400
  0
LINE
  8
200
  6
AUSGEZOGEN
 10
1506.0000
 20
 315.8600
 11
1511.8600
 21
 310.0000
  0
LINE
  8
200
  6
AUSGEZOGEN
 10
1490.1400
 20
 310.0000
 11
1496.0000
 21
 315.8600
  0
LINE
  8
200
  6
AUSGEZOGEN
 10
1496.0000
 20
 324.1400
 11
1490.1400
 21
 330.0000
  0
LINE
  8
200
  6
AUSGEZOGEN
 10
1481.8600
 20
 330.0000
 11
1476.0000
 21
 324.1400
  0
LINE
  8
200
  6
AUSGEZOGEN
 10
1460.1400
 20
 310.0000
 11
1466.0000
 21
 315.8600
  0
LINE
  8
200
  6
AUSGEZOGEN
 10
1466.0000
 20
 324.1400
 11
1460.1400
 21
 330.0000
  0
LINE
  8
200
  6
AUSGEZOGEN
 10
1451.8600
 20
 330.0000
 11
1446.0000
 21
 324.1400
  0
LINE
  8
200
  6
AUSGEZOGEN
 10
1446.0000
 20
 315.8600
 11
1451.8600
 21
 310.0000
  0
LINE
  8
200
  6
AUSGEZOGEN
 10
1430.1400
 20
 310.0000
 11
1436.0000
 21
 315.8600
  0
LINE
  8
200
  6
AUSGEZOGEN
 10
1436.0000
 20
 324.1400
 11
1430.1400
 21
 330.0000
  0
LINE
  8
200
  6
AUSGEZOGEN
 10
1421.8600
 20
 330.0000
 11
1416.0000
 21
 324.1400
  0
LINE
  8
200
  6
AUSGEZOGEN
 10
1416.0000
 20
 315.8600
 11
1421.8600
 21
 310.0000
  0
LINE
  8
200
  6
AUSGEZOGEN
 10
1400.1400
 20
 310.0000
 11
1406.0000
 21
 315.8600
  0
LINE
  8
200
  6
AUSGEZOGEN
 10
1406.0000
 20
 324.1400
 11
1400.1400
 21
 330.0000
  0
LINE
  8
200
  6
AUSGEZOGEN
 10
1391.8600
 20
 330.0000
 11
1386.0000
 21
 324.1400
  0
LINE
  8
200
  6
AUSGEZOGEN
 10
1386.0000
 20
 315.8600
 11
1391.8600
 21
 310.0000
  0
LINE
  8
200
  6
AUSGEZOGEN
 10
1370.1400
 20
 310.0000
 11
1376.0000
 21
 315.8600
  0
LINE
  8
200
  6
AUSGEZOGEN
 10
1376.0000
 20
 324.1400
 11
1370.1400
 21
 330.0000
  0
LINE
  8
200
  6
AUSGEZOGEN
 10
1361.8600
 20
 330.0000
 11
1356.0000
 21
 324.1400
  0
LINE
  8
200
  6
AUSGEZOGEN
 10
1356.0000
 20
 315.8600
 11
1361.8600
 21
 310.0000
  0
LINE
  8
200
  6
AUSGEZOGEN
 10
1340.1400
 20
 310.0000
 11
1346.0000
 21
 315.8600
  0
LINE
  8
200
  6
AUSGEZOGEN
 10
1346.0000
 20
 324.1400
 11
1340.1400
 21
 330.0000
  0
LINE
  8
200
  6
AUSGEZOGEN
 10
1331.8600
 20
 330.0000
 11
1326.0000
 21
 324.1400
  0
LINE
  8
200
  6
AUSGEZOGEN
 10
1326.0000
 20
 315.8600
 11
1331.8600
 21
 310.0000
  0
LINE
  8
200
  6
AUSGEZOGEN
 10
1310.1400
 20
 310.0000
 11
1316.0000
 21
 315.8600
  0
LINE
  8
200
  6
AUSGEZOGEN
 10
1316.0000
 20
 324.1400
 11
1310.1400
 21
 330.0000
  0
LINE
  8
200
  6
AUSGEZOGEN
 10
1301.8600
 20
 330.0000
 11
1296.0000
 21
 324.1400
  0
LINE
  8
200
  6
AUSGEZOGEN
 10
1296.0000
 20
 315.8600
 11
1301.8600
 21
 310.0000
  0
LINE
  8
200
  6
AUSGEZOGEN
 10
1280.1400
 20
 310.0000
 11
1286.0000
 21
 315.8600
  0
LINE
  8
200
  6
AUSGEZOGEN
 10
1286.0000
 20
 324.1400
 11
1280.1400
 21
 330.0000
  0
LINE
  8
200
  6
AUSGEZOGEN
 10
1271.8600
 20
 330.0000
 11
1266.0000
 21
 324.1400
  0
LINE
  8
200
  6
AUSGEZOGEN
 10
1266.0000
 20
 315.8600
 11
1271.8600
 21
 310.0000
  0
LINE
  8
200
  6
AUSGEZOGEN
 10
1250.1400
 20
 310.0000
 11
1256.0000
 21
 315.8600
  0
LINE
  8
200
  6
AUSGEZOGEN
 10
1256.0000
 20
 324.1400
 11
1250.1400
 21
 330.0000
  0
LINE
  8
200
  6
AUSGEZOGEN
 10
1241.8600
 20
 330.0000
 11
1236.0000
 21
 324.1400
  0
LINE
  8
200
  6
AUSGEZOGEN
 10
1236.0000
 20
 315.8600
 11
1241.8600
 21
 310.0000
  0
LINE
  8
200
  6
AUSGEZOGEN
 10
1220.1400
 20
 310.0000
 11
1226.0000
 21
 315.8600
  0
LINE
  8
200
  6
AUSGEZOGEN
 10
1226.0000
 20
 324.1400
 11
1220.1400
 21
 330.0000
  0
LINE
  8
200
  6
AUSGEZOGEN
 10
1211.8600
 20
 330.0000
 11
1206.0000
 21
 324.1400
  0
LINE
  8
200
  6
AUSGEZOGEN
 10
1206.0000
 20
 315.8600
 11
1211.8600
 21
 310.0000
  0
LINE
  8
200
  6
AUSGEZOGEN
 10
1190.1400
 20
 310.0000
 11
1196.0000
 21
 315.8600
  0
LINE
  8
200
  6
AUSGEZOGEN
 10
1196.0000
 20
 324.1400
 11
1190.1400
 21
 330.0000
  0
LINE
  8
200
  6
AUSGEZOGEN
 10
1181.8600
 20
 330.0000
 11
1176.0000
 21
 324.1400
  0
LINE
  8
200
  6
AUSGEZOGEN
 10
1176.0000
 20
 315.8600
 11
1181.8600
 21
 310.0000
  0
LINE
  8
200
  6
AUSGEZOGEN
 10
1160.1400
 20
 310.0000
 11
1166.0000
 21
 315.8600
  0
LINE
  8
200
  6
AUSGEZOGEN
 10
1166.0000
 20
 324.1400
 11
1160.1400
 21
 330.0000
  0
LINE
  8
200
  6
AUSGEZOGEN
 10
1151.8600
 20
 330.0000
 11
1146.0000
 21
 324.1400
  0
LINE
  8
200
  6
AUSGEZOGEN
 10
1146.0000
 20
 315.8600
 11
1151.8600
 21
 310.0000
  0
LINE
  8
200
  6
AUSGEZOGEN
 10
1130.1400
 20
 310.0000
 11
1136.0000
 21
 315.8600
  0
LINE
  8
200
  6
AUSGEZOGEN
 10
1136.0000
 20
 324.1400
 11
1130.1400
 21
 330.0000
  0
LINE
  8
200
  6
AUSGEZOGEN
 10
1121.8600
 20
 330.0000
 11
1116.0000
 21
 324.1400
  0
LINE
  8
200
  6
AUSGEZOGEN
 10
1116.0000
 20
 315.8600
 11
1121.8600
 21
 310.0000
  0
LINE
  8
200
  6
AUSGEZOGEN
 10
1100.1400
 20
 310.0000
 11
1106.0000
 21
 315.8600
  0
LINE
  8
200
  6
AUSGEZOGEN
 10
1106.0000
 20
 324.1400
 11
1100.1400
 21
 330.0000
  0
LINE
  8
200
  6
AUSGEZOGEN
 10
1091.8600
 20
 330.0000
 11
1086.0000
 21
 324.1400
  0
LINE
  8
200
  6
AUSGEZOGEN
 10
1086.0000
 20
 315.8600
 11
1091.8600
 21
 310.0000
  0
LINE
  8
200
  6
AUSGEZOGEN
 10
1550.1400
 20
 280.0000
 11
1556.0000
 21
 285.8600
  0
LINE
  8
200
  6
AUSGEZOGEN
 10
1556.0000
 20
 294.1400
 11
1550.1400
 21
 300.0000
  0
LINE
  8
200
  6
AUSGEZOGEN
 10
1541.8600
 20
 300.0000
 11
1536.0000
 21
 294.1400
  0
LINE
  8
200
  6
AUSGEZOGEN
 10
1536.0000
 20
 285.8600
 11
1541.8600
 21
 280.0000
  0
LINE
  8
200
  6
AUSGEZOGEN
 10
1520.1400
 20
 280.0000
 11
1526.0000
 21
 285.8600
  0
LINE
  8
200
  6
AUSGEZOGEN
 10
1526.0000
 20
 294.1400
 11
1520.1400
 21
 300.0000
  0
LINE
  8
200
  6
AUSGEZOGEN
 10
1511.8600
 20
 300.0000
 11
1506.0000
 21
 294.1400
  0
LINE
  8
200
  6
AUSGEZOGEN
 10
1506.0000
 20
 285.8600
 11
1511.8600
 21
 280.0000
  0
LINE
  8
200
  6
AUSGEZOGEN
 10
1490.1400
 20
 280.0000
 11
1496.0000
 21
 285.8600
  0
LINE
  8
200
  6
AUSGEZOGEN
 10
1496.0000
 20
 294.1400
 11
1490.1400
 21
 300.0000
  0
LINE
  8
200
  6
AUSGEZOGEN
 10
1481.8600
 20
 300.0000
 11
1476.0000
 21
 294.1400
  0
LINE
  8
200
  6
AUSGEZOGEN
 10
1476.0000
 20
 285.8600
 11
1481.8600
 21
 280.0000
  0
LINE
  8
200
  6
AUSGEZOGEN
 10
1460.1400
 20
 280.0000
 11
1466.0000
 21
 285.8600
  0
LINE
  8
200
  6
AUSGEZOGEN
 10
1466.0000
 20
 294.1400
 11
1460.1400
 21
 300.0000
  0
LINE
  8
200
  6
AUSGEZOGEN
 10
1451.8600
 20
 300.0000
 11
1446.0000
 21
 294.1400
  0
LINE
  8
200
  6
AUSGEZOGEN
 10
1446.0000
 20
 285.8600
 11
1451.8600
 21
 280.0000
  0
LINE
  8
200
  6
AUSGEZOGEN
 10
1430.1400
 20
 280.0000
 11
1436.0000
 21
 285.8600
  0
LINE
  8
200
  6
AUSGEZOGEN
 10
1436.0000
 20
 294.1400
 11
1430.1400
 21
 300.0000
  0
LINE
  8
200
  6
AUSGEZOGEN
 10
1421.8600
 20
 300.0000
 11
1416.0000
 21
 294.1400
  0
LINE
  8
200
  6
AUSGEZOGEN
 10
1416.0000
 20
 285.8600
 11
1421.8600
 21
 280.0000
  0
LINE
  8
200
  6
AUSGEZOGEN
 10
1400.1400
 20
 280.0000
 11
1406.0000
 21
 285.8600
  0
LINE
  8
200
  6
AUSGEZOGEN
 10
1406.0000
 20
 294.1400
 11
1400.1400
 21
 300.0000
  0
LINE
  8
200
  6
AUSGEZOGEN
 10
1391.8600
 20
 300.0000
 11
1386.0000
 21
 294.1400
  0
LINE
  8
200
  6
AUSGEZOGEN
 10
1386.0000
 20
 285.8600
 11
1391.8600
 21
 280.0000
  0
LINE
  8
200
  6
AUSGEZOGEN
 10
1370.1400
 20
 280.0000
 11
1376.0000
 21
 285.8600
  0
LINE
  8
200
  6
AUSGEZOGEN
 10
1376.0000
 20
 294.1400
 11
1370.1400
 21
 300.0000
  0
LINE
  8
200
  6
AUSGEZOGEN
 10
1361.8600
 20
 300.0000
 11
1356.0000
 21
 294.1400
  0
LINE
  8
200
  6
AUSGEZOGEN
 10
1356.0000
 20
 285.8600
 11
1361.8600
 21
 280.0000
  0
LINE
  8
200
  6
AUSGEZOGEN
 10
1340.1400
 20
 280.0000
 11
1346.0000
 21
 285.8600
  0
LINE
  8
200
  6
AUSGEZOGEN
 10
1346.0000
 20
 294.1400
 11
1340.1400
 21
 300.0000
  0
LINE
  8
200
  6
AUSGEZOGEN
 10
1331.8600
 20
 300.0000
 11
1326.0000
 21
 294.1400
  0
LINE
  8
200
  6
AUSGEZOGEN
 10
1326.0000
 20
 285.8600
 11
1331.8600
 21
 280.0000
  0
LINE
  8
200
  6
AUSGEZOGEN
 10
1310.1400
 20
 280.0000
 11
1316.0000
 21
 285.8600
  0
LINE
  8
200
  6
AUSGEZOGEN
 10
1316.0000
 20
 294.1400
 11
1310.1400
 21
 300.0000
  0
LINE
  8
200
  6
AUSGEZOGEN
 10
1301.8600
 20
 300.0000
 11
1296.0000
 21
 294.1400
  0
LINE
  8
200
  6
AUSGEZOGEN
 10
1296.0000
 20
 285.8600
 11
1301.8600
 21
 280.0000
  0
LINE
  8
200
  6
AUSGEZOGEN
 10
1280.1400
 20
 280.0000
 11
1286.0000
 21
 285.8600
  0
LINE
  8
200
  6
AUSGEZOGEN
 10
1286.0000
 20
 294.1400
 11
1280.1400
 21
 300.0000
  0
LINE
  8
200
  6
AUSGEZOGEN
 10
1271.8600
 20
 300.0000
 11
1266.0000
 21
 294.1400
  0
LINE
  8
200
  6
AUSGEZOGEN
 10
1266.0000
 20
 285.8600
 11
1271.8600
 21
 280.0000
  0
LINE
  8
200
  6
AUSGEZOGEN
 10
1250.1400
 20
 280.0000
 11
1256.0000
 21
 285.8600
  0
LINE
  8
200
  6
AUSGEZOGEN
 10
1256.0000
 20
 294.1400
 11
1250.1400
 21
 300.0000
  0
LINE
  8
200
  6
AUSGEZOGEN
 10
1241.8600
 20
 300.0000
 11
1236.0000
 21
 294.1400
  0
LINE
  8
200
  6
AUSGEZOGEN
 10
1236.0000
 20
 285.8600
 11
1241.8600
 21
 280.0000
  0
LINE
  8
200
  6
AUSGEZOGEN
 10
1220.1400
 20
 280.0000
 11
1226.0000
 21
 285.8600
  0
LINE
  8
200
  6
AUSGEZOGEN
 10
1226.0000
 20
 294.1400
 11
1220.1400
 21
 300.0000
  0
LINE
  8
200
  6
AUSGEZOGEN
 10
1211.8600
 20
 300.0000
 11
1206.0000
 21
 294.1400
  0
LINE
  8
200
  6
AUSGEZOGEN
 10
1206.0000
 20
 285.8600
 11
1211.8600
 21
 280.0000
  0
LINE
  8
200
  6
AUSGEZOGEN
 10
1190.1400
 20
 280.0000
 11
1196.0000
 21
 285.8600
  0
LINE
  8
200
  6
AUSGEZOGEN
 10
1196.0000
 20
 294.1400
 11
1190.1400
 21
 300.0000
  0
LINE
  8
200
  6
AUSGEZOGEN
 10
1181.8600
 20
 300.0000
 11
1176.0000
 21
 294.1400
  0
LINE
  8
200
  6
AUSGEZOGEN
 10
1176.0000
 20
 285.8600
 11
1181.8600
 21
 280.0000
  0
LINE
  8
200
  6
AUSGEZOGEN
 10
1160.1400
 20
 280.0000
 11
1166.0000
 21
 285.8600
  0
LINE
  8
200
  6
AUSGEZOGEN
 10
1166.0000
 20
 294.1400
 11
1160.1400
 21
 300.0000
  0
LINE
  8
200
  6
AUSGEZOGEN
 10
1151.8600
 20
 300.0000
 11
1146.0000
 21
 294.1400
  0
LINE
  8
200
  6
AUSGEZOGEN
 10
1146.0000
 20
 285.8600
 11
1151.8600
 21
 280.0000
  0
LINE
  8
200
  6
AUSGEZOGEN
 10
1130.1400
 20
 280.0000
 11
1136.0000
 21
 285.8600
  0
LINE
  8
200
  6
AUSGEZOGEN
 10
1136.0000
 20
 294.1400
 11
1130.1400
 21
 300.0000
  0
LINE
  8
200
  6
AUSGEZOGEN
 10
1121.8600
 20
 300.0000
 11
1116.0000
 21
 294.1400
  0
LINE
  8
200
  6
AUSGEZOGEN
 10
1116.0000
 20
 285.8600
 11
1121.8600
 21
 280.0000
  0
LINE
  8
200
  6
AUSGEZOGEN
 10
1100.1400
 20
 280.0000
 11
1106.0000
 21
 285.8600
  0
LINE
  8
200
  6
AUSGEZOGEN
 10
1106.0000
 20
 294.1400
 11
1100.1400
 21
 300.0000
  0
LINE
  8
200
  6
AUSGEZOGEN
 10
1091.8600
 20
 300.0000
 11
1086.0000
 21
 294.1400
  0
LINE
  8
200
  6
AUSGEZOGEN
 10
1086.0000
 20
 285.8600
 11
1091.8600
 21
 280.0000
  0
LINE
  8
200
  6
AUSGEZOGEN
 10
1550.1400
 20
 100.0000
 11
1556.0000
 21
 105.8600
  0
LINE
  8
200
  6
AUSGEZOGEN
 10
1556.0000
 20
 114.1400
 11
1550.1400
 21
 120.0000
  0
LINE
  8
200
  6
AUSGEZOGEN
 10
1541.8600
 20
 120.0000
 11
1536.0000
 21
 114.1400
  0
LINE
  8
200
  6
AUSGEZOGEN
 10
1536.0000
 20
 105.8600
 11
1541.8600
 21
 100.0000
  0
LINE
  8
200
  6
AUSGEZOGEN
 10
1520.1400
 20
 100.0000
 11
1526.0000
 21
 105.8600
  0
LINE
  8
200
  6
AUSGEZOGEN
 10
1526.0000
 20
 114.1400
 11
1520.1400
 21
 120.0000
  0
LINE
  8
200
  6
AUSGEZOGEN
 10
1511.8600
 20
 120.0000
 11
1506.0000
 21
 114.1400
  0
LINE
  8
200
  6
AUSGEZOGEN
 10
1506.0000
 20
 105.8600
 11
1511.8600
 21
 100.0000
  0
LINE
  8
200
  6
AUSGEZOGEN
 10
1490.1400
 20
 100.0000
 11
1496.0000
 21
 105.8600
  0
LINE
  8
200
  6
AUSGEZOGEN
 10
1496.0000
 20
 114.1400
 11
1490.1400
 21
 120.0000
  0
LINE
  8
200
  6
AUSGEZOGEN
 10
1481.8600
 20
 120.0000
 11
1476.0000
 21
 114.1400
  0
LINE
  8
200
  6
AUSGEZOGEN
 10
1476.0000
 20
 105.8600
 11
1481.8600
 21
 100.0000
  0
LINE
  8
200
  6
AUSGEZOGEN
 10
1460.1400
 20
 100.0000
 11
1466.0000
 21
 105.8600
  0
LINE
  8
200
  6
AUSGEZOGEN
 10
1466.0000
 20
 114.1400
 11
1460.1400
 21
 120.0000
  0
LINE
  8
200
  6
AUSGEZOGEN
 10
1451.8600
 20
 120.0000
 11
1446.0000
 21
 114.1400
  0
LINE
  8
200
  6
AUSGEZOGEN
 10
1446.0000
 20
 105.8600
 11
1451.8600
 21
 100.0000
  0
LINE
  8
200
  6
AUSGEZOGEN
 10
1430.1400
 20
 100.0000
 11
1436.0000
 21
 105.8600
  0
LINE
  8
200
  6
AUSGEZOGEN
 10
1436.0000
 20
 114.1400
 11
1430.1400
 21
 120.0000
  0
LINE
  8
200
  6
AUSGEZOGEN
 10
1421.8600
 20
 120.0000
 11
1416.0000
 21
 114.1400
  0
LINE
  8
200
  6
AUSGEZOGEN
 10
1416.0000
 20
 105.8600
 11
1421.8600
 21
 100.0000
  0
LINE
  8
200
  6
AUSGEZOGEN
 10
1400.1400
 20
 100.0000
 11
1406.0000
 21
 105.8600
  0
LINE
  8
200
  6
AUSGEZOGEN
 10
1406.0000
 20
 114.1400
 11
1400.1400
 21
 120.0000
  0
LINE
  8
200
  6
AUSGEZOGEN
 10
1391.8600
 20
 120.0000
 11
1386.0000
 21
 114.1400
  0
LINE
  8
200
  6
AUSGEZOGEN
 10
1386.0000
 20
 105.8600
 11
1391.8600
 21
 100.0000
  0
LINE
  8
200
  6
AUSGEZOGEN
 10
1370.1400
 20
 100.0000
 11
1376.0000
 21
 105.8600
  0
LINE
  8
200
  6
AUSGEZOGEN
 10
1376.0000
 20
 114.1400
 11
1370.1400
 21
 120.0000
  0
LINE
  8
200
  6
AUSGEZOGEN
 10
1361.8600
 20
 120.0000
 11
1356.0000
 21
 114.1400
  0
LINE
  8
200
  6
AUSGEZOGEN
 10
1356.0000
 20
 105.8600
 11
1361.8600
 21
 100.0000
  0
LINE
  8
200
  6
AUSGEZOGEN
 10
1340.1400
 20
 100.0000
 11
1346.0000
 21
 105.8600
  0
LINE
  8
200
  6
AUSGEZOGEN
 10
1346.0000
 20
 114.1400
 11
1340.1400
 21
 120.0000
  0
LINE
  8
200
  6
AUSGEZOGEN
 10
1331.8600
 20
 120.0000
 11
1326.0000
 21
 114.1400
  0
LINE
  8
200
  6
AUSGEZOGEN
 10
1326.0000
 20
 105.8600
 11
1331.8600
 21
 100.0000
  0
LINE
  8
200
  6
AUSGEZOGEN
 10
1310.1400
 20
 100.0000
 11
1316.0000
 21
 105.8600
  0
LINE
  8
200
  6
AUSGEZOGEN
 10
1316.0000
 20
 114.1400
 11
1310.1400
 21
 120.0000
  0
LINE
  8
200
  6
AUSGEZOGEN
 10
1301.8600
 20
 120.0000
 11
1296.0000
 21
 114.1400
  0
LINE
  8
200
  6
AUSGEZOGEN
 10
1296.0000
 20
 105.8600
 11
1301.8600
 21
 100.0000
  0
LINE
  8
200
  6
AUSGEZOGEN
 10
1280.1400
 20
 100.0000
 11
1286.0000
 21
 105.8600
  0
LINE
  8
200
  6
AUSGEZOGEN
 10
1286.0000
 20
 114.1400
 11
1280.1400
 21
 120.0000
  0
LINE
  8
200
  6
AUSGEZOGEN
 10
1271.8600
 20
 120.0000
 11
1266.0000
 21
 114.1400
  0
LINE
  8
200
  6
AUSGEZOGEN
 10
1266.0000
 20
 105.8600
 11
1271.8600
 21
 100.0000
  0
LINE
  8
200
  6
AUSGEZOGEN
 10
1250.1400
 20
 100.0000
 11
1256.0000
 21
 105.8600
  0
LINE
  8
200
  6
AUSGEZOGEN
 10
1256.0000
 20
 114.1400
 11
1250.1400
 21
 120.0000
  0
LINE
  8
200
  6
AUSGEZOGEN
 10
1241.8600
 20
 120.0000
 11
1236.0000
 21
 114.1400
  0
LINE
  8
200
  6
AUSGEZOGEN
 10
1236.0000
 20
 105.8600
 11
1241.8600
 21
 100.0000
  0
LINE
  8
200
  6
AUSGEZOGEN
 10
1220.1400
 20
 100.0000
 11
1226.0000
 21
 105.8600
  0
LINE
  8
200
  6
AUSGEZOGEN
 10
1226.0000
 20
 114.1400
 11
1220.1400
 21
 120.0000
  0
LINE
  8
200
  6
AUSGEZOGEN
 10
1211.8600
 20
 120.0000
 11
1206.0000
 21
 114.1400
  0
LINE
  8
200
  6
AUSGEZOGEN
 10
1206.0000
 20
 105.8600
 11
1211.8600
 21
 100.0000
  0
LINE
  8
200
  6
AUSGEZOGEN
 10
1190.1400
 20
 100.0000
 11
1196.0000
 21
 105.8600
  0
LINE
  8
200
  6
AUSGEZOGEN
 10
1196.0000
 20
 114.1400
 11
1190.1400
 21
 120.0000
  0
LINE
  8
200
  6
AUSGEZOGEN
 10
1181.8600
 20
 120.0000
 11
1176.0000
 21
 114.1400
  0
LINE
  8
200
  6
AUSGEZOGEN
 10
1176.0000
 20
 105.8600
 11
1181.8600
 21
 100.0000
  0
LINE
  8
200
  6
AUSGEZOGEN
 10
1160.1400
 20
 100.0000
 11
1166.0000
 21
 105.8600
  0
LINE
  8
200
  6
AUSGEZOGEN
 10
1166.0000
 20
 114.1400
 11
1160.1400
 21
 120.0000
  0
LINE
  8
200
  6
AUSGEZOGEN
 10
1151.8600
 20
 120.0000
 11
1146.0000
 21
 114.1400
  0
LINE
  8
200
  6
AUSGEZOGEN
 10
1146.0000
 20
 105.8600
 11
1151.8600
 21
 100.0000
  0
LINE
  8
200
  6
AUSGEZOGEN
 10
1130.1400
 20
 100.0000
 11
1136.0000
 21
 105.8600
  0
LINE
  8
200
  6
AUSGEZOGEN
 10
1136.0000
 20
 114.1400
 11
1130.1400
 21
 120.0000
  0
LINE
  8
200
  6
AUSGEZOGEN
 10
1121.8600
 20
 120.0000
 11
1116.0000
 21
 114.1400
  0
LINE
  8
200
  6
AUSGEZOGEN
 10
1116.0000
 20
 105.8600
 11
1121.8600
 21
 100.0000
  0
LINE
  8
200
  6
AUSGEZOGEN
 10
1100.1400
 20
 100.0000
 11
1106.0000
 21
 105.8600
  0
LINE
  8
200
  6
AUSGEZOGEN
 10
1106.0000
 20
 114.1400
 11
1100.1400
 21
 120.0000
  0
LINE
  8
200
  6
AUSGEZOGEN
 10
1091.8600
 20
 120.0000
 11
1086.0000
 21
 114.1400
  0
LINE
  8
200
  6
AUSGEZOGEN
 10
1086.0000
 20
 105.8600
 11
1091.8600
 21
 100.0000
  0
LINE
  8
200
  6
AUSGEZOGEN
 10
1556.0000
 20
 135.8600
 11
1550.1400
 21
 130.0000
  0
LINE
  8
200
  6
AUSGEZOGEN
 10
1550.1400
 20
 150.0000
 11
1556.0000
 21
 144.1400
  0
LINE
  8
200
  6
AUSGEZOGEN
 10
1536.0000
 20
 144.1400
 11
1541.8600
 21
 150.0000
  0
LINE
  8
200
  6
AUSGEZOGEN
 10
1541.8600
 20
 130.0000
 11
1536.0000
 21
 135.8600
  0
LINE
  8
200
  6
AUSGEZOGEN
 10
1520.1400
 20
 130.0000
 11
1526.0000
 21
 135.8600
  0
LINE
  8
200
  6
AUSGEZOGEN
 10
1526.0000
 20
 144.1400
 11
1520.1400
 21
 150.0000
  0
LINE
  8
200
  6
AUSGEZOGEN
 10
1511.8600
 20
 150.0000
 11
1506.0000
 21
 144.1400
  0
LINE
  8
200
  6
AUSGEZOGEN
 10
1506.0000
 20
 135.8600
 11
1511.8600
 21
 130.0000
  0
LINE
  8
200
  6
AUSGEZOGEN
 10
1490.1400
 20
 130.0000
 11
1496.0000
 21
 135.8600
  0
LINE
  8
200
  6
AUSGEZOGEN
 10
1496.0000
 20
 144.1400
 11
1490.1400
 21
 150.0000
  0
LINE
  8
200
  6
AUSGEZOGEN
 10
1481.8600
 20
 150.0000
 11
1476.0000
 21
 144.1400
  0
LINE
  8
200
  6
AUSGEZOGEN
 10
1476.0000
 20
 135.8600
 11
1481.8600
 21
 130.0000
  0
LINE
  8
200
  6
AUSGEZOGEN
 10
1460.1400
 20
 130.0000
 11
1466.0000
 21
 135.8600
  0
LINE
  8
200
  6
AUSGEZOGEN
 10
1466.0000
 20
 144.1400
 11
1460.1400
 21
 150.0000
  0
LINE
  8
200
  6
AUSGEZOGEN
 10
1451.8600
 20
 150.0000
 11
1446.0000
 21
 144.1400
  0
LINE
  8
200
  6
AUSGEZOGEN
 10
1446.0000
 20
 135.8600
 11
1451.8600
 21
 130.0000
  0
LINE
  8
200
  6
AUSGEZOGEN
 10
1430.1400
 20
 130.0000
 11
1436.0000
 21
 135.8600
  0
LINE
  8
200
  6
AUSGEZOGEN
 10
1436.0000
 20
 144.1400
 11
1430.1400
 21
 150.0000
  0
LINE
  8
200
  6
AUSGEZOGEN
 10
1421.8600
 20
 150.0000
 11
1416.0000
 21
 144.1400
  0
LINE
  8
200
  6
AUSGEZOGEN
 10
1416.0000
 20
 135.8600
 11
1421.8600
 21
 130.0000
  0
LINE
  8
200
  6
AUSGEZOGEN
 10
1400.1400
 20
 130.0000
 11
1406.0000
 21
 135.8600
  0
LINE
  8
200
  6
AUSGEZOGEN
 10
1406.0000
 20
 144.1400
 11
1400.1400
 21
 150.0000
  0
LINE
  8
200
  6
AUSGEZOGEN
 10
1391.8600
 20
 150.0000
 11
1386.0000
 21
 144.1400
  0
LINE
  8
200
  6
AUSGEZOGEN
 10
1386.0000
 20
 135.8600
 11
1391.8600
 21
 130.0000
  0
LINE
  8
200
  6
AUSGEZOGEN
 10
1370.1400
 20
 130.0000
 11
1376.0000
 21
 135.8600
  0
LINE
  8
200
  6
AUSGEZOGEN
 10
1376.0000
 20
 144.1400
 11
1370.1400
 21
 150.0000
  0
LINE
  8
200
  6
AUSGEZOGEN
 10
1361.8600
 20
 150.0000
 11
1356.0000
 21
 144.1400
  0
LINE
  8
200
  6
AUSGEZOGEN
 10
1356.0000
 20
 135.8600
 11
1361.8600
 21
 130.0000
  0
LINE
  8
200
  6
AUSGEZOGEN
 10
1340.1400
 20
 130.0000
 11
1346.0000
 21
 135.8600
  0
LINE
  8
200
  6
AUSGEZOGEN
 10
1346.0000
 20
 144.1400
 11
1340.1400
 21
 150.0000
  0
LINE
  8
200
  6
AUSGEZOGEN
 10
1331.8600
 20
 150.0000
 11
1326.0000
 21
 144.1400
  0
LINE
  8
200
  6
AUSGEZOGEN
 10
1326.0000
 20
 135.8600
 11
1331.8600
 21
 130.0000
  0
LINE
  8
200
  6
AUSGEZOGEN
 10
1310.1400
 20
 130.0000
 11
1316.0000
 21
 135.8600
  0
LINE
  8
200
  6
AUSGEZOGEN
 10
1316.0000
 20
 144.1400
 11
1310.1400
 21
 150.0000
  0
LINE
  8
200
  6
AUSGEZOGEN
 10
1301.8600
 20
 150.0000
 11
1296.0000
 21
 144.1400
  0
LINE
  8
200
  6
AUSGEZOGEN
 10
1296.0000
 20
 135.8600
 11
1301.8600
 21
 130.0000
  0
LINE
  8
200
  6
AUSGEZOGEN
 10
1280.1400
 20
 130.0000
 11
1286.0000
 21
 135.8600
  0
LINE
  8
200
  6
AUSGEZOGEN
 10
1286.0000
 20
 144.1400
 11
1280.1400
 21
 150.0000
  0
LINE
  8
200
  6
AUSGEZOGEN
 10
1271.8600
 20
 150.0000
 11
1266.0000
 21
 144.1400
  0
LINE
  8
200
  6
AUSGEZOGEN
 10
1266.0000
 20
 135.8600
 11
1271.8600
 21
 130.0000
  0
LINE
  8
200
  6
AUSGEZOGEN
 10
1250.1400
 20
 130.0000
 11
1256.0000
 21
 135.8600
  0
LINE
  8
200
  6
AUSGEZOGEN
 10
1256.0000
 20
 144.1400
 11
1250.1400
 21
 150.0000
  0
LINE
  8
200
  6
AUSGEZOGEN
 10
1241.8600
 20
 150.0000
 11
1236.0000
 21
 144.1400
  0
LINE
  8
200
  6
AUSGEZOGEN
 10
1236.0000
 20
 135.8600
 11
1241.8600
 21
 130.0000
  0
LINE
  8
200
  6
AUSGEZOGEN
 10
1220.1400
 20
 130.0000
 11
1226.0000
 21
 135.8600
  0
LINE
  8
200
  6
AUSGEZOGEN
 10
1226.0000
 20
 144.1400
 11
1220.1400
 21
 150.0000
  0
LINE
  8
200
  6
AUSGEZOGEN
 10
1211.8600
 20
 150.0000
 11
1206.0000
 21
 144.1400
  0
LINE
  8
200
  6
AUSGEZOGEN
 10
1206.0000
 20
 135.8600
 11
1211.8600
 21
 130.0000
  0
LINE
  8
200
  6
AUSGEZOGEN
 10
1190.1400
 20
 130.0000
 11
1196.0000
 21
 135.8600
  0
LINE
  8
200
  6
AUSGEZOGEN
 10
1196.0000
 20
 144.1400
 11
1190.1400
 21
 150.0000
  0
LINE
  8
200
  6
AUSGEZOGEN
 10
1181.8600
 20
 150.0000
 11
1176.0000
 21
 144.1400
  0
LINE
  8
200
  6
AUSGEZOGEN
 10
1176.0000
 20
 135.8600
 11
1181.8600
 21
 130.0000
  0
LINE
  8
200
  6
AUSGEZOGEN
 10
1160.1400
 20
 130.0000
 11
1166.0000
 21
 135.8600
  0
LINE
  8
200
  6
AUSGEZOGEN
 10
1166.0000
 20
 144.1400
 11
1160.1400
 21
 150.0000
  0
LINE
  8
200
  6
AUSGEZOGEN
 10
1151.8600
 20
 150.0000
 11
1146.0000
 21
 144.1400
  0
LINE
  8
200
  6
AUSGEZOGEN
 10
1146.0000
 20
 135.8600
 11
1151.8600
 21
 130.0000
  0
LINE
  8
200
  6
AUSGEZOGEN
 10
1130.1400
 20
 130.0000
 11
1136.0000
 21
 135.8600
  0
LINE
  8
200
  6
AUSGEZOGEN
 10
1136.0000
 20
 144.1400
 11
1130.1400
 21
 150.0000
  0
LINE
  8
200
  6
AUSGEZOGEN
 10
1121.8600
 20
 150.0000
 11
1116.0000
 21
 144.1400
  0
LINE
  8
200
  6
AUSGEZOGEN
 10
1116.0000
 20
 135.8600
 11
1121.8600
 21
 130.0000
  0
LINE
  8
200
  6
AUSGEZOGEN
 10
1100.1400
 20
 130.0000
 11
1106.0000
 21
 135.8600
  0
LINE
  8
200
  6
AUSGEZOGEN
 10
1106.0000
 20
 144.1400
 11
1100.1400
 21
 150.0000
  0
LINE
  8
200
  6
AUSGEZOGEN
 10
1091.8600
 20
 150.0000
 11
1086.0000
 21
 144.1400
  0
LINE
  8
200
  6
AUSGEZOGEN
 10
1086.0000
 20
 135.8600
 11
1091.8600
 21
 130.0000
  0
LINE
  8
200
  6
AUSGEZOGEN
 10
1556.0000
 20
 165.8600
 11
1550.1400
 21
 160.0000
  0
LINE
  8
200
  6
AUSGEZOGEN
 10
1550.1400
 20
 180.0000
 11
1556.0000
 21
 174.1400
  0
LINE
  8
200
  6
AUSGEZOGEN
 10
1536.0000
 20
 174.1400
 11
1541.8600
 21
 180.0000
  0
LINE
  8
200
  6
AUSGEZOGEN
 10
1541.8600
 20
 160.0000
 11
1536.0000
 21
 165.8600
  0
LINE
  8
200
  6
AUSGEZOGEN
 10
1520.1400
 20
 160.0000
 11
1526.0000
 21
 165.8600
  0
LINE
  8
200
  6
AUSGEZOGEN
 10
1526.0000
 20
 174.1400
 11
1520.1400
 21
 180.0000
  0
LINE
  8
200
  6
AUSGEZOGEN
 10
1511.8600
 20
 180.0000
 11
1506.0000
 21
 174.1400
  0
LINE
  8
200
  6
AUSGEZOGEN
 10
1506.0000
 20
 165.8600
 11
1511.8600
 21
 160.0000
  0
LINE
  8
200
  6
AUSGEZOGEN
 10
1490.1400
 20
 160.0000
 11
1496.0000
 21
 165.8600
  0
LINE
  8
200
  6
AUSGEZOGEN
 10
1496.0000
 20
 174.1400
 11
1490.1400
 21
 180.0000
  0
LINE
  8
200
  6
AUSGEZOGEN
 10
1481.8600
 20
 180.0000
 11
1476.0000
 21
 174.1400
  0
LINE
  8
200
  6
AUSGEZOGEN
 10
1476.0000
 20
 165.8600
 11
1481.8600
 21
 160.0000
  0
LINE
  8
200
  6
AUSGEZOGEN
 10
1460.1400
 20
 160.0000
 11
1466.0000
 21
 165.8600
  0
LINE
  8
200
  6
AUSGEZOGEN
 10
1466.0000
 20
 174.1400
 11
1460.1400
 21
 180.0000
  0
LINE
  8
200
  6
AUSGEZOGEN
 10
1451.8600
 20
 180.0000
 11
1446.0000
 21
 174.1400
  0
LINE
  8
200
  6
AUSGEZOGEN
 10
1446.0000
 20
 165.8600
 11
1451.8600
 21
 160.0000
  0
LINE
  8
200
  6
AUSGEZOGEN
 10
1430.1400
 20
 160.0000
 11
1436.0000
 21
 165.8600
  0
LINE
  8
200
  6
AUSGEZOGEN
 10
1436.0000
 20
 174.1400
 11
1430.1400
 21
 180.0000
  0
LINE
  8
200
  6
AUSGEZOGEN
 10
1421.8600
 20
 180.0000
 11
1416.0000
 21
 174.1400
  0
LINE
  8
200
  6
AUSGEZOGEN
 10
1416.0000
 20
 165.8600
 11
1421.8600
 21
 160.0000
  0
LINE
  8
200
  6
AUSGEZOGEN
 10
1400.1400
 20
 160.0000
 11
1406.0000
 21
 165.8600
  0
LINE
  8
200
  6
AUSGEZOGEN
 10
1406.0000
 20
 174.1400
 11
1400.1400
 21
 180.0000
  0
LINE
  8
200
  6
AUSGEZOGEN
 10
1391.8600
 20
 180.0000
 11
1386.0000
 21
 174.1400
  0
LINE
  8
200
  6
AUSGEZOGEN
 10
1386.0000
 20
 165.8600
 11
1391.8600
 21
 160.0000
  0
LINE
  8
200
  6
AUSGEZOGEN
 10
1370.1400
 20
 160.0000
 11
1376.0000
 21
 165.8600
  0
LINE
  8
200
  6
AUSGEZOGEN
 10
1376.0000
 20
 174.1400
 11
1370.1400
 21
 180.0000
  0
LINE
  8
200
  6
AUSGEZOGEN
 10
1361.8600
 20
 180.0000
 11
1356.0000
 21
 174.1400
  0
LINE
  8
200
  6
AUSGEZOGEN
 10
1356.0000
 20
 165.8600
 11
1361.8600
 21
 160.0000
  0
LINE
  8
200
  6
AUSGEZOGEN
 10
1340.1400
 20
 160.0000
 11
1346.0000
 21
 165.8600
  0
LINE
  8
200
  6
AUSGEZOGEN
 10
1346.0000
 20
 174.1400
 11
1340.1400
 21
 180.0000
  0
LINE
  8
200
  6
AUSGEZOGEN
 10
1331.8600
 20
 180.0000
 11
1326.0000
 21
 174.1400
  0
LINE
  8
200
  6
AUSGEZOGEN
 10
1326.0000
 20
 165.8600
 11
1331.8600
 21
 160.0000
  0
LINE
  8
200
  6
AUSGEZOGEN
 10
1310.1400
 20
 160.0000
 11
1316.0000
 21
 165.8600
  0
LINE
  8
200
  6
AUSGEZOGEN
 10
1316.0000
 20
 174.1400
 11
1310.1400
 21
 180.0000
  0
LINE
  8
200
  6
AUSGEZOGEN
 10
1301.8600
 20
 180.0000
 11
1296.0000
 21
 174.1400
  0
LINE
  8
200
  6
AUSGEZOGEN
 10
1296.0000
 20
 165.8600
 11
1301.8600
 21
 160.0000
  0
LINE
  8
200
  6
AUSGEZOGEN
 10
1280.1400
 20
 160.0000
 11
1286.0000
 21
 165.8600
  0
LINE
  8
200
  6
AUSGEZOGEN
 10
1286.0000
 20
 174.1400
 11
1280.1400
 21
 180.0000
  0
LINE
  8
200
  6
AUSGEZOGEN
 10
1271.8600
 20
 180.0000
 11
1266.0000
 21
 174.1400
  0
LINE
  8
200
  6
AUSGEZOGEN
 10
1266.0000
 20
 165.8600
 11
1271.8600
 21
 160.0000
  0
LINE
  8
200
  6
AUSGEZOGEN
 10
1250.1400
 20
 160.0000
 11
1256.0000
 21
 165.8600
  0
LINE
  8
200
  6
AUSGEZOGEN
 10
1256.0000
 20
 174.1400
 11
1250.1400
 21
 180.0000
  0
LINE
  8
200
  6
AUSGEZOGEN
 10
1241.8600
 20
 180.0000
 11
1236.0000
 21
 174.1400
  0
LINE
  8
200
  6
AUSGEZOGEN
 10
1236.0000
 20
 165.8600
 11
1241.8600
 21
 160.0000
  0
LINE
  8
200
  6
AUSGEZOGEN
 10
1220.1400
 20
 160.0000
 11
1226.0000
 21
 165.8600
  0
LINE
  8
200
  6
AUSGEZOGEN
 10
1226.0000
 20
 174.1400
 11
1220.1400
 21
 180.0000
  0
LINE
  8
200
  6
AUSGEZOGEN
 10
1211.8600
 20
 180.0000
 11
1206.0000
 21
 174.1400
  0
LINE
  8
200
  6
AUSGEZOGEN
 10
1206.0000
 20
 165.8600
 11
1211.8600
 21
 160.0000
  0
LINE
  8
200
  6
AUSGEZOGEN
 10
1190.1400
 20
 160.0000
 11
1196.0000
 21
 165.8600
  0
LINE
  8
200
  6
AUSGEZOGEN
 10
1196.0000
 20
 174.1400
 11
1190.1400
 21
 180.0000
  0
LINE
  8
200
  6
AUSGEZOGEN
 10
1181.8600
 20
 180.0000
 11
1176.0000
 21
 174.1400
  0
LINE
  8
200
  6
AUSGEZOGEN
 10
1176.0000
 20
 165.8600
 11
1181.8600
 21
 160.0000
  0
LINE
  8
200
  6
AUSGEZOGEN
 10
1160.1400
 20
 160.0000
 11
1166.0000
 21
 165.8600
  0
LINE
  8
200
  6
AUSGEZOGEN
 10
1166.0000
 20
 174.1400
 11
1160.1400
 21
 180.0000
  0
LINE
  8
200
  6
AUSGEZOGEN
 10
1151.8600
 20
 180.0000
 11
1146.0000
 21
 174.1400
  0
LINE
  8
200
  6
AUSGEZOGEN
 10
1146.0000
 20
 165.8600
 11
1151.8600
 21
 160.0000
  0
LINE
  8
200
  6
AUSGEZOGEN
 10
1130.1400
 20
 160.0000
 11
1136.0000
 21
 165.8600
  0
LINE
  8
200
  6
AUSGEZOGEN
 10
1136.0000
 20
 174.1400
 11
1130.1400
 21
 180.0000
  0
LINE
  8
200
  6
AUSGEZOGEN
 10
1121.8600
 20
 180.0000
 11
1116.0000
 21
 174.1400
  0
LINE
  8
200
  6
AUSGEZOGEN
 10
1116.0000
 20
 165.8600
 11
1121.8600
 21
 160.0000
  0
LINE
  8
200
  6
AUSGEZOGEN
 10
1100.1400
 20
 160.0000
 11
1106.0000
 21
 165.8600
  0
LINE
  8
200
  6
AUSGEZOGEN
 10
1106.0000
 20
 174.1400
 11
1100.1400
 21
 180.0000
  0
LINE
  8
200
  6
AUSGEZOGEN
 10
1091.8600
 20
 180.0000
 11
1086.0000
 21
 174.1400
  0
LINE
  8
200
  6
AUSGEZOGEN
 10
1086.0000
 20
 165.8600
 11
1091.8600
 21
 160.0000
  0
LINE
  8
200
  6
AUSGEZOGEN
 10
1556.0000
 20
 195.8600
 11
1550.1400
 21
 190.0000
  0
LINE
  8
200
  6
AUSGEZOGEN
 10
1550.1400
 20
 210.0000
 11
1556.0000
 21
 204.1400
  0
LINE
  8
200
  6
AUSGEZOGEN
 10
1536.0000
 20
 204.1400
 11
1541.8600
 21
 210.0000
  0
LINE
  8
200
  6
AUSGEZOGEN
 10
1541.8600
 20
 190.0000
 11
1536.0000
 21
 195.8600
  0
LINE
  8
200
  6
AUSGEZOGEN
 10
1520.1400
 20
 190.0000
 11
1526.0000
 21
 195.8600
  0
LINE
  8
200
  6
AUSGEZOGEN
 10
1526.0000
 20
 204.1400
 11
1520.1400
 21
 210.0000
  0
LINE
  8
200
  6
AUSGEZOGEN
 10
1511.8600
 20
 210.0000
 11
1506.0000
 21
 204.1400
  0
LINE
  8
200
  6
AUSGEZOGEN
 10
1506.0000
 20
 195.8600
 11
1511.8600
 21
 190.0000
  0
LINE
  8
200
  6
AUSGEZOGEN
 10
1490.1400
 20
 190.0000
 11
1496.0000
 21
 195.8600
  0
LINE
  8
200
  6
AUSGEZOGEN
 10
1496.0000
 20
 204.1400
 11
1490.1400
 21
 210.0000
  0
LINE
  8
200
  6
AUSGEZOGEN
 10
1481.8600
 20
 210.0000
 11
1476.0000
 21
 204.1400
  0
LINE
  8
200
  6
AUSGEZOGEN
 10
1476.0000
 20
 195.8600
 11
1481.8600
 21
 190.0000
  0
LINE
  8
200
  6
AUSGEZOGEN
 10
1460.1400
 20
 190.0000
 11
1466.0000
 21
 195.8600
  0
LINE
  8
200
  6
AUSGEZOGEN
 10
1466.0000
 20
 204.1400
 11
1460.1400
 21
 210.0000
  0
LINE
  8
200
  6
AUSGEZOGEN
 10
1451.8600
 20
 210.0000
 11
1446.0000
 21
 204.1400
  0
LINE
  8
200
  6
AUSGEZOGEN
 10
1446.0000
 20
 195.8600
 11
1451.8600
 21
 190.0000
  0
LINE
  8
200
  6
AUSGEZOGEN
 10
1430.1400
 20
 190.0000
 11
1436.0000
 21
 195.8600
  0
LINE
  8
200
  6
AUSGEZOGEN
 10
1436.0000
 20
 204.1400
 11
1430.1400
 21
 210.0000
  0
LINE
  8
200
  6
AUSGEZOGEN
 10
1421.8600
 20
 210.0000
 11
1416.0000
 21
 204.1400
  0
LINE
  8
200
  6
AUSGEZOGEN
 10
1416.0000
 20
 195.8600
 11
1421.8600
 21
 190.0000
  0
LINE
  8
200
  6
AUSGEZOGEN
 10
1400.1400
 20
 190.0000
 11
1406.0000
 21
 195.8600
  0
LINE
  8
200
  6
AUSGEZOGEN
 10
1406.0000
 20
 204.1400
 11
1400.1400
 21
 210.0000
  0
LINE
  8
200
  6
AUSGEZOGEN
 10
1391.8600
 20
 210.0000
 11
1386.0000
 21
 204.1400
  0
LINE
  8
200
  6
AUSGEZOGEN
 10
1386.0000
 20
 195.8600
 11
1391.8600
 21
 190.0000
  0
LINE
  8
200
  6
AUSGEZOGEN
 10
1370.1400
 20
 190.0000
 11
1376.0000
 21
 195.8600
  0
LINE
  8
200
  6
AUSGEZOGEN
 10
1376.0000
 20
 204.1400
 11
1370.1400
 21
 210.0000
  0
LINE
  8
200
  6
AUSGEZOGEN
 10
1361.8600
 20
 210.0000
 11
1356.0000
 21
 204.1400
  0
LINE
  8
200
  6
AUSGEZOGEN
 10
1356.0000
 20
 195.8600
 11
1361.8600
 21
 190.0000
  0
LINE
  8
200
  6
AUSGEZOGEN
 10
1340.1400
 20
 190.0000
 11
1346.0000
 21
 195.8600
  0
LINE
  8
200
  6
AUSGEZOGEN
 10
1346.0000
 20
 204.1400
 11
1340.1400
 21
 210.0000
  0
LINE
  8
200
  6
AUSGEZOGEN
 10
1331.8600
 20
 210.0000
 11
1326.0000
 21
 204.1400
  0
LINE
  8
200
  6
AUSGEZOGEN
 10
1326.0000
 20
 195.8600
 11
1331.8600
 21
 190.0000
  0
LINE
  8
200
  6
AUSGEZOGEN
 10
1310.1400
 20
 190.0000
 11
1316.0000
 21
 195.8600
  0
LINE
  8
200
  6
AUSGEZOGEN
 10
1316.0000
 20
 204.1400
 11
1310.1400
 21
 210.0000
  0
LINE
  8
200
  6
AUSGEZOGEN
 10
1301.8600
 20
 210.0000
 11
1296.0000
 21
 204.1400
  0
LINE
  8
200
  6
AUSGEZOGEN
 10
1296.0000
 20
 195.8600
 11
1301.8600
 21
 190.0000
  0
LINE
  8
200
  6
AUSGEZOGEN
 10
1280.1400
 20
 190.0000
 11
1286.0000
 21
 195.8600
  0
LINE
  8
200
  6
AUSGEZOGEN
 10
1286.0000
 20
 204.1400
 11
1280.1400
 21
 210.0000
  0
LINE
  8
200
  6
AUSGEZOGEN
 10
1271.8600
 20
 210.0000
 11
1266.0000
 21
 204.1400
  0
LINE
  8
200
  6
AUSGEZOGEN
 10
1266.0000
 20
 195.8600
 11
1271.8600
 21
 190.0000
  0
LINE
  8
200
  6
AUSGEZOGEN
 10
1250.1400
 20
 190.0000
 11
1256.0000
 21
 195.8600
  0
LINE
  8
200
  6
AUSGEZOGEN
 10
1256.0000
 20
 204.1400
 11
1250.1400
 21
 210.0000
  0
LINE
  8
200
  6
AUSGEZOGEN
 10
1241.8600
 20
 210.0000
 11
1236.0000
 21
 204.1400
  0
LINE
  8
200
  6
AUSGEZOGEN
 10
1236.0000
 20
 195.8600
 11
1241.8600
 21
 190.0000
  0
LINE
  8
200
  6
AUSGEZOGEN
 10
1220.1400
 20
 190.0000
 11
1226.0000
 21
 195.8600
  0
LINE
  8
200
  6
AUSGEZOGEN
 10
1226.0000
 20
 204.1400
 11
1220.1400
 21
 210.0000
  0
LINE
  8
200
  6
AUSGEZOGEN
 10
1211.8600
 20
 210.0000
 11
1206.0000
 21
 204.1400
  0
LINE
  8
200
  6
AUSGEZOGEN
 10
1206.0000
 20
 195.8600
 11
1211.8600
 21
 190.0000
  0
LINE
  8
200
  6
AUSGEZOGEN
 10
1190.1400
 20
 190.0000
 11
1196.0000
 21
 195.8600
  0
LINE
  8
200
  6
AUSGEZOGEN
 10
1196.0000
 20
 204.1400
 11
1190.1400
 21
 210.0000
  0
LINE
  8
200
  6
AUSGEZOGEN
 10
1181.8600
 20
 210.0000
 11
1176.0000
 21
 204.1400
  0
LINE
  8
200
  6
AUSGEZOGEN
 10
1176.0000
 20
 195.8600
 11
1181.8600
 21
 190.0000
  0
LINE
  8
200
  6
AUSGEZOGEN
 10
1160.1400
 20
 190.0000
 11
1166.0000
 21
 195.8600
  0
LINE
  8
200
  6
AUSGEZOGEN
 10
1166.0000
 20
 204.1400
 11
1160.1400
 21
 210.0000
  0
LINE
  8
200
  6
AUSGEZOGEN
 10
1151.8600
 20
 210.0000
 11
1146.0000
 21
 204.1400
  0
LINE
  8
200
  6
AUSGEZOGEN
 10
1146.0000
 20
 195.8600
 11
1151.8600
 21
 190.0000
  0
LINE
  8
200
  6
AUSGEZOGEN
 10
1130.1400
 20
 190.0000
 11
1136.0000
 21
 195.8600
  0
LINE
  8
200
  6
AUSGEZOGEN
 10
1136.0000
 20
 204.1400
 11
1130.1400
 21
 210.0000
  0
LINE
  8
200
  6
AUSGEZOGEN
 10
1121.8600
 20
 210.0000
 11
1116.0000
 21
 204.1400
  0
LINE
  8
200
  6
AUSGEZOGEN
 10
1116.0000
 20
 195.8600
 11
1121.8600
 21
 190.0000
  0
LINE
  8
200
  6
AUSGEZOGEN
 10
1100.1400
 20
 190.0000
 11
1106.0000
 21
 195.8600
  0
LINE
  8
200
  6
AUSGEZOGEN
 10
1106.0000
 20
 204.1400
 11
1100.1400
 21
 210.0000
  0
LINE
  8
200
  6
AUSGEZOGEN
 10
1091.8600
 20
 210.0000
 11
1086.0000
 21
 204.1400
  0
LINE
  8
200
  6
AUSGEZOGEN
 10
1086.0000
 20
 195.8600
 11
1091.8600
 21
 190.0000
  0
LINE
  8
200
  6
AUSGEZOGEN
 10
1556.0000
 20
 225.8600
 11
1550.1400
 21
 220.0000
  0
LINE
  8
200
  6
AUSGEZOGEN
 10
1550.1400
 20
 240.0000
 11
1556.0000
 21
 234.1400
  0
LINE
  8
200
  6
AUSGEZOGEN
 10
1536.0000
 20
 234.1400
 11
1541.8600
 21
 240.0000
  0
LINE
  8
200
  6
AUSGEZOGEN
 10
1541.8600
 20
 220.0000
 11
1536.0000
 21
 225.8600
  0
LINE
  8
200
  6
AUSGEZOGEN
 10
1520.1400
 20
 220.0000
 11
1526.0000
 21
 225.8600
  0
LINE
  8
200
  6
AUSGEZOGEN
 10
1526.0000
 20
 234.1400
 11
1520.1400
 21
 240.0000
  0
LINE
  8
200
  6
AUSGEZOGEN
 10
1511.8600
 20
 240.0000
 11
1506.0000
 21
 234.1400
  0
LINE
  8
200
  6
AUSGEZOGEN
 10
1506.0000
 20
 225.8600
 11
1511.8600
 21
 220.0000
  0
LINE
  8
200
  6
AUSGEZOGEN
 10
1490.1400
 20
 220.0000
 11
1496.0000
 21
 225.8600
  0
LINE
  8
200
  6
AUSGEZOGEN
 10
1496.0000
 20
 234.1400
 11
1490.1400
 21
 240.0000
  0
LINE
  8
200
  6
AUSGEZOGEN
 10
1481.8600
 20
 240.0000
 11
1476.0000
 21
 234.1400
  0
LINE
  8
200
  6
AUSGEZOGEN
 10
1476.0000
 20
 225.8600
 11
1481.8600
 21
 220.0000
  0
LINE
  8
200
  6
AUSGEZOGEN
 10
1460.1400
 20
 220.0000
 11
1466.0000
 21
 225.8600
  0
LINE
  8
200
  6
AUSGEZOGEN
 10
1466.0000
 20
 234.1400
 11
1460.1400
 21
 240.0000
  0
LINE
  8
200
  6
AUSGEZOGEN
 10
1451.8600
 20
 240.0000
 11
1446.0000
 21
 234.1400
  0
LINE
  8
200
  6
AUSGEZOGEN
 10
1446.0000
 20
 225.8600
 11
1451.8600
 21
 220.0000
  0
LINE
  8
200
  6
AUSGEZOGEN
 10
1430.1400
 20
 220.0000
 11
1436.0000
 21
 225.8600
  0
LINE
  8
200
  6
AUSGEZOGEN
 10
1436.0000
 20
 234.1400
 11
1430.1400
 21
 240.0000
  0
LINE
  8
200
  6
AUSGEZOGEN
 10
1421.8600
 20
 240.0000
 11
1416.0000
 21
 234.1400
  0
LINE
  8
200
  6
AUSGEZOGEN
 10
1416.0000
 20
 225.8600
 11
1421.8600
 21
 220.0000
  0
LINE
  8
200
  6
AUSGEZOGEN
 10
1400.1400
 20
 220.0000
 11
1406.0000
 21
 225.8600
  0
LINE
  8
200
  6
AUSGEZOGEN
 10
1406.0000
 20
 234.1400
 11
1400.1400
 21
 240.0000
  0
LINE
  8
200
  6
AUSGEZOGEN
 10
1391.8600
 20
 240.0000
 11
1386.0000
 21
 234.1400
  0
LINE
  8
200
  6
AUSGEZOGEN
 10
1386.0000
 20
 225.8600
 11
1391.8600
 21
 220.0000
  0
LINE
  8
200
  6
AUSGEZOGEN
 10
1370.1400
 20
 220.0000
 11
1376.0000
 21
 225.8600
  0
LINE
  8
200
  6
AUSGEZOGEN
 10
1376.0000
 20
 234.1400
 11
1370.1400
 21
 240.0000
  0
LINE
  8
200
  6
AUSGEZOGEN
 10
1361.8600
 20
 240.0000
 11
1356.0000
 21
 234.1400
  0
LINE
  8
200
  6
AUSGEZOGEN
 10
1356.0000
 20
 225.8600
 11
1361.8600
 21
 220.0000
  0
LINE
  8
200
  6
AUSGEZOGEN
 10
1340.1400
 20
 220.0000
 11
1346.0000
 21
 225.8600
  0
LINE
  8
200
  6
AUSGEZOGEN
 10
1346.0000
 20
 234.1400
 11
1340.1400
 21
 240.0000
  0
LINE
  8
200
  6
AUSGEZOGEN
 10
1331.8600
 20
 240.0000
 11
1326.0000
 21
 234.1400
  0
LINE
  8
200
  6
AUSGEZOGEN
 10
1326.0000
 20
 225.8600
 11
1331.8600
 21
 220.0000
  0
LINE
  8
200
  6
AUSGEZOGEN
 10
1310.1400
 20
 220.0000
 11
1316.0000
 21
 225.8600
  0
LINE
  8
200
  6
AUSGEZOGEN
 10
1316.0000
 20
 234.1400
 11
1310.1400
 21
 240.0000
  0
LINE
  8
200
  6
AUSGEZOGEN
 10
1301.8600
 20
 240.0000
 11
1296.0000
 21
 234.1400
  0
LINE
  8
200
  6
AUSGEZOGEN
 10
1296.0000
 20
 225.8600
 11
1301.8600
 21
 220.0000
  0
LINE
  8
200
  6
AUSGEZOGEN
 10
1280.1400
 20
 220.0000
 11
1286.0000
 21
 225.8600
  0
LINE
  8
200
  6
AUSGEZOGEN
 10
1286.0000
 20
 234.1400
 11
1280.1400
 21
 240.0000
  0
LINE
  8
200
  6
AUSGEZOGEN
 10
1271.8600
 20
 240.0000
 11
1266.0000
 21
 234.1400
  0
LINE
  8
200
  6
AUSGEZOGEN
 10
1266.0000
 20
 225.8600
 11
1271.8600
 21
 220.0000
  0
LINE
  8
200
  6
AUSGEZOGEN
 10
1250.1400
 20
 220.0000
 11
1256.0000
 21
 225.8600
  0
LINE
  8
200
  6
AUSGEZOGEN
 10
1256.0000
 20
 234.1400
 11
1250.1400
 21
 240.0000
  0
LINE
  8
200
  6
AUSGEZOGEN
 10
1241.8600
 20
 240.0000
 11
1236.0000
 21
 234.1400
  0
LINE
  8
200
  6
AUSGEZOGEN
 10
1236.0000
 20
 225.8600
 11
1241.8600
 21
 220.0000
  0
LINE
  8
200
  6
AUSGEZOGEN
 10
1220.1400
 20
 220.0000
 11
1226.0000
 21
 225.8600
  0
LINE
  8
200
  6
AUSGEZOGEN
 10
1226.0000
 20
 234.1400
 11
1220.1400
 21
 240.0000
  0
LINE
  8
200
  6
AUSGEZOGEN
 10
1211.8600
 20
 240.0000
 11
1206.0000
 21
 234.1400
  0
LINE
  8
200
  6
AUSGEZOGEN
 10
1206.0000
 20
 225.8600
 11
1211.8600
 21
 220.0000
  0
LINE
  8
200
  6
AUSGEZOGEN
 10
1190.1400
 20
 220.0000
 11
1196.0000
 21
 225.8600
  0
LINE
  8
200
  6
AUSGEZOGEN
 10
1196.0000
 20
 234.1400
 11
1190.1400
 21
 240.0000
  0
LINE
  8
200
  6
AUSGEZOGEN
 10
1181.8600
 20
 240.0000
 11
1176.0000
 21
 234.1400
  0
LINE
  8
200
  6
AUSGEZOGEN
 10
1176.0000
 20
 225.8600
 11
1181.8600
 21
 220.0000
  0
LINE
  8
200
  6
AUSGEZOGEN
 10
1160.1400
 20
 220.0000
 11
1166.0000
 21
 225.8600
  0
LINE
  8
200
  6
AUSGEZOGEN
 10
1166.0000
 20
 234.1400
 11
1160.1400
 21
 240.0000
  0
LINE
  8
200
  6
AUSGEZOGEN
 10
1151.8600
 20
 240.0000
 11
1146.0000
 21
 234.1400
  0
LINE
  8
200
  6
AUSGEZOGEN
 10
1146.0000
 20
 225.8600
 11
1151.8600
 21
 220.0000
  0
LINE
  8
200
  6
AUSGEZOGEN
 10
1130.1400
 20
 220.0000
 11
1136.0000
 21
 225.8600
  0
LINE
  8
200
  6
AUSGEZOGEN
 10
1136.0000
 20
 234.1400
 11
1130.1400
 21
 240.0000
  0
LINE
  8
200
  6
AUSGEZOGEN
 10
1121.8600
 20
 240.0000
 11
1116.0000
 21
 234.1400
  0
LINE
  8
200
  6
AUSGEZOGEN
 10
1116.0000
 20
 225.8600
 11
1121.8600
 21
 220.0000
  0
LINE
  8
200
  6
AUSGEZOGEN
 10
1100.1400
 20
 220.0000
 11
1106.0000
 21
 225.8600
  0
LINE
  8
200
  6
AUSGEZOGEN
 10
1106.0000
 20
 234.1400
 11
1100.1400
 21
 240.0000
  0
LINE
  8
200
  6
AUSGEZOGEN
 10
1091.8600
 20
 240.0000
 11
1086.0000
 21
 234.1400
  0
LINE
  8
200
  6
AUSGEZOGEN
 10
1086.0000
 20
 225.8600
 11
1091.8600
 21
 220.0000
  0
LINE
  8
200
  6
AUSGEZOGEN
 10
1556.0000
 20
 255.8600
 11
1550.1400
 21
 250.0000
  0
LINE
  8
200
  6
AUSGEZOGEN
 10
1550.1400
 20
 270.0000
 11
1556.0000
 21
 264.1400
  0
LINE
  8
200
  6
AUSGEZOGEN
 10
1536.0000
 20
 264.1400
 11
1541.8600
 21
 270.0000
  0
LINE
  8
200
  6
AUSGEZOGEN
 10
1541.8600
 20
 250.0000
 11
1536.0000
 21
 255.8600
  0
LINE
  8
200
  6
AUSGEZOGEN
 10
1520.1400
 20
 250.0000
 11
1526.0000
 21
 255.8600
  0
LINE
  8
200
  6
AUSGEZOGEN
 10
1526.0000
 20
 264.1400
 11
1520.1400
 21
 270.0000
  0
LINE
  8
200
  6
AUSGEZOGEN
 10
1511.8600
 20
 270.0000
 11
1506.0000
 21
 264.1400
  0
LINE
  8
200
  6
AUSGEZOGEN
 10
1506.0000
 20
 255.8600
 11
1511.8600
 21
 250.0000
  0
LINE
  8
200
  6
AUSGEZOGEN
 10
1490.1400
 20
 250.0000
 11
1496.0000
 21
 255.8600
  0
LINE
  8
200
  6
AUSGEZOGEN
 10
1496.0000
 20
 264.1400
 11
1490.1400
 21
 270.0000
  0
LINE
  8
200
  6
AUSGEZOGEN
 10
1481.8600
 20
 270.0000
 11
1476.0000
 21
 264.1400
  0
LINE
  8
200
  6
AUSGEZOGEN
 10
1476.0000
 20
 255.8600
 11
1481.8600
 21
 250.0000
  0
LINE
  8
200
  6
AUSGEZOGEN
 10
1460.1400
 20
 250.0000
 11
1466.0000
 21
 255.8600
  0
LINE
  8
200
  6
AUSGEZOGEN
 10
1466.0000
 20
 264.1400
 11
1460.1400
 21
 270.0000
  0
LINE
  8
200
  6
AUSGEZOGEN
 10
1451.8600
 20
 270.0000
 11
1446.0000
 21
 264.1400
  0
LINE
  8
200
  6
AUSGEZOGEN
 10
1446.0000
 20
 255.8600
 11
1451.8600
 21
 250.0000
  0
LINE
  8
200
  6
AUSGEZOGEN
 10
1430.1400
 20
 250.0000
 11
1436.0000
 21
 255.8600
  0
LINE
  8
200
  6
AUSGEZOGEN
 10
1436.0000
 20
 264.1400
 11
1430.1400
 21
 270.0000
  0
LINE
  8
200
  6
AUSGEZOGEN
 10
1421.8600
 20
 270.0000
 11
1416.0000
 21
 264.1400
  0
LINE
  8
200
  6
AUSGEZOGEN
 10
1416.0000
 20
 255.8600
 11
1421.8600
 21
 250.0000
  0
LINE
  8
200
  6
AUSGEZOGEN
 10
1400.1400
 20
 250.0000
 11
1406.0000
 21
 255.8600
  0
LINE
  8
200
  6
AUSGEZOGEN
 10
1406.0000
 20
 264.1400
 11
1400.1400
 21
 270.0000
  0
LINE
  8
200
  6
AUSGEZOGEN
 10
1391.8600
 20
 270.0000
 11
1386.0000
 21
 264.1400
  0
LINE
  8
200
  6
AUSGEZOGEN
 10
1386.0000
 20
 255.8600
 11
1391.8600
 21
 250.0000
  0
LINE
  8
200
  6
AUSGEZOGEN
 10
1370.1400
 20
 250.0000
 11
1376.0000
 21
 255.8600
  0
LINE
  8
200
  6
AUSGEZOGEN
 10
1376.0000
 20
 264.1400
 11
1370.1400
 21
 270.0000
  0
LINE
  8
200
  6
AUSGEZOGEN
 10
1361.8600
 20
 270.0000
 11
1356.0000
 21
 264.1400
  0
LINE
  8
200
  6
AUSGEZOGEN
 10
1356.0000
 20
 255.8600
 11
1361.8600
 21
 250.0000
  0
LINE
  8
200
  6
AUSGEZOGEN
 10
1340.1400
 20
 250.0000
 11
1346.0000
 21
 255.8600
  0
LINE
  8
200
  6
AUSGEZOGEN
 10
1346.0000
 20
 264.1400
 11
1340.1400
 21
 270.0000
  0
LINE
  8
200
  6
AUSGEZOGEN
 10
1331.8600
 20
 270.0000
 11
1326.0000
 21
 264.1400
  0
LINE
  8
200
  6
AUSGEZOGEN
 10
1326.0000
 20
 255.8600
 11
1331.8600
 21
 250.0000
  0
LINE
  8
200
  6
AUSGEZOGEN
 10
1310.1400
 20
 250.0000
 11
1316.0000
 21
 255.8600
  0
LINE
  8
200
  6
AUSGEZOGEN
 10
1316.0000
 20
 264.1400
 11
1310.1400
 21
 270.0000
  0
LINE
  8
200
  6
AUSGEZOGEN
 10
1301.8600
 20
 270.0000
 11
1296.0000
 21
 264.1400
  0
LINE
  8
200
  6
AUSGEZOGEN
 10
1296.0000
 20
 255.8600
 11
1301.8600
 21
 250.0000
  0
LINE
  8
200
  6
AUSGEZOGEN
 10
1280.1400
 20
 250.0000
 11
1286.0000
 21
 255.8600
  0
LINE
  8
200
  6
AUSGEZOGEN
 10
1286.0000
 20
 264.1400
 11
1280.1400
 21
 270.0000
  0
LINE
  8
200
  6
AUSGEZOGEN
 10
1271.8600
 20
 270.0000
 11
1266.0000
 21
 264.1400
  0
LINE
  8
200
  6
AUSGEZOGEN
 10
1266.0000
 20
 255.8600
 11
1271.8600
 21
 250.0000
  0
LINE
  8
200
  6
AUSGEZOGEN
 10
1250.1400
 20
 250.0000
 11
1256.0000
 21
 255.8600
  0
LINE
  8
200
  6
AUSGEZOGEN
 10
1256.0000
 20
 264.1400
 11
1250.1400
 21
 270.0000
  0
LINE
  8
200
  6
AUSGEZOGEN
 10
1241.8600
 20
 270.0000
 11
1236.0000
 21
 264.1400
  0
LINE
  8
200
  6
AUSGEZOGEN
 10
1236.0000
 20
 255.8600
 11
1241.8600
 21
 250.0000
  0
LINE
  8
200
  6
AUSGEZOGEN
 10
1220.1400
 20
 250.0000
 11
1226.0000
 21
 255.8600
  0
LINE
  8
200
  6
AUSGEZOGEN
 10
1226.0000
 20
 264.1400
 11
1220.1400
 21
 270.0000
  0
LINE
  8
200
  6
AUSGEZOGEN
 10
1211.8600
 20
 270.0000
 11
1206.0000
 21
 264.1400
  0
LINE
  8
200
  6
AUSGEZOGEN
 10
1206.0000
 20
 255.8600
 11
1211.8600
 21
 250.0000
  0
LINE
  8
200
  6
AUSGEZOGEN
 10
1190.1400
 20
 250.0000
 11
1196.0000
 21
 255.8600
  0
LINE
  8
200
  6
AUSGEZOGEN
 10
1196.0000
 20
 264.1400
 11
1190.1400
 21
 270.0000
  0
LINE
  8
200
  6
AUSGEZOGEN
 10
1181.8600
 20
 270.0000
 11
1176.0000
 21
 264.1400
  0
LINE
  8
200
  6
AUSGEZOGEN
 10
1176.0000
 20
 255.8600
 11
1181.8600
 21
 250.0000
  0
LINE
  8
200
  6
AUSGEZOGEN
 10
1160.1400
 20
 250.0000
 11
1166.0000
 21
 255.8600
  0
LINE
  8
200
  6
AUSGEZOGEN
 10
1166.0000
 20
 264.1400
 11
1160.1400
 21
 270.0000
  0
LINE
  8
200
  6
AUSGEZOGEN
 10
1151.8600
 20
 270.0000
 11
1146.0000
 21
 264.1400
  0
LINE
  8
200
  6
AUSGEZOGEN
 10
1146.0000
 20
 255.8600
 11
1151.8600
 21
 250.0000
  0
LINE
  8
200
  6
AUSGEZOGEN
 10
1130.1400
 20
 250.0000
 11
1136.0000
 21
 255.8600
  0
LINE
  8
200
  6
AUSGEZOGEN
 10
1136.0000
 20
 264.1400
 11
1130.1400
 21
 270.0000
  0
LINE
  8
200
  6
AUSGEZOGEN
 10
1121.8600
 20
 270.0000
 11
1116.0000
 21
 264.1400
  0
LINE
  8
200
  6
AUSGEZOGEN
 10
1116.0000
 20
 255.8600
 11
1121.8600
 21
 250.0000
  0
LINE
  8
200
  6
AUSGEZOGEN
 10
1100.1400
 20
 250.0000
 11
1106.0000
 21
 255.8600
  0
LINE
  8
200
  6
AUSGEZOGEN
 10
1106.0000
 20
 264.1400
 11
1100.1400
 21
 270.0000
  0
LINE
  8
200
  6
AUSGEZOGEN
 10
1091.8600
 20
 270.0000
 11
1086.0000
 21
 264.1400
  0
LINE
  8
200
  6
AUSGEZOGEN
 10
1086.0000
 20
 255.8600
 11
1091.8600
 21
 250.0000
  0
LINE
  8
200
  6
AUSGEZOGEN
 10
2016.0000
 20
 315.8600
 11
2021.8600
 21
 310.0000
  0
LINE
  8
200
  6
AUSGEZOGEN
 10
2096.0000
 20
 345.8600
 11
2090.1400
 21
 340.0000
  0
LINE
  8
200
  6
AUSGEZOGEN
 10
2090.1400
 20
 360.0000
 11
2096.0000
 21
 354.1400
  0
LINE
  8
200
  6
AUSGEZOGEN
 10
2076.0000
 20
 354.1400
 11
2081.8600
 21
 360.0000
  0
LINE
  8
200
  6
AUSGEZOGEN
 10
2081.8600
 20
 340.0000
 11
2076.0000
 21
 345.8600
  0
LINE
  8
200
  6
AUSGEZOGEN
 10
2060.1400
 20
 340.0000
 11
2066.0000
 21
 345.8600
  0
LINE
  8
200
  6
AUSGEZOGEN
 10
2066.0000
 20
 354.1400
 11
2060.1400
 21
 360.0000
  0
LINE
  8
200
  6
AUSGEZOGEN
 10
2051.8600
 20
 360.0000
 11
2046.0000
 21
 354.1400
  0
LINE
  8
200
  6
AUSGEZOGEN
 10
2046.0000
 20
 345.8600
 11
2051.8600
 21
 340.0000
  0
LINE
  8
200
  6
AUSGEZOGEN
 10
2030.1400
 20
 340.0000
 11
2036.0000
 21
 345.8600
  0
LINE
  8
200
  6
AUSGEZOGEN
 10
2036.0000
 20
 354.1400
 11
2030.1400
 21
 360.0000
  0
LINE
  8
200
  6
AUSGEZOGEN
 10
2021.8600
 20
 360.0000
 11
2016.0000
 21
 354.1400
  0
LINE
  8
200
  6
AUSGEZOGEN
 10
2016.0000
 20
 345.8600
 11
2021.8600
 21
 340.0000
  0
LINE
  8
200
  6
AUSGEZOGEN
 10
2000.1400
 20
 340.0000
 11
2006.0000
 21
 345.8600
  0
LINE
  8
200
  6
AUSGEZOGEN
 10
2006.0000
 20
 354.1400
 11
2000.1400
 21
 360.0000
  0
LINE
  8
200
  6
AUSGEZOGEN
 10
1991.8600
 20
 360.0000
 11
1986.0000
 21
 354.1400
  0
LINE
  8
200
  6
AUSGEZOGEN
 10
1986.0000
 20
 345.8600
 11
1991.8600
 21
 340.0000
  0
LINE
  8
200
  6
AUSGEZOGEN
 10
1970.1400
 20
 340.0000
 11
1976.0000
 21
 345.8600
  0
LINE
  8
200
  6
AUSGEZOGEN
 10
1976.0000
 20
 354.1400
 11
1970.1400
 21
 360.0000
  0
LINE
  8
200
  6
AUSGEZOGEN
 10
1961.8600
 20
 360.0000
 11
1956.0000
 21
 354.1400
  0
LINE
  8
200
  6
AUSGEZOGEN
 10
1956.0000
 20
 345.8600
 11
1961.8600
 21
 340.0000
  0
LINE
  8
200
  6
AUSGEZOGEN
 10
1940.1400
 20
 340.0000
 11
1946.0000
 21
 345.8600
  0
LINE
  8
200
  6
AUSGEZOGEN
 10
1946.0000
 20
 354.1400
 11
1940.1400
 21
 360.0000
  0
LINE
  8
200
  6
AUSGEZOGEN
 10
1931.8600
 20
 360.0000
 11
1926.0000
 21
 354.1400
  0
LINE
  8
200
  6
AUSGEZOGEN
 10
1926.0000
 20
 345.8600
 11
1931.8600
 21
 340.0000
  0
LINE
  8
200
  6
AUSGEZOGEN
 10
1910.1400
 20
 340.0000
 11
1916.0000
 21
 345.8600
  0
LINE
  8
200
  6
AUSGEZOGEN
 10
1916.0000
 20
 354.1400
 11
1910.1400
 21
 360.0000
  0
LINE
  8
200
  6
AUSGEZOGEN
 10
1901.8600
 20
 360.0000
 11
1896.0000
 21
 354.1400
  0
LINE
  8
200
  6
AUSGEZOGEN
 10
1896.0000
 20
 345.8600
 11
1901.8600
 21
 340.0000
  0
LINE
  8
200
  6
AUSGEZOGEN
 10
1880.1400
 20
 340.0000
 11
1886.0000
 21
 345.8600
  0
LINE
  8
200
  6
AUSGEZOGEN
 10
1886.0000
 20
 354.1400
 11
1880.1400
 21
 360.0000
  0
LINE
  8
200
  6
AUSGEZOGEN
 10
1871.8600
 20
 360.0000
 11
1866.0000
 21
 354.1400
  0
LINE
  8
200
  6
AUSGEZOGEN
 10
1866.0000
 20
 345.8600
 11
1871.8600
 21
 340.0000
  0
LINE
  8
200
  6
AUSGEZOGEN
 10
1850.1400
 20
 340.0000
 11
1856.0000
 21
 345.8600
  0
LINE
  8
200
  6
AUSGEZOGEN
 10
1856.0000
 20
 354.1400
 11
1850.1400
 21
 360.0000
  0
LINE
  8
200
  6
AUSGEZOGEN
 10
1841.8600
 20
 360.0000
 11
1836.0000
 21
 354.1400
  0
LINE
  8
200
  6
AUSGEZOGEN
 10
1836.0000
 20
 345.8600
 11
1841.8600
 21
 340.0000
  0
LINE
  8
200
  6
AUSGEZOGEN
 10
1820.1400
 20
 340.0000
 11
1826.0000
 21
 345.8600
  0
LINE
  8
200
  6
AUSGEZOGEN
 10
1826.0000
 20
 354.1400
 11
1820.1400
 21
 360.0000
  0
LINE
  8
200
  6
AUSGEZOGEN
 10
1811.8600
 20
 360.0000
 11
1806.0000
 21
 354.1400
  0
LINE
  8
200
  6
AUSGEZOGEN
 10
1806.0000
 20
 345.8600
 11
1811.8600
 21
 340.0000
  0
LINE
  8
200
  6
AUSGEZOGEN
 10
1790.1400
 20
 340.0000
 11
1796.0000
 21
 345.8600
  0
LINE
  8
200
  6
AUSGEZOGEN
 10
1796.0000
 20
 354.1400
 11
1790.1400
 21
 360.0000
  0
LINE
  8
200
  6
AUSGEZOGEN
 10
1781.8600
 20
 360.0000
 11
1776.0000
 21
 354.1400
  0
LINE
  8
200
  6
AUSGEZOGEN
 10
1776.0000
 20
 345.8600
 11
1781.8600
 21
 340.0000
  0
LINE
  8
200
  6
AUSGEZOGEN
 10
1760.1400
 20
 340.0000
 11
1766.0000
 21
 345.8600
  0
LINE
  8
200
  6
AUSGEZOGEN
 10
1766.0000
 20
 354.1400
 11
1760.1400
 21
 360.0000
  0
LINE
  8
200
  6
AUSGEZOGEN
 10
1751.8600
 20
 360.0000
 11
1746.0000
 21
 354.1400
  0
LINE
  8
200
  6
AUSGEZOGEN
 10
1746.0000
 20
 345.8600
 11
1751.8600
 21
 340.0000
  0
LINE
  8
200
  6
AUSGEZOGEN
 10
1730.1400
 20
 340.0000
 11
1736.0000
 21
 345.8600
  0
LINE
  8
200
  6
AUSGEZOGEN
 10
1736.0000
 20
 354.1400
 11
1730.1400
 21
 360.0000
  0
LINE
  8
200
  6
AUSGEZOGEN
 10
1721.8600
 20
 360.0000
 11
1716.0000
 21
 354.1400
  0
LINE
  8
200
  6
AUSGEZOGEN
 10
1716.0000
 20
 345.8600
 11
1721.8600
 21
 340.0000
  0
LINE
  8
200
  6
AUSGEZOGEN
 10
1700.1400
 20
 340.0000
 11
1706.0000
 21
 345.8600
  0
LINE
  8
200
  6
AUSGEZOGEN
 10
1706.0000
 20
 354.1400
 11
1700.1400
 21
 360.0000
  0
LINE
  8
200
  6
AUSGEZOGEN
 10
1691.8600
 20
 360.0000
 11
1686.0000
 21
 354.1400
  0
LINE
  8
200
  6
AUSGEZOGEN
 10
1686.0000
 20
 345.8600
 11
1691.8600
 21
 340.0000
  0
LINE
  8
200
  6
AUSGEZOGEN
 10
1670.1400
 20
 340.0000
 11
1676.0000
 21
 345.8600
  0
LINE
  8
200
  6
AUSGEZOGEN
 10
1676.0000
 20
 354.1400
 11
1670.1400
 21
 360.0000
  0
LINE
  8
200
  6
AUSGEZOGEN
 10
1661.8600
 20
 360.0000
 11
1656.0000
 21
 354.1400
  0
LINE
  8
200
  6
AUSGEZOGEN
 10
1656.0000
 20
 345.8600
 11
1661.8600
 21
 340.0000
  0
LINE
  8
200
  6
AUSGEZOGEN
 10
1640.1400
 20
 340.0000
 11
1646.0000
 21
 345.8600
  0
LINE
  8
200
  6
AUSGEZOGEN
 10
1646.0000
 20
 354.1400
 11
1640.1400
 21
 360.0000
  0
LINE
  8
200
  6
AUSGEZOGEN
 10
1631.8600
 20
 360.0000
 11
1626.0000
 21
 354.1400
  0
LINE
  8
200
  6
AUSGEZOGEN
 10
1626.0000
 20
 345.8600
 11
1631.8600
 21
 340.0000
  0
LINE
  8
200
  6
AUSGEZOGEN
 10
1610.1400
 20
 340.0000
 11
1616.0000
 21
 345.8600
  0
LINE
  8
200
  6
AUSGEZOGEN
 10
1616.0000
 20
 354.1400
 11
1610.1400
 21
 360.0000
  0
LINE
  8
200
  6
AUSGEZOGEN
 10
1601.8600
 20
 360.0000
 11
1596.0000
 21
 354.1400
  0
LINE
  8
200
  6
AUSGEZOGEN
 10
1596.0000
 20
 345.8600
 11
1601.8600
 21
 340.0000
  0
LINE
  8
200
  6
AUSGEZOGEN
 10
1610.1400
 20
 310.0000
 11
1616.0000
 21
 315.8600
  0
LINE
  8
200
  6
AUSGEZOGEN
 10
1616.0000
 20
 324.1400
 11
1610.1400
 21
 330.0000
  0
LINE
  8
200
  6
AUSGEZOGEN
 10
1601.8600
 20
 330.0000
 11
1596.0000
 21
 324.1400
  0
LINE
  8
200
  6
AUSGEZOGEN
 10
1596.0000
 20
 315.8600
 11
1601.8600
 21
 310.0000
  0
LINE
  8
200
  6
AUSGEZOGEN
 10
1610.1400
 20
 280.0000
 11
1616.0000
 21
 285.8600
  0
LINE
  8
200
  6
AUSGEZOGEN
 10
1616.0000
 20
 294.1400
 11
1610.1400
 21
 300.0000
  0
LINE
  8
200
  6
AUSGEZOGEN
 10
1601.8600
 20
 300.0000
 11
1596.0000
 21
 294.1400
  0
LINE
  8
200
  6
AUSGEZOGEN
 10
1596.0000
 20
 285.8600
 11
1601.8600
 21
 280.0000
  0
LINE
  8
200
  6
AUSGEZOGEN
 10
1610.1400
 20
 100.0000
 11
1616.0000
 21
 105.8600
  0
LINE
  8
200
  6
AUSGEZOGEN
 10
1616.0000
 20
 114.1400
 11
1610.1400
 21
 120.0000
  0
LINE
  8
200
  6
AUSGEZOGEN
 10
1601.8600
 20
 120.0000
 11
1596.0000
 21
 114.1400
  0
LINE
  8
200
  6
AUSGEZOGEN
 10
1596.0000
 20
 105.8600
 11
1601.8600
 21
 100.0000
  0
LINE
  8
200
  6
AUSGEZOGEN
 10
1616.0000
 20
 135.8600
 11
1610.1400
 21
 130.0000
  0
LINE
  8
200
  6
AUSGEZOGEN
 10
1610.1400
 20
 150.0000
 11
1616.0000
 21
 144.1400
  0
LINE
  8
200
  6
AUSGEZOGEN
 10
1596.0000
 20
 144.1400
 11
1601.8600
 21
 150.0000
  0
LINE
  8
200
  6
AUSGEZOGEN
 10
1601.8600
 20
 130.0000
 11
1596.0000
 21
 135.8600
  0
LINE
  8
200
  6
AUSGEZOGEN
 10
1616.0000
 20
 165.8600
 11
1610.1400
 21
 160.0000
  0
LINE
  8
200
  6
AUSGEZOGEN
 10
1610.1400
 20
 180.0000
 11
1616.0000
 21
 174.1400
  0
LINE
  8
200
  6
AUSGEZOGEN
 10
1596.0000
 20
 174.1400
 11
1601.8600
 21
 180.0000
  0
LINE
  8
200
  6
AUSGEZOGEN
 10
1601.8600
 20
 160.0000
 11
1596.0000
 21
 165.8600
  0
LINE
  8
200
  6
AUSGEZOGEN
 10
1616.0000
 20
 195.8600
 11
1610.1400
 21
 190.0000
  0
LINE
  8
200
  6
AUSGEZOGEN
 10
1610.1400
 20
 210.0000
 11
1616.0000
 21
 204.1400
  0
LINE
  8
200
  6
AUSGEZOGEN
 10
1596.0000
 20
 204.1400
 11
1601.8600
 21
 210.0000
  0
LINE
  8
200
  6
AUSGEZOGEN
 10
1601.8600
 20
 190.0000
 11
1596.0000
 21
 195.8600
  0
LINE
  8
200
  6
AUSGEZOGEN
 10
1616.0000
 20
 225.8600
 11
1610.1400
 21
 220.0000
  0
LINE
  8
200
  6
AUSGEZOGEN
 10
1610.1400
 20
 240.0000
 11
1616.0000
 21
 234.1400
  0
LINE
  8
200
  6
AUSGEZOGEN
 10
1596.0000
 20
 234.1400
 11
1601.8600
 21
 240.0000
  0
LINE
  8
200
  6
AUSGEZOGEN
 10
1601.8600
 20
 220.0000
 11
1596.0000
 21
 225.8600
  0
LINE
  8
200
  6
AUSGEZOGEN
 10
1616.0000
 20
 255.8600
 11
1610.1400
 21
 250.0000
  0
LINE
  8
200
  6
AUSGEZOGEN
 10
1610.1400
 20
 270.0000
 11
1616.0000
 21
 264.1400
  0
LINE
  8
200
  6
AUSGEZOGEN
 10
1596.0000
 20
 264.1400
 11
1601.8600
 21
 270.0000
  0
LINE
  8
200
  6
AUSGEZOGEN
 10
1601.8600
 20
 250.0000
 11
1596.0000
 21
 255.8600
  0
LINE
  8
200
  6
AUSGEZOGEN
 10
2096.0000
 20
 315.8600
 11
2090.1400
 21
 310.0000
  0
LINE
  8
200
  6
AUSGEZOGEN
 10
2090.1400
 20
 330.0000
 11
2096.0000
 21
 324.1400
  0
LINE
  8
200
  6
AUSGEZOGEN
 10
2076.0000
 20
 324.1400
 11
2081.8600
 21
 330.0000
  0
LINE
  8
200
  6
AUSGEZOGEN
 10
2081.8600
 20
 310.0000
 11
2076.0000
 21
 315.8600
  0
LINE
  8
200
  6
AUSGEZOGEN
 10
2060.1400
 20
 310.0000
 11
2066.0000
 21
 315.8600
  0
LINE
  8
200
  6
AUSGEZOGEN
 10
2066.0000
 20
 324.1400
 11
2060.1400
 21
 330.0000
  0
LINE
  8
200
  6
AUSGEZOGEN
 10
2051.8600
 20
 330.0000
 11
2046.0000
 21
 324.1400
  0
LINE
  8
200
  6
AUSGEZOGEN
 10
2046.0000
 20
 315.8600
 11
2051.8600
 21
 310.0000
  0
LINE
  8
200
  6
AUSGEZOGEN
 10
2030.1400
 20
 310.0000
 11
2036.0000
 21
 315.8600
  0
LINE
  8
200
  6
AUSGEZOGEN
 10
2036.0000
 20
 324.1400
 11
2030.1400
 21
 330.0000
  0
LINE
  8
200
  6
AUSGEZOGEN
 10
2021.8600
 20
 330.0000
 11
2016.0000
 21
 324.1400
  0
LINE
  8
200
  6
AUSGEZOGEN
 10
2000.1400
 20
 310.0000
 11
2006.0000
 21
 315.8600
  0
LINE
  8
200
  6
AUSGEZOGEN
 10
2006.0000
 20
 324.1400
 11
2000.1400
 21
 330.0000
  0
LINE
  8
200
  6
AUSGEZOGEN
 10
1991.8600
 20
 330.0000
 11
1986.0000
 21
 324.1400
  0
LINE
  8
200
  6
AUSGEZOGEN
 10
1986.0000
 20
 315.8600
 11
1991.8600
 21
 310.0000
  0
LINE
  8
200
  6
AUSGEZOGEN
 10
1970.1400
 20
 310.0000
 11
1976.0000
 21
 315.8600
  0
LINE
  8
200
  6
AUSGEZOGEN
 10
1976.0000
 20
 324.1400
 11
1970.1400
 21
 330.0000
  0
LINE
  8
200
  6
AUSGEZOGEN
 10
1961.8600
 20
 330.0000
 11
1956.0000
 21
 324.1400
  0
LINE
  8
200
  6
AUSGEZOGEN
 10
1956.0000
 20
 315.8600
 11
1961.8600
 21
 310.0000
  0
LINE
  8
200
  6
AUSGEZOGEN
 10
1940.1400
 20
 310.0000
 11
1946.0000
 21
 315.8600
  0
LINE
  8
200
  6
AUSGEZOGEN
 10
1946.0000
 20
 324.1400
 11
1940.1400
 21
 330.0000
  0
LINE
  8
200
  6
AUSGEZOGEN
 10
1931.8600
 20
 330.0000
 11
1926.0000
 21
 324.1400
  0
LINE
  8
200
  6
AUSGEZOGEN
 10
1926.0000
 20
 315.8600
 11
1931.8600
 21
 310.0000
  0
LINE
  8
200
  6
AUSGEZOGEN
 10
1910.1400
 20
 310.0000
 11
1916.0000
 21
 315.8600
  0
LINE
  8
200
  6
AUSGEZOGEN
 10
1916.0000
 20
 324.1400
 11
1910.1400
 21
 330.0000
  0
LINE
  8
200
  6
AUSGEZOGEN
 10
1901.8600
 20
 330.0000
 11
1896.0000
 21
 324.1400
  0
LINE
  8
200
  6
AUSGEZOGEN
 10
1896.0000
 20
 315.8600
 11
1901.8600
 21
 310.0000
  0
LINE
  8
200
  6
AUSGEZOGEN
 10
1880.1400
 20
 310.0000
 11
1886.0000
 21
 315.8600
  0
LINE
  8
200
  6
AUSGEZOGEN
 10
1886.0000
 20
 324.1400
 11
1880.1400
 21
 330.0000
  0
LINE
  8
200
  6
AUSGEZOGEN
 10
1871.8600
 20
 330.0000
 11
1866.0000
 21
 324.1400
  0
LINE
  8
200
  6
AUSGEZOGEN
 10
1866.0000
 20
 315.8600
 11
1871.8600
 21
 310.0000
  0
LINE
  8
200
  6
AUSGEZOGEN
 10
1850.1400
 20
 310.0000
 11
1856.0000
 21
 315.8600
  0
LINE
  8
200
  6
AUSGEZOGEN
 10
1856.0000
 20
 324.1400
 11
1850.1400
 21
 330.0000
  0
LINE
  8
200
  6
AUSGEZOGEN
 10
1841.8600
 20
 330.0000
 11
1836.0000
 21
 324.1400
  0
LINE
  8
200
  6
AUSGEZOGEN
 10
1836.0000
 20
 315.8600
 11
1841.8600
 21
 310.0000
  0
LINE
  8
200
  6
AUSGEZOGEN
 10
1820.1400
 20
 310.0000
 11
1826.0000
 21
 315.8600
  0
LINE
  8
200
  6
AUSGEZOGEN
 10
1826.0000
 20
 324.1400
 11
1820.1400
 21
 330.0000
  0
LINE
  8
200
  6
AUSGEZOGEN
 10
1811.8600
 20
 330.0000
 11
1806.0000
 21
 324.1400
  0
LINE
  8
200
  6
AUSGEZOGEN
 10
1806.0000
 20
 315.8600
 11
1811.8600
 21
 310.0000
  0
LINE
  8
200
  6
AUSGEZOGEN
 10
1790.1400
 20
 310.0000
 11
1796.0000
 21
 315.8600
  0
LINE
  8
200
  6
AUSGEZOGEN
 10
1796.0000
 20
 324.1400
 11
1790.1400
 21
 330.0000
  0
LINE
  8
200
  6
AUSGEZOGEN
 10
1781.8600
 20
 330.0000
 11
1776.0000
 21
 324.1400
  0
LINE
  8
200
  6
AUSGEZOGEN
 10
1776.0000
 20
 315.8600
 11
1781.8600
 21
 310.0000
  0
LINE
  8
200
  6
AUSGEZOGEN
 10
1760.1400
 20
 310.0000
 11
1766.0000
 21
 315.8600
  0
LINE
  8
200
  6
AUSGEZOGEN
 10
1766.0000
 20
 324.1400
 11
1760.1400
 21
 330.0000
  0
LINE
  8
200
  6
AUSGEZOGEN
 10
1751.8600
 20
 330.0000
 11
1746.0000
 21
 324.1400
  0
LINE
  8
200
  6
AUSGEZOGEN
 10
1746.0000
 20
 315.8600
 11
1751.8600
 21
 310.0000
  0
LINE
  8
200
  6
AUSGEZOGEN
 10
1730.1400
 20
 310.0000
 11
1736.0000
 21
 315.8600
  0
LINE
  8
200
  6
AUSGEZOGEN
 10
1736.0000
 20
 324.1400
 11
1730.1400
 21
 330.0000
  0
LINE
  8
200
  6
AUSGEZOGEN
 10
1721.8600
 20
 330.0000
 11
1716.0000
 21
 324.1400
  0
LINE
  8
200
  6
AUSGEZOGEN
 10
1716.0000
 20
 315.8600
 11
1721.8600
 21
 310.0000
  0
LINE
  8
200
  6
AUSGEZOGEN
 10
1700.1400
 20
 310.0000
 11
1706.0000
 21
 315.8600
  0
LINE
  8
200
  6
AUSGEZOGEN
 10
1706.0000
 20
 324.1400
 11
1700.1400
 21
 330.0000
  0
LINE
  8
200
  6
AUSGEZOGEN
 10
1691.8600
 20
 330.0000
 11
1686.0000
 21
 324.1400
  0
LINE
  8
200
  6
AUSGEZOGEN
 10
1686.0000
 20
 315.8600
 11
1691.8600
 21
 310.0000
  0
LINE
  8
200
  6
AUSGEZOGEN
 10
1670.1400
 20
 310.0000
 11
1676.0000
 21
 315.8600
  0
LINE
  8
200
  6
AUSGEZOGEN
 10
1676.0000
 20
 324.1400
 11
1670.1400
 21
 330.0000
  0
LINE
  8
200
  6
AUSGEZOGEN
 10
1661.8600
 20
 330.0000
 11
1656.0000
 21
 324.1400
  0
LINE
  8
200
  6
AUSGEZOGEN
 10
1656.0000
 20
 315.8600
 11
1661.8600
 21
 310.0000
  0
LINE
  8
200
  6
AUSGEZOGEN
 10
1640.1400
 20
 310.0000
 11
1646.0000
 21
 315.8600
  0
LINE
  8
200
  6
AUSGEZOGEN
 10
1646.0000
 20
 324.1400
 11
1640.1400
 21
 330.0000
  0
LINE
  8
200
  6
AUSGEZOGEN
 10
1631.8600
 20
 330.0000
 11
1626.0000
 21
 324.1400
  0
LINE
  8
200
  6
AUSGEZOGEN
 10
1626.0000
 20
 315.8600
 11
1631.8600
 21
 310.0000
  0
LINE
  8
200
  6
AUSGEZOGEN
 10
2090.1400
 20
 280.0000
 11
2096.0000
 21
 285.8600
  0
LINE
  8
200
  6
AUSGEZOGEN
 10
2096.0000
 20
 294.1400
 11
2090.1400
 21
 300.0000
  0
LINE
  8
200
  6
AUSGEZOGEN
 10
2081.8600
 20
 300.0000
 11
2076.0000
 21
 294.1400
  0
LINE
  8
200
  6
AUSGEZOGEN
 10
2076.0000
 20
 285.8600
 11
2081.8600
 21
 280.0000
  0
LINE
  8
200
  6
AUSGEZOGEN
 10
2060.1400
 20
 280.0000
 11
2066.0000
 21
 285.8600
  0
LINE
  8
200
  6
AUSGEZOGEN
 10
2066.0000
 20
 294.1400
 11
2060.1400
 21
 300.0000
  0
LINE
  8
200
  6
AUSGEZOGEN
 10
2051.8600
 20
 300.0000
 11
2046.0000
 21
 294.1400
  0
LINE
  8
200
  6
AUSGEZOGEN
 10
2046.0000
 20
 285.8600
 11
2051.8600
 21
 280.0000
  0
LINE
  8
200
  6
AUSGEZOGEN
 10
2030.1400
 20
 280.0000
 11
2036.0000
 21
 285.8600
  0
LINE
  8
200
  6
AUSGEZOGEN
 10
2036.0000
 20
 294.1400
 11
2030.1400
 21
 300.0000
  0
LINE
  8
200
  6
AUSGEZOGEN
 10
2021.8600
 20
 300.0000
 11
2016.0000
 21
 294.1400
  0
LINE
  8
200
  6
AUSGEZOGEN
 10
2016.0000
 20
 285.8600
 11
2021.8600
 21
 280.0000
  0
LINE
  8
200
  6
AUSGEZOGEN
 10
2000.1400
 20
 280.0000
 11
2006.0000
 21
 285.8600
  0
LINE
  8
200
  6
AUSGEZOGEN
 10
2006.0000
 20
 294.1400
 11
2000.1400
 21
 300.0000
  0
LINE
  8
200
  6
AUSGEZOGEN
 10
1991.8600
 20
 300.0000
 11
1986.0000
 21
 294.1400
  0
LINE
  8
200
  6
AUSGEZOGEN
 10
1986.0000
 20
 285.8600
 11
1991.8600
 21
 280.0000
  0
LINE
  8
200
  6
AUSGEZOGEN
 10
1970.1400
 20
 280.0000
 11
1976.0000
 21
 285.8600
  0
LINE
  8
200
  6
AUSGEZOGEN
 10
1976.0000
 20
 294.1400
 11
1970.1400
 21
 300.0000
  0
LINE
  8
200
  6
AUSGEZOGEN
 10
1961.8600
 20
 300.0000
 11
1956.0000
 21
 294.1400
  0
LINE
  8
200
  6
AUSGEZOGEN
 10
1956.0000
 20
 285.8600
 11
1961.8600
 21
 280.0000
  0
LINE
  8
200
  6
AUSGEZOGEN
 10
1940.1400
 20
 280.0000
 11
1946.0000
 21
 285.8600
  0
LINE
  8
200
  6
AUSGEZOGEN
 10
1946.0000
 20
 294.1400
 11
1940.1400
 21
 300.0000
  0
LINE
  8
200
  6
AUSGEZOGEN
 10
1931.8600
 20
 300.0000
 11
1926.0000
 21
 294.1400
  0
LINE
  8
200
  6
AUSGEZOGEN
 10
1926.0000
 20
 285.8600
 11
1931.8600
 21
 280.0000
  0
LINE
  8
200
  6
AUSGEZOGEN
 10
1910.1400
 20
 280.0000
 11
1916.0000
 21
 285.8600
  0
LINE
  8
200
  6
AUSGEZOGEN
 10
1916.0000
 20
 294.1400
 11
1910.1400
 21
 300.0000
  0
LINE
  8
200
  6
AUSGEZOGEN
 10
1901.8600
 20
 300.0000
 11
1896.0000
 21
 294.1400
  0
LINE
  8
200
  6
AUSGEZOGEN
 10
1896.0000
 20
 285.8600
 11
1901.8600
 21
 280.0000
  0
LINE
  8
200
  6
AUSGEZOGEN
 10
1880.1400
 20
 280.0000
 11
1886.0000
 21
 285.8600
  0
LINE
  8
200
  6
AUSGEZOGEN
 10
1886.0000
 20
 294.1400
 11
1880.1400
 21
 300.0000
  0
LINE
  8
200
  6
AUSGEZOGEN
 10
1871.8600
 20
 300.0000
 11
1866.0000
 21
 294.1400
  0
LINE
  8
200
  6
AUSGEZOGEN
 10
1866.0000
 20
 285.8600
 11
1871.8600
 21
 280.0000
  0
LINE
  8
200
  6
AUSGEZOGEN
 10
1850.1400
 20
 280.0000
 11
1856.0000
 21
 285.8600
  0
LINE
  8
200
  6
AUSGEZOGEN
 10
1856.0000
 20
 294.1400
 11
1850.1400
 21
 300.0000
  0
LINE
  8
200
  6
AUSGEZOGEN
 10
1841.8600
 20
 300.0000
 11
1836.0000
 21
 294.1400
  0
LINE
  8
200
  6
AUSGEZOGEN
 10
1836.0000
 20
 285.8600
 11
1841.8600
 21
 280.0000
  0
LINE
  8
200
  6
AUSGEZOGEN
 10
1820.1400
 20
 280.0000
 11
1826.0000
 21
 285.8600
  0
LINE
  8
200
  6
AUSGEZOGEN
 10
1826.0000
 20
 294.1400
 11
1820.1400
 21
 300.0000
  0
LINE
  8
200
  6
AUSGEZOGEN
 10
1811.8600
 20
 300.0000
 11
1806.0000
 21
 294.1400
  0
LINE
  8
200
  6
AUSGEZOGEN
 10
1806.0000
 20
 285.8600
 11
1811.8600
 21
 280.0000
  0
LINE
  8
200
  6
AUSGEZOGEN
 10
1790.1400
 20
 280.0000
 11
1796.0000
 21
 285.8600
  0
LINE
  8
200
  6
AUSGEZOGEN
 10
1796.0000
 20
 294.1400
 11
1790.1400
 21
 300.0000
  0
LINE
  8
200
  6
AUSGEZOGEN
 10
1781.8600
 20
 300.0000
 11
1776.0000
 21
 294.1400
  0
LINE
  8
200
  6
AUSGEZOGEN
 10
1776.0000
 20
 285.8600
 11
1781.8600
 21
 280.0000
  0
LINE
  8
200
  6
AUSGEZOGEN
 10
1760.1400
 20
 280.0000
 11
1766.0000
 21
 285.8600
  0
LINE
  8
200
  6
AUSGEZOGEN
 10
1766.0000
 20
 294.1400
 11
1760.1400
 21
 300.0000
  0
LINE
  8
200
  6
AUSGEZOGEN
 10
1751.8600
 20
 300.0000
 11
1746.0000
 21
 294.1400
  0
LINE
  8
200
  6
AUSGEZOGEN
 10
1746.0000
 20
 285.8600
 11
1751.8600
 21
 280.0000
  0
LINE
  8
200
  6
AUSGEZOGEN
 10
1730.1400
 20
 280.0000
 11
1736.0000
 21
 285.8600
  0
LINE
  8
200
  6
AUSGEZOGEN
 10
1736.0000
 20
 294.1400
 11
1730.1400
 21
 300.0000
  0
LINE
  8
200
  6
AUSGEZOGEN
 10
1721.8600
 20
 300.0000
 11
1716.0000
 21
 294.1400
  0
LINE
  8
200
  6
AUSGEZOGEN
 10
1716.0000
 20
 285.8600
 11
1721.8600
 21
 280.0000
  0
LINE
  8
200
  6
AUSGEZOGEN
 10
1700.1400
 20
 280.0000
 11
1706.0000
 21
 285.8600
  0
LINE
  8
200
  6
AUSGEZOGEN
 10
1706.0000
 20
 294.1400
 11
1700.1400
 21
 300.0000
  0
LINE
  8
200
  6
AUSGEZOGEN
 10
1691.8600
 20
 300.0000
 11
1686.0000
 21
 294.1400
  0
LINE
  8
200
  6
AUSGEZOGEN
 10
1686.0000
 20
 285.8600
 11
1691.8600
 21
 280.0000
  0
LINE
  8
200
  6
AUSGEZOGEN
 10
1670.1400
 20
 280.0000
 11
1676.0000
 21
 285.8600
  0
LINE
  8
200
  6
AUSGEZOGEN
 10
1676.0000
 20
 294.1400
 11
1670.1400
 21
 300.0000
  0
LINE
  8
200
  6
AUSGEZOGEN
 10
1661.8600
 20
 300.0000
 11
1656.0000
 21
 294.1400
  0
LINE
  8
200
  6
AUSGEZOGEN
 10
1656.0000
 20
 285.8600
 11
1661.8600
 21
 280.0000
  0
LINE
  8
200
  6
AUSGEZOGEN
 10
1640.1400
 20
 280.0000
 11
1646.0000
 21
 285.8600
  0
LINE
  8
200
  6
AUSGEZOGEN
 10
1646.0000
 20
 294.1400
 11
1640.1400
 21
 300.0000
  0
LINE
  8
200
  6
AUSGEZOGEN
 10
1631.8600
 20
 300.0000
 11
1626.0000
 21
 294.1400
  0
LINE
  8
200
  6
AUSGEZOGEN
 10
1626.0000
 20
 285.8600
 11
1631.8600
 21
 280.0000
  0
LINE
  8
200
  6
AUSGEZOGEN
 10
2090.1400
 20
 100.0000
 11
2096.0000
 21
 105.8600
  0
LINE
  8
200
  6
AUSGEZOGEN
 10
2096.0000
 20
 114.1400
 11
2090.1400
 21
 120.0000
  0
LINE
  8
200
  6
AUSGEZOGEN
 10
2081.8600
 20
 120.0000
 11
2076.0000
 21
 114.1400
  0
LINE
  8
200
  6
AUSGEZOGEN
 10
2076.0000
 20
 105.8600
 11
2081.8600
 21
 100.0000
  0
LINE
  8
200
  6
AUSGEZOGEN
 10
2060.1400
 20
 100.0000
 11
2066.0000
 21
 105.8600
  0
LINE
  8
200
  6
AUSGEZOGEN
 10
2066.0000
 20
 114.1400
 11
2060.1400
 21
 120.0000
  0
LINE
  8
200
  6
AUSGEZOGEN
 10
2051.8600
 20
 120.0000
 11
2046.0000
 21
 114.1400
  0
LINE
  8
200
  6
AUSGEZOGEN
 10
2046.0000
 20
 105.8600
 11
2051.8600
 21
 100.0000
  0
LINE
  8
200
  6
AUSGEZOGEN
 10
2030.1400
 20
 100.0000
 11
2036.0000
 21
 105.8600
  0
LINE
  8
200
  6
AUSGEZOGEN
 10
2036.0000
 20
 114.1400
 11
2030.1400
 21
 120.0000
  0
LINE
  8
200
  6
AUSGEZOGEN
 10
2021.8600
 20
 120.0000
 11
2016.0000
 21
 114.1400
  0
LINE
  8
200
  6
AUSGEZOGEN
 10
2016.0000
 20
 105.8600
 11
2021.8600
 21
 100.0000
  0
LINE
  8
200
  6
AUSGEZOGEN
 10
2000.1400
 20
 100.0000
 11
2006.0000
 21
 105.8600
  0
LINE
  8
200
  6
AUSGEZOGEN
 10
2006.0000
 20
 114.1400
 11
2000.1400
 21
 120.0000
  0
LINE
  8
200
  6
AUSGEZOGEN
 10
1991.8600
 20
 120.0000
 11
1986.0000
 21
 114.1400
  0
LINE
  8
200
  6
AUSGEZOGEN
 10
1986.0000
 20
 105.8600
 11
1991.8600
 21
 100.0000
  0
LINE
  8
200
  6
AUSGEZOGEN
 10
1970.1400
 20
 100.0000
 11
1976.0000
 21
 105.8600
  0
LINE
  8
200
  6
AUSGEZOGEN
 10
1976.0000
 20
 114.1400
 11
1970.1400
 21
 120.0000
  0
LINE
  8
200
  6
AUSGEZOGEN
 10
1961.8600
 20
 120.0000
 11
1956.0000
 21
 114.1400
  0
LINE
  8
200
  6
AUSGEZOGEN
 10
1956.0000
 20
 105.8600
 11
1961.8600
 21
 100.0000
  0
LINE
  8
200
  6
AUSGEZOGEN
 10
1940.1400
 20
 100.0000
 11
1946.0000
 21
 105.8600
  0
LINE
  8
200
  6
AUSGEZOGEN
 10
1946.0000
 20
 114.1400
 11
1940.1400
 21
 120.0000
  0
LINE
  8
200
  6
AUSGEZOGEN
 10
1931.8600
 20
 120.0000
 11
1926.0000
 21
 114.1400
  0
LINE
  8
200
  6
AUSGEZOGEN
 10
1926.0000
 20
 105.8600
 11
1931.8600
 21
 100.0000
  0
LINE
  8
200
  6
AUSGEZOGEN
 10
1910.1400
 20
 100.0000
 11
1916.0000
 21
 105.8600
  0
LINE
  8
200
  6
AUSGEZOGEN
 10
1916.0000
 20
 114.1400
 11
1910.1400
 21
 120.0000
  0
LINE
  8
200
  6
AUSGEZOGEN
 10
1901.8600
 20
 120.0000
 11
1896.0000
 21
 114.1400
  0
LINE
  8
200
  6
AUSGEZOGEN
 10
1896.0000
 20
 105.8600
 11
1901.8600
 21
 100.0000
  0
LINE
  8
200
  6
AUSGEZOGEN
 10
1880.1400
 20
 100.0000
 11
1886.0000
 21
 105.8600
  0
LINE
  8
200
  6
AUSGEZOGEN
 10
1886.0000
 20
 114.1400
 11
1880.1400
 21
 120.0000
  0
LINE
  8
200
  6
AUSGEZOGEN
 10
1871.8600
 20
 120.0000
 11
1866.0000
 21
 114.1400
  0
LINE
  8
200
  6
AUSGEZOGEN
 10
1866.0000
 20
 105.8600
 11
1871.8600
 21
 100.0000
  0
LINE
  8
200
  6
AUSGEZOGEN
 10
1850.1400
 20
 100.0000
 11
1856.0000
 21
 105.8600
  0
LINE
  8
200
  6
AUSGEZOGEN
 10
1856.0000
 20
 114.1400
 11
1850.1400
 21
 120.0000
  0
LINE
  8
200
  6
AUSGEZOGEN
 10
1841.8600
 20
 120.0000
 11
1836.0000
 21
 114.1400
  0
LINE
  8
200
  6
AUSGEZOGEN
 10
1836.0000
 20
 105.8600
 11
1841.8600
 21
 100.0000
  0
LINE
  8
200
  6
AUSGEZOGEN
 10
1820.1400
 20
 100.0000
 11
1826.0000
 21
 105.8600
  0
LINE
  8
200
  6
AUSGEZOGEN
 10
1826.0000
 20
 114.1400
 11
1820.1400
 21
 120.0000
  0
LINE
  8
200
  6
AUSGEZOGEN
 10
1811.8600
 20
 120.0000
 11
1806.0000
 21
 114.1400
  0
LINE
  8
200
  6
AUSGEZOGEN
 10
1806.0000
 20
 105.8600
 11
1811.8600
 21
 100.0000
  0
LINE
  8
200
  6
AUSGEZOGEN
 10
1790.1400
 20
 100.0000
 11
1796.0000
 21
 105.8600
  0
LINE
  8
200
  6
AUSGEZOGEN
 10
1796.0000
 20
 114.1400
 11
1790.1400
 21
 120.0000
  0
LINE
  8
200
  6
AUSGEZOGEN
 10
1781.8600
 20
 120.0000
 11
1776.0000
 21
 114.1400
  0
LINE
  8
200
  6
AUSGEZOGEN
 10
1776.0000
 20
 105.8600
 11
1781.8600
 21
 100.0000
  0
LINE
  8
200
  6
AUSGEZOGEN
 10
1760.1400
 20
 100.0000
 11
1766.0000
 21
 105.8600
  0
LINE
  8
200
  6
AUSGEZOGEN
 10
1766.0000
 20
 114.1400
 11
1760.1400
 21
 120.0000
  0
LINE
  8
200
  6
AUSGEZOGEN
 10
1751.8600
 20
 120.0000
 11
1746.0000
 21
 114.1400
  0
LINE
  8
200
  6
AUSGEZOGEN
 10
1746.0000
 20
 105.8600
 11
1751.8600
 21
 100.0000
  0
LINE
  8
200
  6
AUSGEZOGEN
 10
1730.1400
 20
 100.0000
 11
1736.0000
 21
 105.8600
  0
LINE
  8
200
  6
AUSGEZOGEN
 10
1736.0000
 20
 114.1400
 11
1730.1400
 21
 120.0000
  0
LINE
  8
200
  6
AUSGEZOGEN
 10
1721.8600
 20
 120.0000
 11
1716.0000
 21
 114.1400
  0
LINE
  8
200
  6
AUSGEZOGEN
 10
1716.0000
 20
 105.8600
 11
1721.8600
 21
 100.0000
  0
LINE
  8
200
  6
AUSGEZOGEN
 10
1700.1400
 20
 100.0000
 11
1706.0000
 21
 105.8600
  0
LINE
  8
200
  6
AUSGEZOGEN
 10
1706.0000
 20
 114.1400
 11
1700.1400
 21
 120.0000
  0
LINE
  8
200
  6
AUSGEZOGEN
 10
1691.8600
 20
 120.0000
 11
1686.0000
 21
 114.1400
  0
LINE
  8
200
  6
AUSGEZOGEN
 10
1686.0000
 20
 105.8600
 11
1691.8600
 21
 100.0000
  0
LINE
  8
200
  6
AUSGEZOGEN
 10
1670.1400
 20
 100.0000
 11
1676.0000
 21
 105.8600
  0
LINE
  8
200
  6
AUSGEZOGEN
 10
1676.0000
 20
 114.1400
 11
1670.1400
 21
 120.0000
  0
LINE
  8
200
  6
AUSGEZOGEN
 10
1661.8600
 20
 120.0000
 11
1656.0000
 21
 114.1400
  0
LINE
  8
200
  6
AUSGEZOGEN
 10
1656.0000
 20
 105.8600
 11
1661.8600
 21
 100.0000
  0
LINE
  8
200
  6
AUSGEZOGEN
 10
1640.1400
 20
 100.0000
 11
1646.0000
 21
 105.8600
  0
LINE
  8
200
  6
AUSGEZOGEN
 10
1646.0000
 20
 114.1400
 11
1640.1400
 21
 120.0000
  0
LINE
  8
200
  6
AUSGEZOGEN
 10
1631.8600
 20
 120.0000
 11
1626.0000
 21
 114.1400
  0
LINE
  8
200
  6
AUSGEZOGEN
 10
1626.0000
 20
 105.8600
 11
1631.8600
 21
 100.0000
  0
LINE
  8
200
  6
AUSGEZOGEN
 10
2096.0000
 20
 135.8600
 11
2090.1400
 21
 130.0000
  0
LINE
  8
200
  6
AUSGEZOGEN
 10
2090.1400
 20
 150.0000
 11
2096.0000
 21
 144.1400
  0
LINE
  8
200
  6
AUSGEZOGEN
 10
2076.0000
 20
 144.1400
 11
2081.8600
 21
 150.0000
  0
LINE
  8
200
  6
AUSGEZOGEN
 10
2081.8600
 20
 130.0000
 11
2076.0000
 21
 135.8600
  0
LINE
  8
200
  6
AUSGEZOGEN
 10
2060.1400
 20
 130.0000
 11
2066.0000
 21
 135.8600
  0
LINE
  8
200
  6
AUSGEZOGEN
 10
2066.0000
 20
 144.1400
 11
2060.1400
 21
 150.0000
  0
LINE
  8
200
  6
AUSGEZOGEN
 10
2051.8600
 20
 150.0000
 11
2046.0000
 21
 144.1400
  0
LINE
  8
200
  6
AUSGEZOGEN
 10
2046.0000
 20
 135.8600
 11
2051.8600
 21
 130.0000
  0
LINE
  8
200
  6
AUSGEZOGEN
 10
2030.1400
 20
 130.0000
 11
2036.0000
 21
 135.8600
  0
LINE
  8
200
  6
AUSGEZOGEN
 10
2036.0000
 20
 144.1400
 11
2030.1400
 21
 150.0000
  0
LINE
  8
200
  6
AUSGEZOGEN
 10
2021.8600
 20
 150.0000
 11
2016.0000
 21
 144.1400
  0
LINE
  8
200
  6
AUSGEZOGEN
 10
2016.0000
 20
 135.8600
 11
2021.8600
 21
 130.0000
  0
LINE
  8
200
  6
AUSGEZOGEN
 10
2000.1400
 20
 130.0000
 11
2006.0000
 21
 135.8600
  0
LINE
  8
200
  6
AUSGEZOGEN
 10
2006.0000
 20
 144.1400
 11
2000.1400
 21
 150.0000
  0
LINE
  8
200
  6
AUSGEZOGEN
 10
1991.8600
 20
 150.0000
 11
1986.0000
 21
 144.1400
  0
LINE
  8
200
  6
AUSGEZOGEN
 10
1986.0000
 20
 135.8600
 11
1991.8600
 21
 130.0000
  0
LINE
  8
200
  6
AUSGEZOGEN
 10
1970.1400
 20
 130.0000
 11
1976.0000
 21
 135.8600
  0
LINE
  8
200
  6
AUSGEZOGEN
 10
1976.0000
 20
 144.1400
 11
1970.1400
 21
 150.0000
  0
LINE
  8
200
  6
AUSGEZOGEN
 10
1961.8600
 20
 150.0000
 11
1956.0000
 21
 144.1400
  0
LINE
  8
200
  6
AUSGEZOGEN
 10
1956.0000
 20
 135.8600
 11
1961.8600
 21
 130.0000
  0
LINE
  8
200
  6
AUSGEZOGEN
 10
1940.1400
 20
 130.0000
 11
1946.0000
 21
 135.8600
  0
LINE
  8
200
  6
AUSGEZOGEN
 10
1946.0000
 20
 144.1400
 11
1940.1400
 21
 150.0000
  0
LINE
  8
200
  6
AUSGEZOGEN
 10
1931.8600
 20
 150.0000
 11
1926.0000
 21
 144.1400
  0
LINE
  8
200
  6
AUSGEZOGEN
 10
1926.0000
 20
 135.8600
 11
1931.8600
 21
 130.0000
  0
LINE
  8
200
  6
AUSGEZOGEN
 10
1910.1400
 20
 130.0000
 11
1916.0000
 21
 135.8600
  0
LINE
  8
200
  6
AUSGEZOGEN
 10
1916.0000
 20
 144.1400
 11
1910.1400
 21
 150.0000
  0
LINE
  8
200
  6
AUSGEZOGEN
 10
1901.8600
 20
 150.0000
 11
1896.0000
 21
 144.1400
  0
LINE
  8
200
  6
AUSGEZOGEN
 10
1896.0000
 20
 135.8600
 11
1901.8600
 21
 130.0000
  0
LINE
  8
200
  6
AUSGEZOGEN
 10
1880.1400
 20
 130.0000
 11
1886.0000
 21
 135.8600
  0
LINE
  8
200
  6
AUSGEZOGEN
 10
1886.0000
 20
 144.1400
 11
1880.1400
 21
 150.0000
  0
LINE
  8
200
  6
AUSGEZOGEN
 10
1871.8600
 20
 150.0000
 11
1866.0000
 21
 144.1400
  0
LINE
  8
200
  6
AUSGEZOGEN
 10
1866.0000
 20
 135.8600
 11
1871.8600
 21
 130.0000
  0
LINE
  8
200
  6
AUSGEZOGEN
 10
1850.1400
 20
 130.0000
 11
1856.0000
 21
 135.8600
  0
LINE
  8
200
  6
AUSGEZOGEN
 10
1856.0000
 20
 144.1400
 11
1850.1400
 21
 150.0000
  0
LINE
  8
200
  6
AUSGEZOGEN
 10
1841.8600
 20
 150.0000
 11
1836.0000
 21
 144.1400
  0
LINE
  8
200
  6
AUSGEZOGEN
 10
1836.0000
 20
 135.8600
 11
1841.8600
 21
 130.0000
  0
LINE
  8
200
  6
AUSGEZOGEN
 10
1820.1400
 20
 130.0000
 11
1826.0000
 21
 135.8600
  0
LINE
  8
200
  6
AUSGEZOGEN
 10
1826.0000
 20
 144.1400
 11
1820.1400
 21
 150.0000
  0
LINE
  8
200
  6
AUSGEZOGEN
 10
1811.8600
 20
 150.0000
 11
1806.0000
 21
 144.1400
  0
LINE
  8
200
  6
AUSGEZOGEN
 10
1806.0000
 20
 135.8600
 11
1811.8600
 21
 130.0000
  0
LINE
  8
200
  6
AUSGEZOGEN
 10
1790.1400
 20
 130.0000
 11
1796.0000
 21
 135.8600
  0
LINE
  8
200
  6
AUSGEZOGEN
 10
1796.0000
 20
 144.1400
 11
1790.1400
 21
 150.0000
  0
LINE
  8
200
  6
AUSGEZOGEN
 10
1781.8600
 20
 150.0000
 11
1776.0000
 21
 144.1400
  0
LINE
  8
200
  6
AUSGEZOGEN
 10
1776.0000
 20
 135.8600
 11
1781.8600
 21
 130.0000
  0
LINE
  8
200
  6
AUSGEZOGEN
 10
1760.1400
 20
 130.0000
 11
1766.0000
 21
 135.8600
  0
LINE
  8
200
  6
AUSGEZOGEN
 10
1766.0000
 20
 144.1400
 11
1760.1400
 21
 150.0000
  0
LINE
  8
200
  6
AUSGEZOGEN
 10
1751.8600
 20
 150.0000
 11
1746.0000
 21
 144.1400
  0
LINE
  8
200
  6
AUSGEZOGEN
 10
1746.0000
 20
 135.8600
 11
1751.8600
 21
 130.0000
  0
LINE
  8
200
  6
AUSGEZOGEN
 10
1730.1400
 20
 130.0000
 11
1736.0000
 21
 135.8600
  0
LINE
  8
200
  6
AUSGEZOGEN
 10
1736.0000
 20
 144.1400
 11
1730.1400
 21
 150.0000
  0
LINE
  8
200
  6
AUSGEZOGEN
 10
1721.8600
 20
 150.0000
 11
1716.0000
 21
 144.1400
  0
LINE
  8
200
  6
AUSGEZOGEN
 10
1716.0000
 20
 135.8600
 11
1721.8600
 21
 130.0000
  0
LINE
  8
200
  6
AUSGEZOGEN
 10
1700.1400
 20
 130.0000
 11
1706.0000
 21
 135.8600
  0
LINE
  8
200
  6
AUSGEZOGEN
 10
1706.0000
 20
 144.1400
 11
1700.1400
 21
 150.0000
  0
LINE
  8
200
  6
AUSGEZOGEN
 10
1691.8600
 20
 150.0000
 11
1686.0000
 21
 144.1400
  0
LINE
  8
200
  6
AUSGEZOGEN
 10
1686.0000
 20
 135.8600
 11
1691.8600
 21
 130.0000
  0
LINE
  8
200
  6
AUSGEZOGEN
 10
1670.1400
 20
 130.0000
 11
1676.0000
 21
 135.8600
  0
LINE
  8
200
  6
AUSGEZOGEN
 10
1676.0000
 20
 144.1400
 11
1670.1400
 21
 150.0000
  0
LINE
  8
200
  6
AUSGEZOGEN
 10
1661.8600
 20
 150.0000
 11
1656.0000
 21
 144.1400
  0
LINE
  8
200
  6
AUSGEZOGEN
 10
1656.0000
 20
 135.8600
 11
1661.8600
 21
 130.0000
  0
LINE
  8
200
  6
AUSGEZOGEN
 10
1640.1400
 20
 130.0000
 11
1646.0000
 21
 135.8600
  0
LINE
  8
200
  6
AUSGEZOGEN
 10
1646.0000
 20
 144.1400
 11
1640.1400
 21
 150.0000
  0
LINE
  8
200
  6
AUSGEZOGEN
 10
1631.8600
 20
 150.0000
 11
1626.0000
 21
 144.1400
  0
LINE
  8
200
  6
AUSGEZOGEN
 10
1626.0000
 20
 135.8600
 11
1631.8600
 21
 130.0000
  0
LINE
  8
200
  6
AUSGEZOGEN
 10
2096.0000
 20
 165.8600
 11
2090.1400
 21
 160.0000
  0
LINE
  8
200
  6
AUSGEZOGEN
 10
2090.1400
 20
 180.0000
 11
2096.0000
 21
 174.1400
  0
LINE
  8
200
  6
AUSGEZOGEN
 10
2076.0000
 20
 174.1400
 11
2081.8600
 21
 180.0000
  0
LINE
  8
200
  6
AUSGEZOGEN
 10
2081.8600
 20
 160.0000
 11
2076.0000
 21
 165.8600
  0
LINE
  8
200
  6
AUSGEZOGEN
 10
2060.1400
 20
 160.0000
 11
2066.0000
 21
 165.8600
  0
LINE
  8
200
  6
AUSGEZOGEN
 10
2066.0000
 20
 174.1400
 11
2060.1400
 21
 180.0000
  0
LINE
  8
200
  6
AUSGEZOGEN
 10
2051.8600
 20
 180.0000
 11
2046.0000
 21
 174.1400
  0
LINE
  8
200
  6
AUSGEZOGEN
 10
2046.0000
 20
 165.8600
 11
2051.8600
 21
 160.0000
  0
LINE
  8
200
  6
AUSGEZOGEN
 10
2030.1400
 20
 160.0000
 11
2036.0000
 21
 165.8600
  0
LINE
  8
200
  6
AUSGEZOGEN
 10
2036.0000
 20
 174.1400
 11
2030.1400
 21
 180.0000
  0
LINE
  8
200
  6
AUSGEZOGEN
 10
2021.8600
 20
 180.0000
 11
2016.0000
 21
 174.1400
  0
LINE
  8
200
  6
AUSGEZOGEN
 10
2016.0000
 20
 165.8600
 11
2021.8600
 21
 160.0000
  0
LINE
  8
200
  6
AUSGEZOGEN
 10
2000.1400
 20
 160.0000
 11
2006.0000
 21
 165.8600
  0
LINE
  8
200
  6
AUSGEZOGEN
 10
2006.0000
 20
 174.1400
 11
2000.1400
 21
 180.0000
  0
LINE
  8
200
  6
AUSGEZOGEN
 10
1991.8600
 20
 180.0000
 11
1986.0000
 21
 174.1400
  0
LINE
  8
200
  6
AUSGEZOGEN
 10
1986.0000
 20
 165.8600
 11
1991.8600
 21
 160.0000
  0
LINE
  8
200
  6
AUSGEZOGEN
 10
1970.1400
 20
 160.0000
 11
1976.0000
 21
 165.8600
  0
LINE
  8
200
  6
AUSGEZOGEN
 10
1976.0000
 20
 174.1400
 11
1970.1400
 21
 180.0000
  0
LINE
  8
200
  6
AUSGEZOGEN
 10
1961.8600
 20
 180.0000
 11
1956.0000
 21
 174.1400
  0
LINE
  8
200
  6
AUSGEZOGEN
 10
1956.0000
 20
 165.8600
 11
1961.8600
 21
 160.0000
  0
LINE
  8
200
  6
AUSGEZOGEN
 10
1940.1400
 20
 160.0000
 11
1946.0000
 21
 165.8600
  0
LINE
  8
200
  6
AUSGEZOGEN
 10
1946.0000
 20
 174.1400
 11
1940.1400
 21
 180.0000
  0
LINE
  8
200
  6
AUSGEZOGEN
 10
1931.8600
 20
 180.0000
 11
1926.0000
 21
 174.1400
  0
LINE
  8
200
  6
AUSGEZOGEN
 10
1926.0000
 20
 165.8600
 11
1931.8600
 21
 160.0000
  0
LINE
  8
200
  6
AUSGEZOGEN
 10
1910.1400
 20
 160.0000
 11
1916.0000
 21
 165.8600
  0
LINE
  8
200
  6
AUSGEZOGEN
 10
1916.0000
 20
 174.1400
 11
1910.1400
 21
 180.0000
  0
LINE
  8
200
  6
AUSGEZOGEN
 10
1901.8600
 20
 180.0000
 11
1896.0000
 21
 174.1400
  0
LINE
  8
200
  6
AUSGEZOGEN
 10
1896.0000
 20
 165.8600
 11
1901.8600
 21
 160.0000
  0
LINE
  8
200
  6
AUSGEZOGEN
 10
1880.1400
 20
 160.0000
 11
1886.0000
 21
 165.8600
  0
LINE
  8
200
  6
AUSGEZOGEN
 10
1886.0000
 20
 174.1400
 11
1880.1400
 21
 180.0000
  0
LINE
  8
200
  6
AUSGEZOGEN
 10
1871.8600
 20
 180.0000
 11
1866.0000
 21
 174.1400
  0
LINE
  8
200
  6
AUSGEZOGEN
 10
1866.0000
 20
 165.8600
 11
1871.8600
 21
 160.0000
  0
LINE
  8
200
  6
AUSGEZOGEN
 10
1850.1400
 20
 160.0000
 11
1856.0000
 21
 165.8600
  0
LINE
  8
200
  6
AUSGEZOGEN
 10
1856.0000
 20
 174.1400
 11
1850.1400
 21
 180.0000
  0
LINE
  8
200
  6
AUSGEZOGEN
 10
1841.8600
 20
 180.0000
 11
1836.0000
 21
 174.1400
  0
LINE
  8
200
  6
AUSGEZOGEN
 10
1836.0000
 20
 165.8600
 11
1841.8600
 21
 160.0000
  0
LINE
  8
200
  6
AUSGEZOGEN
 10
1820.1400
 20
 160.0000
 11
1826.0000
 21
 165.8600
  0
LINE
  8
200
  6
AUSGEZOGEN
 10
1826.0000
 20
 174.1400
 11
1820.1400
 21
 180.0000
  0
LINE
  8
200
  6
AUSGEZOGEN
 10
1811.8600
 20
 180.0000
 11
1806.0000
 21
 174.1400
  0
LINE
  8
200
  6
AUSGEZOGEN
 10
1806.0000
 20
 165.8600
 11
1811.8600
 21
 160.0000
  0
LINE
  8
200
  6
AUSGEZOGEN
 10
1790.1400
 20
 160.0000
 11
1796.0000
 21
 165.8600
  0
LINE
  8
200
  6
AUSGEZOGEN
 10
1796.0000
 20
 174.1400
 11
1790.1400
 21
 180.0000
  0
LINE
  8
200
  6
AUSGEZOGEN
 10
1781.8600
 20
 180.0000
 11
1776.0000
 21
 174.1400
  0
LINE
  8
200
  6
AUSGEZOGEN
 10
1776.0000
 20
 165.8600
 11
1781.8600
 21
 160.0000
  0
LINE
  8
200
  6
AUSGEZOGEN
 10
1760.1400
 20
 160.0000
 11
1766.0000
 21
 165.8600
  0
LINE
  8
200
  6
AUSGEZOGEN
 10
1766.0000
 20
 174.1400
 11
1760.1400
 21
 180.0000
  0
LINE
  8
200
  6
AUSGEZOGEN
 10
1751.8600
 20
 180.0000
 11
1746.0000
 21
 174.1400
  0
LINE
  8
200
  6
AUSGEZOGEN
 10
1746.0000
 20
 165.8600
 11
1751.8600
 21
 160.0000
  0
LINE
  8
200
  6
AUSGEZOGEN
 10
1730.1400
 20
 160.0000
 11
1736.0000
 21
 165.8600
  0
LINE
  8
200
  6
AUSGEZOGEN
 10
1736.0000
 20
 174.1400
 11
1730.1400
 21
 180.0000
  0
LINE
  8
200
  6
AUSGEZOGEN
 10
1721.8600
 20
 180.0000
 11
1716.0000
 21
 174.1400
  0
LINE
  8
200
  6
AUSGEZOGEN
 10
1716.0000
 20
 165.8600
 11
1721.8600
 21
 160.0000
  0
LINE
  8
200
  6
AUSGEZOGEN
 10
1700.1400
 20
 160.0000
 11
1706.0000
 21
 165.8600
  0
LINE
  8
200
  6
AUSGEZOGEN
 10
1706.0000
 20
 174.1400
 11
1700.1400
 21
 180.0000
  0
LINE
  8
200
  6
AUSGEZOGEN
 10
1691.8600
 20
 180.0000
 11
1686.0000
 21
 174.1400
  0
LINE
  8
200
  6
AUSGEZOGEN
 10
1686.0000
 20
 165.8600
 11
1691.8600
 21
 160.0000
  0
LINE
  8
200
  6
AUSGEZOGEN
 10
1670.1400
 20
 160.0000
 11
1676.0000
 21
 165.8600
  0
LINE
  8
200
  6
AUSGEZOGEN
 10
1676.0000
 20
 174.1400
 11
1670.1400
 21
 180.0000
  0
LINE
  8
200
  6
AUSGEZOGEN
 10
1661.8600
 20
 180.0000
 11
1656.0000
 21
 174.1400
  0
LINE
  8
200
  6
AUSGEZOGEN
 10
1656.0000
 20
 165.8600
 11
1661.8600
 21
 160.0000
  0
LINE
  8
200
  6
AUSGEZOGEN
 10
1640.1400
 20
 160.0000
 11
1646.0000
 21
 165.8600
  0
LINE
  8
200
  6
AUSGEZOGEN
 10
1646.0000
 20
 174.1400
 11
1640.1400
 21
 180.0000
  0
LINE
  8
200
  6
AUSGEZOGEN
 10
1631.8600
 20
 180.0000
 11
1626.0000
 21
 174.1400
  0
LINE
  8
200
  6
AUSGEZOGEN
 10
1626.0000
 20
 165.8600
 11
1631.8600
 21
 160.0000
  0
LINE
  8
200
  6
AUSGEZOGEN
 10
2096.0000
 20
 195.8600
 11
2090.1400
 21
 190.0000
  0
LINE
  8
200
  6
AUSGEZOGEN
 10
2090.1400
 20
 210.0000
 11
2096.0000
 21
 204.1400
  0
LINE
  8
200
  6
AUSGEZOGEN
 10
2076.0000
 20
 204.1400
 11
2081.8600
 21
 210.0000
  0
LINE
  8
200
  6
AUSGEZOGEN
 10
2081.8600
 20
 190.0000
 11
2076.0000
 21
 195.8600
  0
LINE
  8
200
  6
AUSGEZOGEN
 10
2060.1400
 20
 190.0000
 11
2066.0000
 21
 195.8600
  0
LINE
  8
200
  6
AUSGEZOGEN
 10
2066.0000
 20
 204.1400
 11
2060.1400
 21
 210.0000
  0
LINE
  8
200
  6
AUSGEZOGEN
 10
2051.8600
 20
 210.0000
 11
2046.0000
 21
 204.1400
  0
LINE
  8
200
  6
AUSGEZOGEN
 10
2046.0000
 20
 195.8600
 11
2051.8600
 21
 190.0000
  0
LINE
  8
200
  6
AUSGEZOGEN
 10
2030.1400
 20
 190.0000
 11
2036.0000
 21
 195.8600
  0
LINE
  8
200
  6
AUSGEZOGEN
 10
2036.0000
 20
 204.1400
 11
2030.1400
 21
 210.0000
  0
LINE
  8
200
  6
AUSGEZOGEN
 10
2021.8600
 20
 210.0000
 11
2016.0000
 21
 204.1400
  0
LINE
  8
200
  6
AUSGEZOGEN
 10
2016.0000
 20
 195.8600
 11
2021.8600
 21
 190.0000
  0
LINE
  8
200
  6
AUSGEZOGEN
 10
2000.1400
 20
 190.0000
 11
2006.0000
 21
 195.8600
  0
LINE
  8
200
  6
AUSGEZOGEN
 10
2006.0000
 20
 204.1400
 11
2000.1400
 21
 210.0000
  0
LINE
  8
200
  6
AUSGEZOGEN
 10
1991.8600
 20
 210.0000
 11
1986.0000
 21
 204.1400
  0
LINE
  8
200
  6
AUSGEZOGEN
 10
1986.0000
 20
 195.8600
 11
1991.8600
 21
 190.0000
  0
LINE
  8
200
  6
AUSGEZOGEN
 10
1970.1400
 20
 190.0000
 11
1976.0000
 21
 195.8600
  0
LINE
  8
200
  6
AUSGEZOGEN
 10
1976.0000
 20
 204.1400
 11
1970.1400
 21
 210.0000
  0
LINE
  8
200
  6
AUSGEZOGEN
 10
1961.8600
 20
 210.0000
 11
1956.0000
 21
 204.1400
  0
LINE
  8
200
  6
AUSGEZOGEN
 10
1956.0000
 20
 195.8600
 11
1961.8600
 21
 190.0000
  0
LINE
  8
200
  6
AUSGEZOGEN
 10
1940.1400
 20
 190.0000
 11
1946.0000
 21
 195.8600
  0
LINE
  8
200
  6
AUSGEZOGEN
 10
1946.0000
 20
 204.1400
 11
1940.1400
 21
 210.0000
  0
LINE
  8
200
  6
AUSGEZOGEN
 10
1931.8600
 20
 210.0000
 11
1926.0000
 21
 204.1400
  0
LINE
  8
200
  6
AUSGEZOGEN
 10
1926.0000
 20
 195.8600
 11
1931.8600
 21
 190.0000
  0
LINE
  8
200
  6
AUSGEZOGEN
 10
1910.1400
 20
 190.0000
 11
1916.0000
 21
 195.8600
  0
LINE
  8
200
  6
AUSGEZOGEN
 10
1916.0000
 20
 204.1400
 11
1910.1400
 21
 210.0000
  0
LINE
  8
200
  6
AUSGEZOGEN
 10
1901.8600
 20
 210.0000
 11
1896.0000
 21
 204.1400
  0
LINE
  8
200
  6
AUSGEZOGEN
 10
1896.0000
 20
 195.8600
 11
1901.8600
 21
 190.0000
  0
LINE
  8
200
  6
AUSGEZOGEN
 10
1880.1400
 20
 190.0000
 11
1886.0000
 21
 195.8600
  0
LINE
  8
200
  6
AUSGEZOGEN
 10
1886.0000
 20
 204.1400
 11
1880.1400
 21
 210.0000
  0
LINE
  8
200
  6
AUSGEZOGEN
 10
1871.8600
 20
 210.0000
 11
1866.0000
 21
 204.1400
  0
LINE
  8
200
  6
AUSGEZOGEN
 10
1866.0000
 20
 195.8600
 11
1871.8600
 21
 190.0000
  0
LINE
  8
200
  6
AUSGEZOGEN
 10
1850.1400
 20
 190.0000
 11
1856.0000
 21
 195.8600
  0
LINE
  8
200
  6
AUSGEZOGEN
 10
1856.0000
 20
 204.1400
 11
1850.1400
 21
 210.0000
  0
LINE
  8
200
  6
AUSGEZOGEN
 10
1841.8600
 20
 210.0000
 11
1836.0000
 21
 204.1400
  0
LINE
  8
200
  6
AUSGEZOGEN
 10
1836.0000
 20
 195.8600
 11
1841.8600
 21
 190.0000
  0
LINE
  8
200
  6
AUSGEZOGEN
 10
1820.1400
 20
 190.0000
 11
1826.0000
 21
 195.8600
  0
LINE
  8
200
  6
AUSGEZOGEN
 10
1826.0000
 20
 204.1400
 11
1820.1400
 21
 210.0000
  0
LINE
  8
200
  6
AUSGEZOGEN
 10
1811.8600
 20
 210.0000
 11
1806.0000
 21
 204.1400
  0
LINE
  8
200
  6
AUSGEZOGEN
 10
1806.0000
 20
 195.8600
 11
1811.8600
 21
 190.0000
  0
LINE
  8
200
  6
AUSGEZOGEN
 10
1790.1400
 20
 190.0000
 11
1796.0000
 21
 195.8600
  0
LINE
  8
200
  6
AUSGEZOGEN
 10
1796.0000
 20
 204.1400
 11
1790.1400
 21
 210.0000
  0
LINE
  8
200
  6
AUSGEZOGEN
 10
1781.8600
 20
 210.0000
 11
1776.0000
 21
 204.1400
  0
LINE
  8
200
  6
AUSGEZOGEN
 10
1776.0000
 20
 195.8600
 11
1781.8600
 21
 190.0000
  0
LINE
  8
200
  6
AUSGEZOGEN
 10
1760.1400
 20
 190.0000
 11
1766.0000
 21
 195.8600
  0
LINE
  8
200
  6
AUSGEZOGEN
 10
1766.0000
 20
 204.1400
 11
1760.1400
 21
 210.0000
  0
LINE
  8
200
  6
AUSGEZOGEN
 10
1751.8600
 20
 210.0000
 11
1746.0000
 21
 204.1400
  0
LINE
  8
200
  6
AUSGEZOGEN
 10
1746.0000
 20
 195.8600
 11
1751.8600
 21
 190.0000
  0
LINE
  8
200
  6
AUSGEZOGEN
 10
1730.1400
 20
 190.0000
 11
1736.0000
 21
 195.8600
  0
LINE
  8
200
  6
AUSGEZOGEN
 10
1736.0000
 20
 204.1400
 11
1730.1400
 21
 210.0000
  0
LINE
  8
200
  6
AUSGEZOGEN
 10
1721.8600
 20
 210.0000
 11
1716.0000
 21
 204.1400
  0
LINE
  8
200
  6
AUSGEZOGEN
 10
1716.0000
 20
 195.8600
 11
1721.8600
 21
 190.0000
  0
LINE
  8
200
  6
AUSGEZOGEN
 10
1700.1400
 20
 190.0000
 11
1706.0000
 21
 195.8600
  0
LINE
  8
200
  6
AUSGEZOGEN
 10
1706.0000
 20
 204.1400
 11
1700.1400
 21
 210.0000
  0
LINE
  8
200
  6
AUSGEZOGEN
 10
1691.8600
 20
 210.0000
 11
1686.0000
 21
 204.1400
  0
LINE
  8
200
  6
AUSGEZOGEN
 10
1686.0000
 20
 195.8600
 11
1691.8600
 21
 190.0000
  0
LINE
  8
200
  6
AUSGEZOGEN
 10
1670.1400
 20
 190.0000
 11
1676.0000
 21
 195.8600
  0
LINE
  8
200
  6
AUSGEZOGEN
 10
1676.0000
 20
 204.1400
 11
1670.1400
 21
 210.0000
  0
LINE
  8
200
  6
AUSGEZOGEN
 10
1661.8600
 20
 210.0000
 11
1656.0000
 21
 204.1400
  0
LINE
  8
200
  6
AUSGEZOGEN
 10
1656.0000
 20
 195.8600
 11
1661.8600
 21
 190.0000
  0
LINE
  8
200
  6
AUSGEZOGEN
 10
1640.1400
 20
 190.0000
 11
1646.0000
 21
 195.8600
  0
LINE
  8
200
  6
AUSGEZOGEN
 10
1646.0000
 20
 204.1400
 11
1640.1400
 21
 210.0000
  0
LINE
  8
200
  6
AUSGEZOGEN
 10
1631.8600
 20
 210.0000
 11
1626.0000
 21
 204.1400
  0
LINE
  8
200
  6
AUSGEZOGEN
 10
1626.0000
 20
 195.8600
 11
1631.8600
 21
 190.0000
  0
LINE
  8
200
  6
AUSGEZOGEN
 10
2096.0000
 20
 225.8600
 11
2090.1400
 21
 220.0000
  0
LINE
  8
200
  6
AUSGEZOGEN
 10
2090.1400
 20
 240.0000
 11
2096.0000
 21
 234.1400
  0
LINE
  8
200
  6
AUSGEZOGEN
 10
2076.0000
 20
 234.1400
 11
2081.8600
 21
 240.0000
  0
LINE
  8
200
  6
AUSGEZOGEN
 10
2081.8600
 20
 220.0000
 11
2076.0000
 21
 225.8600
  0
LINE
  8
200
  6
AUSGEZOGEN
 10
2060.1400
 20
 220.0000
 11
2066.0000
 21
 225.8600
  0
LINE
  8
200
  6
AUSGEZOGEN
 10
2066.0000
 20
 234.1400
 11
2060.1400
 21
 240.0000
  0
LINE
  8
200
  6
AUSGEZOGEN
 10
2051.8600
 20
 240.0000
 11
2046.0000
 21
 234.1400
  0
LINE
  8
200
  6
AUSGEZOGEN
 10
2046.0000
 20
 225.8600
 11
2051.8600
 21
 220.0000
  0
LINE
  8
200
  6
AUSGEZOGEN
 10
2030.1400
 20
 220.0000
 11
2036.0000
 21
 225.8600
  0
LINE
  8
200
  6
AUSGEZOGEN
 10
2036.0000
 20
 234.1400
 11
2030.1400
 21
 240.0000
  0
LINE
  8
200
  6
AUSGEZOGEN
 10
2021.8600
 20
 240.0000
 11
2016.0000
 21
 234.1400
  0
LINE
  8
200
  6
AUSGEZOGEN
 10
2016.0000
 20
 225.8600
 11
2021.8600
 21
 220.0000
  0
LINE
  8
200
  6
AUSGEZOGEN
 10
2000.1400
 20
 220.0000
 11
2006.0000
 21
 225.8600
  0
LINE
  8
200
  6
AUSGEZOGEN
 10
2006.0000
 20
 234.1400
 11
2000.1400
 21
 240.0000
  0
LINE
  8
200
  6
AUSGEZOGEN
 10
1991.8600
 20
 240.0000
 11
1986.0000
 21
 234.1400
  0
LINE
  8
200
  6
AUSGEZOGEN
 10
1986.0000
 20
 225.8600
 11
1991.8600
 21
 220.0000
  0
LINE
  8
200
  6
AUSGEZOGEN
 10
1970.1400
 20
 220.0000
 11
1976.0000
 21
 225.8600
  0
LINE
  8
200
  6
AUSGEZOGEN
 10
1976.0000
 20
 234.1400
 11
1970.1400
 21
 240.0000
  0
LINE
  8
200
  6
AUSGEZOGEN
 10
1961.8600
 20
 240.0000
 11
1956.0000
 21
 234.1400
  0
LINE
  8
200
  6
AUSGEZOGEN
 10
1956.0000
 20
 225.8600
 11
1961.8600
 21
 220.0000
  0
LINE
  8
200
  6
AUSGEZOGEN
 10
1940.1400
 20
 220.0000
 11
1946.0000
 21
 225.8600
  0
LINE
  8
200
  6
AUSGEZOGEN
 10
1946.0000
 20
 234.1400
 11
1940.1400
 21
 240.0000
  0
LINE
  8
200
  6
AUSGEZOGEN
 10
1931.8600
 20
 240.0000
 11
1926.0000
 21
 234.1400
  0
LINE
  8
200
  6
AUSGEZOGEN
 10
1926.0000
 20
 225.8600
 11
1931.8600
 21
 220.0000
  0
LINE
  8
200
  6
AUSGEZOGEN
 10
1910.1400
 20
 220.0000
 11
1916.0000
 21
 225.8600
  0
LINE
  8
200
  6
AUSGEZOGEN
 10
1916.0000
 20
 234.1400
 11
1910.1400
 21
 240.0000
  0
LINE
  8
200
  6
AUSGEZOGEN
 10
1901.8600
 20
 240.0000
 11
1896.0000
 21
 234.1400
  0
LINE
  8
200
  6
AUSGEZOGEN
 10
1896.0000
 20
 225.8600
 11
1901.8600
 21
 220.0000
  0
LINE
  8
200
  6
AUSGEZOGEN
 10
1880.1400
 20
 220.0000
 11
1886.0000
 21
 225.8600
  0
LINE
  8
200
  6
AUSGEZOGEN
 10
1886.0000
 20
 234.1400
 11
1880.1400
 21
 240.0000
  0
LINE
  8
200
  6
AUSGEZOGEN
 10
1871.8600
 20
 240.0000
 11
1866.0000
 21
 234.1400
  0
LINE
  8
200
  6
AUSGEZOGEN
 10
1866.0000
 20
 225.8600
 11
1871.8600
 21
 220.0000
  0
LINE
  8
200
  6
AUSGEZOGEN
 10
1850.1400
 20
 220.0000
 11
1856.0000
 21
 225.8600
  0
LINE
  8
200
  6
AUSGEZOGEN
 10
1856.0000
 20
 234.1400
 11
1850.1400
 21
 240.0000
  0
LINE
  8
200
  6
AUSGEZOGEN
 10
1841.8600
 20
 240.0000
 11
1836.0000
 21
 234.1400
  0
LINE
  8
200
  6
AUSGEZOGEN
 10
1836.0000
 20
 225.8600
 11
1841.8600
 21
 220.0000
  0
LINE
  8
200
  6
AUSGEZOGEN
 10
1820.1400
 20
 220.0000
 11
1826.0000
 21
 225.8600
  0
LINE
  8
200
  6
AUSGEZOGEN
 10
1826.0000
 20
 234.1400
 11
1820.1400
 21
 240.0000
  0
LINE
  8
200
  6
AUSGEZOGEN
 10
1811.8600
 20
 240.0000
 11
1806.0000
 21
 234.1400
  0
LINE
  8
200
  6
AUSGEZOGEN
 10
1806.0000
 20
 225.8600
 11
1811.8600
 21
 220.0000
  0
LINE
  8
200
  6
AUSGEZOGEN
 10
1790.1400
 20
 220.0000
 11
1796.0000
 21
 225.8600
  0
LINE
  8
200
  6
AUSGEZOGEN
 10
1796.0000
 20
 234.1400
 11
1790.1400
 21
 240.0000
  0
LINE
  8
200
  6
AUSGEZOGEN
 10
1781.8600
 20
 240.0000
 11
1776.0000
 21
 234.1400
  0
LINE
  8
200
  6
AUSGEZOGEN
 10
1776.0000
 20
 225.8600
 11
1781.8600
 21
 220.0000
  0
LINE
  8
200
  6
AUSGEZOGEN
 10
1760.1400
 20
 220.0000
 11
1766.0000
 21
 225.8600
  0
LINE
  8
200
  6
AUSGEZOGEN
 10
1766.0000
 20
 234.1400
 11
1760.1400
 21
 240.0000
  0
LINE
  8
200
  6
AUSGEZOGEN
 10
1751.8600
 20
 240.0000
 11
1746.0000
 21
 234.1400
  0
LINE
  8
200
  6
AUSGEZOGEN
 10
1746.0000
 20
 225.8600
 11
1751.8600
 21
 220.0000
  0
LINE
  8
200
  6
AUSGEZOGEN
 10
1730.1400
 20
 220.0000
 11
1736.0000
 21
 225.8600
  0
LINE
  8
200
  6
AUSGEZOGEN
 10
1736.0000
 20
 234.1400
 11
1730.1400
 21
 240.0000
  0
LINE
  8
200
  6
AUSGEZOGEN
 10
1721.8600
 20
 240.0000
 11
1716.0000
 21
 234.1400
  0
LINE
  8
200
  6
AUSGEZOGEN
 10
1716.0000
 20
 225.8600
 11
1721.8600
 21
 220.0000
  0
LINE
  8
200
  6
AUSGEZOGEN
 10
1700.1400
 20
 220.0000
 11
1706.0000
 21
 225.8600
  0
LINE
  8
200
  6
AUSGEZOGEN
 10
1706.0000
 20
 234.1400
 11
1700.1400
 21
 240.0000
  0
LINE
  8
200
  6
AUSGEZOGEN
 10
1691.8600
 20
 240.0000
 11
1686.0000
 21
 234.1400
  0
LINE
  8
200
  6
AUSGEZOGEN
 10
1686.0000
 20
 225.8600
 11
1691.8600
 21
 220.0000
  0
LINE
  8
200
  6
AUSGEZOGEN
 10
1670.1400
 20
 220.0000
 11
1676.0000
 21
 225.8600
  0
LINE
  8
200
  6
AUSGEZOGEN
 10
1676.0000
 20
 234.1400
 11
1670.1400
 21
 240.0000
  0
LINE
  8
200
  6
AUSGEZOGEN
 10
1661.8600
 20
 240.0000
 11
1656.0000
 21
 234.1400
  0
LINE
  8
200
  6
AUSGEZOGEN
 10
1656.0000
 20
 225.8600
 11
1661.8600
 21
 220.0000
  0
LINE
  8
200
  6
AUSGEZOGEN
 10
1640.1400
 20
 220.0000
 11
1646.0000
 21
 225.8600
  0
LINE
  8
200
  6
AUSGEZOGEN
 10
1646.0000
 20
 234.1400
 11
1640.1400
 21
 240.0000
  0
LINE
  8
200
  6
AUSGEZOGEN
 10
1631.8600
 20
 240.0000
 11
1626.0000
 21
 234.1400
  0
LINE
  8
200
  6
AUSGEZOGEN
 10
1626.0000
 20
 225.8600
 11
1631.8600
 21
 220.0000
  0
LINE
  8
200
  6
AUSGEZOGEN
 10
2096.0000
 20
 255.8600
 11
2090.1400
 21
 250.0000
  0
LINE
  8
200
  6
AUSGEZOGEN
 10
2090.1400
 20
 270.0000
 11
2096.0000
 21
 264.1400
  0
LINE
  8
200
  6
AUSGEZOGEN
 10
2076.0000
 20
 264.1400
 11
2081.8600
 21
 270.0000
  0
LINE
  8
200
  6
AUSGEZOGEN
 10
2081.8600
 20
 250.0000
 11
2076.0000
 21
 255.8600
  0
LINE
  8
200
  6
AUSGEZOGEN
 10
2060.1400
 20
 250.0000
 11
2066.0000
 21
 255.8600
  0
LINE
  8
200
  6
AUSGEZOGEN
 10
2066.0000
 20
 264.1400
 11
2060.1400
 21
 270.0000
  0
LINE
  8
200
  6
AUSGEZOGEN
 10
2051.8600
 20
 270.0000
 11
2046.0000
 21
 264.1400
  0
LINE
  8
200
  6
AUSGEZOGEN
 10
2046.0000
 20
 255.8600
 11
2051.8600
 21
 250.0000
  0
LINE
  8
200
  6
AUSGEZOGEN
 10
2030.1400
 20
 250.0000
 11
2036.0000
 21
 255.8600
  0
LINE
  8
200
  6
AUSGEZOGEN
 10
2036.0000
 20
 264.1400
 11
2030.1400
 21
 270.0000
  0
LINE
  8
200
  6
AUSGEZOGEN
 10
2021.8600
 20
 270.0000
 11
2016.0000
 21
 264.1400
  0
LINE
  8
200
  6
AUSGEZOGEN
 10
2016.0000
 20
 255.8600
 11
2021.8600
 21
 250.0000
  0
LINE
  8
200
  6
AUSGEZOGEN
 10
2000.1400
 20
 250.0000
 11
2006.0000
 21
 255.8600
  0
LINE
  8
200
  6
AUSGEZOGEN
 10
2006.0000
 20
 264.1400
 11
2000.1400
 21
 270.0000
  0
LINE
  8
200
  6
AUSGEZOGEN
 10
1991.8600
 20
 270.0000
 11
1986.0000
 21
 264.1400
  0
LINE
  8
200
  6
AUSGEZOGEN
 10
1986.0000
 20
 255.8600
 11
1991.8600
 21
 250.0000
  0
LINE
  8
200
  6
AUSGEZOGEN
 10
1970.1400
 20
 250.0000
 11
1976.0000
 21
 255.8600
  0
LINE
  8
200
  6
AUSGEZOGEN
 10
1976.0000
 20
 264.1400
 11
1970.1400
 21
 270.0000
  0
LINE
  8
200
  6
AUSGEZOGEN
 10
1961.8600
 20
 270.0000
 11
1956.0000
 21
 264.1400
  0
LINE
  8
200
  6
AUSGEZOGEN
 10
1956.0000
 20
 255.8600
 11
1961.8600
 21
 250.0000
  0
LINE
  8
200
  6
AUSGEZOGEN
 10
1940.1400
 20
 250.0000
 11
1946.0000
 21
 255.8600
  0
LINE
  8
200
  6
AUSGEZOGEN
 10
1946.0000
 20
 264.1400
 11
1940.1400
 21
 270.0000
  0
LINE
  8
200
  6
AUSGEZOGEN
 10
1931.8600
 20
 270.0000
 11
1926.0000
 21
 264.1400
  0
LINE
  8
200
  6
AUSGEZOGEN
 10
1926.0000
 20
 255.8600
 11
1931.8600
 21
 250.0000
  0
LINE
  8
200
  6
AUSGEZOGEN
 10
1910.1400
 20
 250.0000
 11
1916.0000
 21
 255.8600
  0
LINE
  8
200
  6
AUSGEZOGEN
 10
1916.0000
 20
 264.1400
 11
1910.1400
 21
 270.0000
  0
LINE
  8
200
  6
AUSGEZOGEN
 10
1901.8600
 20
 270.0000
 11
1896.0000
 21
 264.1400
  0
LINE
  8
200
  6
AUSGEZOGEN
 10
1896.0000
 20
 255.8600
 11
1901.8600
 21
 250.0000
  0
LINE
  8
200
  6
AUSGEZOGEN
 10
1880.1400
 20
 250.0000
 11
1886.0000
 21
 255.8600
  0
LINE
  8
200
  6
AUSGEZOGEN
 10
1886.0000
 20
 264.1400
 11
1880.1400
 21
 270.0000
  0
LINE
  8
200
  6
AUSGEZOGEN
 10
1871.8600
 20
 270.0000
 11
1866.0000
 21
 264.1400
  0
LINE
  8
200
  6
AUSGEZOGEN
 10
1866.0000
 20
 255.8600
 11
1871.8600
 21
 250.0000
  0
LINE
  8
200
  6
AUSGEZOGEN
 10
1850.1400
 20
 250.0000
 11
1856.0000
 21
 255.8600
  0
LINE
  8
200
  6
AUSGEZOGEN
 10
1856.0000
 20
 264.1400
 11
1850.1400
 21
 270.0000
  0
LINE
  8
200
  6
AUSGEZOGEN
 10
1841.8600
 20
 270.0000
 11
1836.0000
 21
 264.1400
  0
LINE
  8
200
  6
AUSGEZOGEN
 10
1836.0000
 20
 255.8600
 11
1841.8600
 21
 250.0000
  0
LINE
  8
200
  6
AUSGEZOGEN
 10
1820.1400
 20
 250.0000
 11
1826.0000
 21
 255.8600
  0
LINE
  8
200
  6
AUSGEZOGEN
 10
1826.0000
 20
 264.1400
 11
1820.1400
 21
 270.0000
  0
LINE
  8
200
  6
AUSGEZOGEN
 10
1811.8600
 20
 270.0000
 11
1806.0000
 21
 264.1400
  0
LINE
  8
200
  6
AUSGEZOGEN
 10
1806.0000
 20
 255.8600
 11
1811.8600
 21
 250.0000
  0
LINE
  8
200
  6
AUSGEZOGEN
 10
1790.1400
 20
 250.0000
 11
1796.0000
 21
 255.8600
  0
LINE
  8
200
  6
AUSGEZOGEN
 10
1796.0000
 20
 264.1400
 11
1790.1400
 21
 270.0000
  0
LINE
  8
200
  6
AUSGEZOGEN
 10
1781.8600
 20
 270.0000
 11
1776.0000
 21
 264.1400
  0
LINE
  8
200
  6
AUSGEZOGEN
 10
1776.0000
 20
 255.8600
 11
1781.8600
 21
 250.0000
  0
LINE
  8
200
  6
AUSGEZOGEN
 10
1760.1400
 20
 250.0000
 11
1766.0000
 21
 255.8600
  0
LINE
  8
200
  6
AUSGEZOGEN
 10
1766.0000
 20
 264.1400
 11
1760.1400
 21
 270.0000
  0
LINE
  8
200
  6
AUSGEZOGEN
 10
1751.8600
 20
 270.0000
 11
1746.0000
 21
 264.1400
  0
LINE
  8
200
  6
AUSGEZOGEN
 10
1746.0000
 20
 255.8600
 11
1751.8600
 21
 250.0000
  0
LINE
  8
200
  6
AUSGEZOGEN
 10
1730.1400
 20
 250.0000
 11
1736.0000
 21
 255.8600
  0
LINE
  8
200
  6
AUSGEZOGEN
 10
1736.0000
 20
 264.1400
 11
1730.1400
 21
 270.0000
  0
LINE
  8
200
  6
AUSGEZOGEN
 10
1721.8600
 20
 270.0000
 11
1716.0000
 21
 264.1400
  0
LINE
  8
200
  6
AUSGEZOGEN
 10
1716.0000
 20
 255.8600
 11
1721.8600
 21
 250.0000
  0
LINE
  8
200
  6
AUSGEZOGEN
 10
1700.1400
 20
 250.0000
 11
1706.0000
 21
 255.8600
  0
LINE
  8
200
  6
AUSGEZOGEN
 10
1706.0000
 20
 264.1400
 11
1700.1400
 21
 270.0000
  0
LINE
  8
200
  6
AUSGEZOGEN
 10
1691.8600
 20
 270.0000
 11
1686.0000
 21
 264.1400
  0
LINE
  8
200
  6
AUSGEZOGEN
 10
1686.0000
 20
 255.8600
 11
1691.8600
 21
 250.0000
  0
LINE
  8
200
  6
AUSGEZOGEN
 10
1670.1400
 20
 250.0000
 11
1676.0000
 21
 255.8600
  0
LINE
  8
200
  6
AUSGEZOGEN
 10
1676.0000
 20
 264.1400
 11
1670.1400
 21
 270.0000
  0
LINE
  8
200
  6
AUSGEZOGEN
 10
1661.8600
 20
 270.0000
 11
1656.0000
 21
 264.1400
  0
LINE
  8
200
  6
AUSGEZOGEN
 10
1656.0000
 20
 255.8600
 11
1661.8600
 21
 250.0000
  0
LINE
  8
200
  6
AUSGEZOGEN
 10
1640.1400
 20
 250.0000
 11
1646.0000
 21
 255.8600
  0
LINE
  8
200
  6
AUSGEZOGEN
 10
1646.0000
 20
 264.1400
 11
1640.1400
 21
 270.0000
  0
LINE
  8
200
  6
AUSGEZOGEN
 10
1631.8600
 20
 270.0000
 11
1626.0000
 21
 264.1400
  0
LINE
  8
200
  6
AUSGEZOGEN
 10
1626.0000
 20
 255.8600
 11
1631.8600
 21
 250.0000
  0
LINE
  8
200
  6
AUSGEZOGEN
 10
1576.0000
 20
  80.0000
 11
1576.0000
 21
 380.0000
  0
LINE
  8
200
  6
AUSGEZOGEN
 10
1044.5000
 20
  80.0000
 11
2107.5000
 21
  80.0000
  0
LINE
  8
200
  6
AUSGEZOGEN
 10
2126.0000
 20
 361.5000
 11
2126.0000
 21
  98.5000
  0
LINE
  8
200
  6
AUSGEZOGEN
 10
 575.0000
 20
  25.0000
 11
2625.0000
 21
  25.0000
  0
LINE
  8
200
  6
AUSGEZOGEN
 10
2625.0000
 20
 675.0000
 11
2625.0000
 21
  25.0000
  0
TEXT
  8
400
 10
3312.5000
 20
 580.0000
 40
  45.0000
  1
EZ: 230V 50Hz, Kabellänge 2,5m mit Schukostecker 0,44kW
 50
   0.0000
 41
   0.6000
  7
STANDARD
  0
TEXT
  8
410
 10
3312.5000
 20
 460.0000
 40
  45.0000
  1
TWk: DN15
 50
   0.0000
 41
   0.6000
  7
STANDARD
  0
TEXT
  8
420
 10
3312.5000
 20
 340.0000
 40
  45.0000
  1
A: DN50 Trichterablauf, unter Boden baus. syphoniert
 50
   0.0000
 41
   0.6000
  7
STANDARD
  0
ATTDEF
  8
550
 10
10.0
 20
100.0
 30
0.0
 40
30
  1
CCO-GTM741R81-MS
  2
CCO-GTM741R81-MSD
  3
HKI-Nummer
 70
1
  0
TEXT
  8
510
 10
10.0
 20
-45.0
 30
0.0
 40
30
  1
CCO-GTM741R81-MS
 50
0.0
 41
1.0
  7
STANDARD
  0
ENDSEC
  0
EOF
