  0
SECTION
  2
HEADER
  9
$ACADVER
  1
AC1015
  9
$ACADMAINTVER
 70
     6
  9
$DWGCODEPAGE
  3
ANSI_1252
  9
$INSBASE
 10
0.0
 20
0.0
 30
0.0
  9
$EXTMIN
 10
0.0
 20
0.0
 30
0.0
  9
$EXTMAX
 10
2100.0
 20
2970.0
 30
0.0
  9
$LIMMIN
 10
0.0
 20
0.0
  9
$LIMMAX
 10
2100.0
 20
2970.0
  9
$ORTHOMODE
 70
     0
  9
$REGENMODE
 70
     1
  9
$FILLMODE
 70
     1
  9
$QTEXTMODE
 70
     0
  9
$MIRRTEXT
 70
     1
  9
$LTSCALE
 40
10.0
  9
$ATTMODE
 70
     1
  9
$TEXTSIZE
 40
35.0
  9
$TRACEWID
 40
1.0
  9
$TEXTSTYLE
  7
Standard
  9
$CLAYER
  8
0
  9
$CELTYPE
  6
ByLayer
  9
$CECOLOR
 62
   256
  9
$CELTSCALE
 40
1.0
  9
$DISPSILH
 70
     0
  9
$DIMSCALE
 40
1.0
  9
$DIMASZ
 40
33.02
  9
$DIMEXO
 40
0.0
  9
$DIMDLI
 40
3.75
  9
$DIMRND
 40
0.0
  9
$DIMDLE
 40
0.0
  9
$DIMEXE
 40
5.0
  9
$DIMTP
 40
0.0
  9
$DIMTM
 40
0.0
  9
$DIMTXT
 40
35.0
  9
$DIMCEN
 40
2.5
  9
$DIMTSZ
 40
0.0
  9
$DIMTOL
 70
     0
  9
$DIMLIM
 70
     0
  9
$DIMTIH
 70
     1
  9
$DIMTOH
 70
     1
  9
$DIMSE1
 70
     0
  9
$DIMSE2
 70
     0
  9
$DIMTAD
 70
     1
  9
$DIMZIN
 70
     0
  9
$DIMBLK
  1

  9
$DIMASO
 70
     1
  9
$DIMSHO
 70
     1
  9
$DIMPOST
  1

  9
$DIMAPOST
  1

  9
$DIMALT
 70
     0
  9
$DIMALTD
 70
     3
  9
$DIMALTF
 40
0.0393700787
  9
$DIMLFAC
 40
1.0
  9
$DIMTOFL
 70
     1
  9
$DIMTVP
 40
0.0
  9
$DIMTIX
 70
     0
  9
$DIMSOXD
 70
     0
  9
$DIMSAH
 70
     0
  9
$DIMBLK1
  1

  9
$DIMBLK2
  1

  9
$DIMSTYLE
  2
ISO-25
  9
$DIMCLRD
 70
     0
  9
$DIMCLRE
 70
     0
  9
$DIMCLRT
 70
     0
  9
$DIMTFAC
 40
1.0
  9
$DIMGAP
 40
15.24
  9
$DIMJUST
 70
     0
  9
$DIMSD1
 70
     0
  9
$DIMSD2
 70
     0
  9
$DIMTOLJ
 70
     0
  9
$DIMTZIN
 70
     0
  9
$DIMALTZ
 70
     0
  9
$DIMALTTZ
 70
     0
  9
$DIMUPT
 70
     0
  9
$DIMDEC
 70
     1
  9
$DIMTDEC
 70
     1
  9
$DIMALTU
 70
     2
  9
$DIMALTTD
 70
     3
  9
$DIMTXSTY
  7
Standard
  9
$DIMAUNIT
 70
     0
  9
$DIMADEC
 70
     0
  9
$DIMALTRND
 40
0.0
  9
$DIMAZIN
 70
     0
  9
$DIMDSEP
 70
    44
  9
$DIMATFIT
 70
     3
  9
$DIMFRAC
 70
     0
  9
$DIMLDRBLK
  1

  9
$DIMLUNIT
 70
     2
  9
$DIMLWD
 70
    -2
  9
$DIMLWE
 70
    -2
  9
$DIMTMOVE
 70
     0
  9
$LUNITS
 70
     2
  9
$LUPREC
 70
     2
  9
$SKETCHINC
 40
1.0
  9
$FILLETRAD
 40
10.0
  9
$AUNITS
 70
     0
  9
$AUPREC
 70
     0
  9
$MENU
  1
.
  9
$ELEVATION
 40
0.0
  9
$PELEVATION
 40
0.0
  9
$THICKNESS
 40
0.0
  9
$LIMCHECK
 70
     0
  9
$CHAMFERA
 40
0.0
  9
$CHAMFERB
 40
0.0
  9
$CHAMFERC
 40
0.0
  9
$CHAMFERD
 40
0.0
  9
$SKPOLY
 70
     0
  9
$TDCREATE
 40
2460035.308687489
  9
$TDUCREATE
 40
2460035.225354155
  9
$TDUPDATE
 40
2460035.308688576
  9
$TDUUPDATE
 40
2460035.225355243
  9
$TDINDWG
 40
0.0000000116
  9
$TDUSRTIMER
 40
0.0000000116
  9
$USRTIMER
 70
     1
  9
$ANGBASE
 50
0.0
  9
$ANGDIR
 70
     0
  9
$PDMODE
 70
     0
  9
$PDSIZE
 40
-1.0
  9
$PLINEWID
 40
0.0
  9
$SPLFRAME
 70
     0
  9
$SPLINETYPE
 70
     6
  9
$SPLINESEGS
 70
     8
  9
$HANDSEED
  5
7D1
  9
$SURFTAB1
 70
     6
  9
$SURFTAB2
 70
     6
  9
$SURFTYPE
 70
     6
  9
$SURFU
 70
     6
  9
$SURFV
 70
     6
  9
$UCSBASE
  2

  9
$UCSNAME
  2

  9
$UCSORG
 10
0.0
 20
0.0
 30
0.0
  9
$UCSXDIR
 10
1.0
 20
0.0
 30
0.0
  9
$UCSYDIR
 10
0.0
 20
1.0
 30
0.0
  9
$UCSORTHOREF
  2

  9
$UCSORTHOVIEW
 70
     0
  9
$UCSORGTOP
 10
0.0
 20
0.0
 30
0.0
  9
$UCSORGBOTTOM
 10
0.0
 20
0.0
 30
0.0
  9
$UCSORGLEFT
 10
0.0
 20
0.0
 30
0.0
  9
$UCSORGRIGHT
 10
0.0
 20
0.0
 30
0.0
  9
$UCSORGFRONT
 10
0.0
 20
0.0
 30
0.0
  9
$UCSORGBACK
 10
0.0
 20
0.0
 30
0.0
  9
$PUCSBASE
  2

  9
$PUCSNAME
  2

  9
$PUCSORG
 10
0.0
 20
0.0
 30
0.0
  9
$PUCSXDIR
 10
1.0
 20
0.0
 30
0.0
  9
$PUCSYDIR
 10
0.0
 20
1.0
 30
0.0
  9
$PUCSORTHOREF
  2

  9
$PUCSORTHOVIEW
 70
     0
  9
$PUCSORGTOP
 10
0.0
 20
0.0
 30
0.0
  9
$PUCSORGBOTTOM
 10
0.0
 20
0.0
 30
0.0
  9
$PUCSORGLEFT
 10
0.0
 20
0.0
 30
0.0
  9
$PUCSORGRIGHT
 10
0.0
 20
0.0
 30
0.0
  9
$PUCSORGFRONT
 10
0.0
 20
0.0
 30
0.0
  9
$PUCSORGBACK
 10
0.0
 20
0.0
 30
0.0
  9
$USERI1
 70
     0
  9
$USERI2
 70
     0
  9
$USERI3
 70
     0
  9
$USERI4
 70
     0
  9
$USERI5
 70
     0
  9
$USERR1
 40
0.0
  9
$USERR2
 40
0.0
  9
$USERR3
 40
0.0
  9
$USERR4
 40
0.0
  9
$USERR5
 40
0.0
  9
$WORLDVIEW
 70
     1
  9
$SHADEDGE
 70
     3
  9
$SHADEDIF
 70
    70
  9
$TILEMODE
 70
     1
  9
$MAXACTVP
 70
    64
  9
$PINSBASE
 10
0.0
 20
0.0
 30
0.0
  9
$PLIMCHECK
 70
     0
  9
$PEXTMIN
 10
1.0000000000E+20
 20
1.0000000000E+20
 30
1.0000000000E+20
  9
$PEXTMAX
 10
-1.0000000000E+20
 20
-1.0000000000E+20
 30
-1.0000000000E+20
  9
$PLIMMIN
 10
0.0
 20
0.0
  9
$PLIMMAX
 10
420.0
 20
297.0
  9
$UNITMODE
 70
     0
  9
$VISRETAIN
 70
     1
  9
$PLINEGEN
 70
     0
  9
$PSLTSCALE
 70
     1
  9
$TREEDEPTH
 70
  3020
  9
$CMLSTYLE
  2
Standard
  9
$CMLJUST
 70
     0
  9
$CMLSCALE
 40
20.0
  9
$PROXYGRAPHICS
 70
     1
  9
$MEASUREMENT
 70
     1
  9
$CELWEIGHT
370
    -1
  9
$ENDCAPS
280
     0
  9
$JOINSTYLE
280
     0
  9
$LWDISPLAY
290
     1
  9
$INSUNITS
 70
     4
  9
$HYPERLINKBASE
  1

  9
$STYLESHEET
  1

  9
$XEDIT
290
     1
  9
$CEPSNTYPE
380
     0
  9
$PSTYLEMODE
290
     1
  9
$FINGERPRINTGUID
  2
{63902822-C8BD-4289-BB1E-FACFB4B39D9E}
  9
$VERSIONGUID
  2
{FAEB1C32-E019-11D5-929B-00C0DF256EC4}
  9
$EXTNAMES
290
     1
  9
$PSVPSCALE
 40
0.0
  9
$OLESTARTUP
290
     0
  0
ENDSEC
  0
SECTION
  2
CLASSES
  0
CLASS
  1
ACDBDICTIONARYWDFLT
  2
AcDbDictionaryWithDefault
  3
ObjectDBX Classes
 90
        0
280
     0
281
     0
  0
CLASS
  1
VISUALSTYLE
  2
AcDbVisualStyle
  3
ObjectDBX Classes
 90
     4095
280
     0
281
     0
  0
CLASS
  1
MATERIAL
  2
AcDbMaterial
  3
ObjectDBX Classes
 90
     1153
280
     0
281
     0
  0
CLASS
  1
SCALE
  2
AcDbScale
  3
ObjectDBX Classes
 90
     1153
280
     0
281
     0
  0
CLASS
  1
TABLESTYLE
  2
AcDbTableStyle
  3
ObjectDBX Classes
 90
     4095
280
     0
281
     0
  0
CLASS
  1
MLEADERSTYLE
  2
AcDbMLeaderStyle
  3
ACDB_MLEADERSTYLE_CLASS
 90
     4095
280
     0
281
     0
  0
CLASS
  1
SUN
  2
AcDbSun
  3
SCENEOE
 90
     1153
280
     0
281
     0
  0
CLASS
  1
ACDBPLACEHOLDER
  2
AcDbPlaceHolder
  3
ObjectDBX Classes
 90
        0
280
     0
281
     0
  0
CLASS
  1
LAYOUT
  2
AcDbLayout
  3
ObjectDBX Classes
 90
        0
280
     0
281
     0
  0
ENDSEC
  0
SECTION
  2
TABLES
  0
TABLE
  2
VPORT
  5
8
330
0
100
AcDbSymbolTable
 70
     1
  0
VPORT
  5
29
330
8
100
AcDbSymbolTableRecord
100
AcDbViewportTableRecord
  2
*Active
 70
     0
 10
0.0
 20
0.0
 11
1.0
 21
1.0
 12
1050.0
 22
1485.0
 13
0.0
 23
0.0
 14
10.0
 24
10.0
 15
10.0
 25
10.0
 16
0.0
 26
0.0
 36
1.0
 17
0.0
 27
0.0
 37
0.0
 40
2970.0
 41
0.7070707071
 42
50.0
 43
0.0
 44
0.0
 50
0.0
 51
0.0
 71
     0
 72
  2000
 73
     1
 74
     3
 75
     0
 76
     0
 77
     0
 78
     0
281
     0
 65
     1
110
0.0
120
0.0
130
0.0
111
1.0
121
0.0
131
0.0
112
0.0
122
1.0
132
0.0
 79
     0
146
0.0
  0
ENDTAB
  0
TABLE
  2
LTYPE
  5
5
330
0
100
AcDbSymbolTable
 70
     6
  0
LTYPE
  5
14
330
5
100
AcDbSymbolTableRecord
100
AcDbLinetypeTableRecord
  2
ByBlock
 70
     0
  3

 72
    65
 73
     0
 40
0.0
  0
LTYPE
  5
15
330
5
100
AcDbSymbolTableRecord
100
AcDbLinetypeTableRecord
  2
ByLayer
 70
     0
  3

 72
    65
 73
     0
 40
0.0
  0
LTYPE
  5
16
330
5
100
AcDbSymbolTableRecord
100
AcDbLinetypeTableRecord
  2
Continuous
 70
     0
  3
Solid line
 72
    65
 73
     0
 40
0.0
  0
LTYPE
  5
6E
330
5
100
AcDbSymbolTableRecord
100
AcDbLinetypeTableRecord
  2
HIDDEN
 70
     0
  3
Hidden __ __ __ __ __ __ __ __ __ __ __ __ __ __
 72
    65
 73
     2
 40
1.905
 49
1.27
 74
     0
 49
-0.635
 74
     0
  0
LTYPE
  5
6F
330
5
100
AcDbSymbolTableRecord
100
AcDbLinetypeTableRecord
  2
PHANTOM
 70
     0
  3
Phantom ______  __  __  ______  __  __  ______
 72
    65
 73
     6
 40
12.7
 49
6.35
 74
     0
 49
-1.27
 74
     0
 49
1.27
 74
     0
 49
-1.27
 74
     0
 49
1.27
 74
     0
 49
-1.27
 74
     0
  0
LTYPE
  5
70
330
5
100
AcDbSymbolTableRecord
100
AcDbLinetypeTableRecord
  2
CENTER
 70
     0
  3
Center ____ _ ____ _ ____ _ ____ _ ____ _ ____
 72
    65
 73
     4
 40
10.16
 49
6.35
 74
     0
 49
-1.27
 74
     0
 49
1.27
 74
     0
 49
-1.27
 74
     0
  0
LTYPE
  5
71
330
5
100
AcDbSymbolTableRecord
100
AcDbLinetypeTableRecord
  2
CENTERX2
 70
     0
  3
Center (2x) ________  __  ________  __  _____
 72
    65
 73
     4
 40
20.32
 49
12.7
 74
     0
 49
-2.54
 74
     0
 49
2.54
 74
     0
 49
-2.54
 74
     0
  0
LTYPE
  5
72
330
5
100
AcDbSymbolTableRecord
100
AcDbLinetypeTableRecord
  2
DOT2
 70
     0
  3
Dot (.5x) ........................................
 72
    65
 73
     2
 40
0.635
 49
0.0
 74
     0
 49
-0.635
 74
     0
  0
ENDTAB
  0
TABLE
  2
LAYER
  5
2
330
0
100
AcDbSymbolTable
 70
    11
  0
LAYER
  5
10
330
2
100
AcDbSymbolTableRecord
100
AcDbLayerTableRecord
  2
0
 70
     0
 62
     7
  6
Continuous
370
    -3
390
F
  0
LAYER
  5
73
330
2
100
AcDbSymbolTableRecord
100
AcDbLayerTableRecord
  2
BEMAßUNG
 70
     0
 62
     7
  6
Continuous
370
    -1
390
F
  0
LAYER
  5
74
330
2
100
AcDbSymbolTableRecord
100
AcDbLayerTableRecord
  2
KONTUR
 70
     0
 62
     2
  6
Continuous
370
    -1
390
F
  0
LAYER
  5
75
330
2
100
AcDbSymbolTableRecord
100
AcDbLayerTableRecord
  2
MITTELLINIE
 70
     0
 62
     3
  6
CENTERX2
370
    -3
390
F
  0
LAYER
  5
76
330
2
100
AcDbSymbolTableRecord
100
AcDbLayerTableRecord
  2
RAHMEN
 70
     0
 62
     7
  6
Continuous
370
    -1
390
F
  0
LAYER
  5
77
330
2
100
AcDbSymbolTableRecord
100
AcDbLayerTableRecord
  2
SCHNITTLINIE
 70
     0
 62
     2
  6
CENTERX2
370
    -3
390
F
  0
LAYER
  5
78
330
2
100
AcDbSymbolTableRecord
100
AcDbLayerTableRecord
  2
SCHRAFFUR
 70
     0
 62
     4
  6
Continuous
370
    -1
390
F
  0
LAYER
  5
79
330
2
100
AcDbSymbolTableRecord
100
AcDbLayerTableRecord
  2
TEXT
 70
     0
 62
     7
  6
Continuous
370
    -1
390
F
  0
LAYER
  5
7A
330
2
100
AcDbSymbolTableRecord
100
AcDbLayerTableRecord
  2
VERDECKT
 70
     0
 62
     3
  6
HIDDEN
370
    -3
390
F
  0
LAYER
  5
7B
330
2
100
AcDbSymbolTableRecord
100
AcDbLayerTableRecord
  2
KANTLINIE
 70
     0
 62
     3
  6
CENTERX2
370
    -3
390
F
  0
LAYER
  5
7C
330
2
100
AcDbSymbolTableRecord
100
AcDbLayerTableRecord
  2
PHANTOM
 70
     0
 62
   200
  6
CENTERX2
370
    -3
390
F
  0
ENDTAB
  0
TABLE
  2
STYLE
  5
3
330
0
100
AcDbSymbolTable
 70
     3
  0
STYLE
  5
11
330
3
100
AcDbSymbolTableRecord
100
AcDbTextStyleTableRecord
  2
Standard
 70
     0
 40
0.0
 41
1.0
 50
0.0
 71
     0
 42
35.0
  3
txt
  4

  0
STYLE
  5
7C4
330
3
100
AcDbSymbolTableRecord
100
AcDbTextStyleTableRecord
  2
SLDTEXTSTYLE0
 70
     0
 40
0.0
 41
0.6759259259
 50
0.0
 71
     0
 42
35.0
  3
TXT
  4

  0
STYLE
  5
7C6
330
3
100
AcDbSymbolTableRecord
100
AcDbTextStyleTableRecord
  2
SLDTEXTSTYLE1
 70
     0
 40
0.0
 41
0.75
 50
0.0
 71
     0
 42
35.0
  3
TXT
  4

  0
ENDTAB
  0
TABLE
  2
VIEW
  5
6
330
0
100
AcDbSymbolTable
 70
     0
  0
ENDTAB
  0
TABLE
  2
UCS
  5
7
330
0
100
AcDbSymbolTable
 70
     0
  0
ENDTAB
  0
TABLE
  2
APPID
  5
9
330
0
100
AcDbSymbolTable
 70
     1
  0
APPID
  5
12
330
9
100
AcDbSymbolTableRecord
100
AcDbRegAppTableRecord
  2
ACAD
 70
     0
  0
ENDTAB
  0
TABLE
  2
DIMSTYLE
  5
A
330
0
100
AcDbSymbolTable
 70
     2
100
AcDbDimStyleTable
  0
DIMSTYLE
105
27
330
A
100
AcDbSymbolTableRecord
100
AcDbDimStyleTableRecord
  2
ISO-25
 70
     0
 41
2.5
 42
0.625
 43
3.75
 44
1.25
 73
     0
 74
     0
 77
     1
 78
     8
140
2.5
141
2.5
143
0.0393700787
147
0.625
171
     3
172
     1
178
     0
271
     2
272
     2
274
     3
278
    44
283
     0
284
     8
340
11
  0
DIMSTYLE
105
7C9
330
A
100
AcDbSymbolTableRecord
100
AcDbDimStyleTableRecord
  2
SLDDIMSTYLE0
 70
     0
 41
33.02
 44
0.0
 45
0.000000001
146
33.02
147
0.0
173
     1
178
     0
271
     0
272
     0
276
     2
340
11
  0
ENDTAB
  0
TABLE
  2
BLOCK_RECORD
  5
1
330
0
100
AcDbSymbolTable
 70
     3
  0
BLOCK_RECORD
  5
1F
330
1
100
AcDbSymbolTableRecord
100
AcDbBlockTableRecord
  2
*Model_Space
340
22
  0
BLOCK_RECORD
  5
1B
330
1
100
AcDbSymbolTableRecord
100
AcDbBlockTableRecord
  2
*Paper_Space
340
1E
  0
BLOCK_RECORD
  5
23
330
1
100
AcDbSymbolTableRecord
100
AcDbBlockTableRecord
  2
*Paper_Space0
340
26
  0
BLOCK_RECORD
  5
7C0
330
1
100
AcDbSymbolTableRecord
100
AcDbBlockTableRecord
  2
SW_NOTE_0
340
0
102
{BLKREFS
331
7C8
102
}
  0
BLOCK_RECORD
  5
7CB
330
1
100
AcDbSymbolTableRecord
100
AcDbBlockTableRecord
  2
SW_NOTE_1
340
0
102
{BLKREFS
331
7D0
102
}
  0
ENDTAB
  0
ENDSEC
  0
SECTION
  2
BLOCKS
  0
BLOCK
  5
20
330
1F
100
AcDbEntity
  8
0
100
AcDbBlockBegin
  2
*Model_Space
 70
     0
 10
0.0
 20
0.0
 30
0.0
  3
*Model_Space
  1

  0
ENDBLK
  5
21
330
1F
100
AcDbEntity
  8
0
100
AcDbBlockEnd
  0
BLOCK
  5
1C
330
1B
100
AcDbEntity
 67
     1
  8
0
100
AcDbBlockBegin
  2
*Paper_Space
 70
     0
 10
0.0
 20
0.0
 30
0.0
  3
*Paper_Space
  1

  0
ENDBLK
  5
1D
330
1B
100
AcDbEntity
 67
     1
  8
0
100
AcDbBlockEnd
  0
BLOCK
  5
24
330
23
100
AcDbEntity
  8
0
100
AcDbBlockBegin
  2
*Paper_Space0
 70
     0
 10
0.0
 20
0.0
 30
0.0
  3
*Paper_Space0
  1

  0
ENDBLK
  5
25
330
23
100
AcDbEntity
  8
0
100
AcDbBlockEnd
  0
BLOCK
  5
7C1
330
7C0
100
AcDbEntity
  8
0
100
AcDbBlockBegin
  2
SW_NOTE_0
 70
     0
 10
0.0
 20
0.0
 30
0.0
  3
SW_NOTE_0
  1

  0
LINE
  5
7C3
330
7C0
100
AcDbEntity
  8
RAHMEN
 62
     0
100
AcDbLine
 10
711.6405512071
 20
0.0
 30
0.0
 11
0.0
 21
0.0
 31
0.0
  0
MTEXT
  5
7C5
330
7C0
100
AcDbEntity
  8
RAHMEN
 62
     0
100
AcDbMText
 10
4.8594766703
 20
90.7115962883
 30
0.0
 40
35.0
 41
0.0
 71
     1
 72
     1
  1
EZ: 230 V / 50 Hz / 0,28 kW
  7
SLDTEXTSTYLE0
 73
     1
 44
1.0
  0
MTEXT
  5
7C7
330
7C0
100
AcDbEntity
  8
RAHMEN
 62
     0
100
AcDbMText
 10
83.6094766703
 20
45.4546509838
 30
0.0
 40
35.0
 41
0.0
 71
     1
 72
     1
  1
Kabellänge 3 m (OKFF 1800)
  7
SLDTEXTSTYLE1
 73
     1
 44
1.0
  0
ENDBLK
  5
7C2
330
7C0
100
AcDbEntity
  8
0
100
AcDbBlockEnd
  0
BLOCK
  5
7CC
330
7CB
100
AcDbEntity
  8
0
100
AcDbBlockBegin
  2
SW_NOTE_1
 70
     0
 10
0.0
 20
0.0
 30
0.0
  3
SW_NOTE_1
  1

  0
MTEXT
  5
7CE
330
7CB
100
AcDbEntity
  8
RAHMEN
 62
     0
100
AcDbMText
 10
0.0
 20
45.117370892
 30
0.0
 40
35.0
 41
0.0
 71
     1
 72
     1
  1
HKMN057-02
  7
SLDTEXTSTYLE1
 73
     1
 44
1.0
  0
MTEXT
  5
7CF
330
7CB
100
AcDbEntity
  8
RAHMEN
 62
     0
100
AcDbMText
 10
0.0
 20
-0.1395744126
 30
0.0
 40
35.0
 41
0.0
 71
     1
 72
     1
  1
HKMNZ57-02
  7
SLDTEXTSTYLE1
 73
     1
 44
1.0
  0
ENDBLK
  5
7CD
330
7CB
100
AcDbEntity
  8
0
100
AcDbBlockEnd
  0
ENDSEC
  0
SECTION
  2
ENTITIES
  0
LINE
  5
7D
330
1F
100
AcDbEntity
  8
KONTUR
100
AcDbLine
 10
996.3056380779
 20
2456.967905663
 30
0.0
 11
996.3056380779
 21
2457.667905663
 31
0.0
  0
LINE
  5
7E
330
1F
100
AcDbEntity
  8
KONTUR
100
AcDbLine
 10
988.8056380779
 20
2457.667905663
 30
0.0
 11
988.8056380779
 21
2456.967905663
 31
0.0
  0
ARC
  5
7F
330
1F
100
AcDbEntity
  8
KONTUR
100
AcDbCircle
 10
994.8056380779
 20
2456.661655663
 30
0.0
 40
1.806250000000091
100
AcDbArc
 50
33.8550261283
 51
90.0
  0
ARC
  5
80
330
1F
100
AcDbEntity
  8
KONTUR
100
AcDbCircle
 10
990.3056380779
 20
2456.661655663
 30
0.0
 40
1.806250000000091
100
AcDbArc
 50
90.0
 51
146.1449738717
  0
LINE
  5
81
330
1F
100
AcDbEntity
  8
KONTUR
100
AcDbLine
 10
330.3056380779
 20
2456.967905663
 30
0.0
 11
330.3056380779
 21
2457.667905663
 31
0.0
  0
LINE
  5
82
330
1F
100
AcDbEntity
  8
KONTUR
100
AcDbLine
 10
322.8056380779
 20
2457.667905663
 30
0.0
 11
322.8056380779
 21
2456.967905663
 31
0.0
  0
ARC
  5
83
330
1F
100
AcDbEntity
  8
KONTUR
100
AcDbCircle
 10
328.8056380779
 20
2456.661655663
 30
0.0
 40
1.806250000000091
100
AcDbArc
 50
33.8550261283
 51
90.0
  0
ARC
  5
84
330
1F
100
AcDbEntity
  8
KONTUR
100
AcDbCircle
 10
324.3056380779
 20
2456.661655663
 30
0.0
 40
1.806250000000091
100
AcDbArc
 50
90.0
 51
146.1449738717
  0
LINE
  5
85
330
1F
100
AcDbEntity
  8
KONTUR
100
AcDbLine
 10
360.3056380779
 20
2456.967905663
 30
0.0
 11
360.3056380779
 21
2457.667905663
 31
0.0
  0
LINE
  5
86
330
1F
100
AcDbEntity
  8
KONTUR
100
AcDbLine
 10
352.8056380779
 20
2457.667905663
 30
0.0
 11
352.8056380779
 21
2456.967905663
 31
0.0
  0
ARC
  5
87
330
1F
100
AcDbEntity
  8
KONTUR
100
AcDbCircle
 10
358.8056380779
 20
2456.661655663
 30
0.0
 40
1.806250000000091
100
AcDbArc
 50
33.8550261283
 51
90.0
  0
ARC
  5
88
330
1F
100
AcDbEntity
  8
KONTUR
100
AcDbCircle
 10
354.3056380779
 20
2456.661655663
 30
0.0
 40
1.806250000000091
100
AcDbArc
 50
90.0
 51
146.1449738717
  0
ARC
  5
89
330
1F
100
AcDbEntity
  8
KONTUR
100
AcDbCircle
 10
964.8056380779
 20
2456.661655663
 30
0.0
 40
1.806250000000091
100
AcDbArc
 50
33.8550261283
 51
90.0
  0
ARC
  5
8A
330
1F
100
AcDbEntity
  8
KONTUR
100
AcDbCircle
 10
960.3056380779
 20
2456.661655663
 30
0.0
 40
1.806250000000091
100
AcDbArc
 50
90.0
 51
146.1449738717
  0
LINE
  5
8B
330
1F
100
AcDbEntity
  8
KONTUR
100
AcDbLine
 10
966.3056380779
 20
2456.967905663
 30
0.0
 11
966.3056380779
 21
2457.667905663
 31
0.0
  0
LINE
  5
8C
330
1F
100
AcDbEntity
  8
KONTUR
100
AcDbLine
 10
958.8056380779
 20
2457.667905663
 30
0.0
 11
958.8056380779
 21
2456.967905663
 31
0.0
  0
LINE
  5
8D
330
1F
100
AcDbEntity
  8
KONTUR
100
AcDbLine
 10
361.5556380779
 20
2461.267905663
 30
0.0
 11
352.5556380779
 21
2461.267905663
 31
0.0
  0
LINE
  5
8E
330
1F
100
AcDbEntity
  8
KONTUR
100
AcDbLine
 10
330.5556380779
 20
2461.267905663
 30
0.0
 11
321.5556380779
 21
2461.267905663
 31
0.0
  0
LINE
  5
8F
330
1F
100
AcDbEntity
  8
KONTUR
100
AcDbLine
 10
997.5556380779
 20
2461.267905663
 30
0.0
 11
988.5556380779
 21
2461.267905663
 31
0.0
  0
LINE
  5
90
330
1F
100
AcDbEntity
  8
KONTUR
100
AcDbLine
 10
966.5556380779
 20
2461.267905663
 30
0.0
 11
957.5556380779
 21
2461.267905663
 31
0.0
  0
LINE
  5
91
330
1F
100
AcDbEntity
  8
KONTUR
100
AcDbLine
 10
986.5556380779
 20
2461.267905663
 30
0.0
 11
968.5556380779
 21
2461.267905663
 31
0.0
  0
LINE
  5
92
330
1F
100
AcDbEntity
  8
KONTUR
100
AcDbLine
 10
350.5556380779
 20
2461.267905663
 30
0.0
 11
332.5556380779
 21
2461.267905663
 31
0.0
  0
LINE
  5
93
330
1F
100
AcDbEntity
  8
KONTUR
100
AcDbLine
 10
968.5556380779
 20
2461.267905663
 30
0.0
 11
966.5556380779
 21
2461.267905663
 31
0.0
  0
LINE
  5
94
330
1F
100
AcDbEntity
  8
KONTUR
100
AcDbLine
 10
332.5556380779
 20
2461.267905663
 30
0.0
 11
330.5556380779
 21
2461.267905663
 31
0.0
  0
LINE
  5
95
330
1F
100
AcDbEntity
  8
KONTUR
100
AcDbLine
 10
352.5556380779
 20
2461.267905663
 30
0.0
 11
350.5556380779
 21
2461.267905663
 31
0.0
  0
LINE
  5
96
330
1F
100
AcDbEntity
  8
KONTUR
100
AcDbLine
 10
988.5556380779
 20
2461.267905663
 30
0.0
 11
986.5556380779
 21
2461.267905663
 31
0.0
  0
LINE
  5
97
330
1F
100
AcDbEntity
  8
KONTUR
100
AcDbLine
 10
361.5556380779
 20
2456.517905663
 30
0.0
 11
362.5556380779
 21
2456.517905663
 31
0.0
  0
LINE
  5
98
330
1F
100
AcDbEntity
  8
KONTUR
100
AcDbLine
 10
362.5556380779
 20
2460.517905663
 30
0.0
 11
361.5556380779
 21
2460.517905663
 31
0.0
  0
ARC
  5
99
330
1F
100
AcDbEntity
  8
KONTUR
100
AcDbCircle
 10
362.5556380779
 20
2460.317905663
 30
0.0
 40
0.2000000000000455
100
AcDbArc
 50
0.0
 51
90.0
  0
ARC
  5
9A
330
1F
100
AcDbEntity
  8
KONTUR
100
AcDbCircle
 10
362.5556380779
 20
2456.717905663
 30
0.0
 40
0.2000000000000455
100
AcDbArc
 50
270.0
 51
0.0
  0
ARC
  5
9B
330
1F
100
AcDbEntity
  8
KONTUR
100
AcDbCircle
 10
998.5556380779
 20
2460.317905663
 30
0.0
 40
0.1999999999999318
100
AcDbArc
 50
0.0
 51
90.0
  0
ARC
  5
9C
330
1F
100
AcDbEntity
  8
KONTUR
100
AcDbCircle
 10
998.5556380779
 20
2456.717905663
 30
0.0
 40
0.2000000000002728
100
AcDbArc
 50
270.0
 51
0.0
  0
LINE
  5
9D
330
1F
100
AcDbEntity
  8
KONTUR
100
AcDbLine
 10
997.5556380779
 20
2456.517905663
 30
0.0
 11
998.5556380779
 21
2456.517905663
 31
0.0
  0
LINE
  5
9E
330
1F
100
AcDbEntity
  8
KONTUR
100
AcDbLine
 10
998.5556380779
 20
2460.517905663
 30
0.0
 11
997.5556380779
 21
2460.517905663
 31
0.0
  0
LINE
  5
9F
330
1F
100
AcDbEntity
  8
KONTUR
100
AcDbLine
 10
321.5556380779
 20
2460.517905663
 30
0.0
 11
320.5556380779
 21
2460.517905663
 31
0.0
  0
LINE
  5
A0
330
1F
100
AcDbEntity
  8
KONTUR
100
AcDbLine
 10
320.5556380779
 20
2456.517905663
 30
0.0
 11
321.5556380779
 21
2456.517905663
 31
0.0
  0
ARC
  5
A1
330
1F
100
AcDbEntity
  8
KONTUR
100
AcDbCircle
 10
320.5556380779
 20
2456.717905663
 30
0.0
 40
0.1999999999998749
100
AcDbArc
 50
180.0
 51
270.0
  0
ARC
  5
A2
330
1F
100
AcDbEntity
  8
KONTUR
100
AcDbCircle
 10
320.5556380779
 20
2460.317905663
 30
0.0
 40
0.1999999999998749
100
AcDbArc
 50
90.0
 51
180.0
  0
ARC
  5
A3
330
1F
100
AcDbEntity
  8
KONTUR
100
AcDbCircle
 10
956.5556380779
 20
2456.717905663
 30
0.0
 40
0.2000000000002728
100
AcDbArc
 50
180.0
 51
270.0
  0
ARC
  5
A4
330
1F
100
AcDbEntity
  8
KONTUR
100
AcDbCircle
 10
956.5556380779
 20
2460.317905663
 30
0.0
 40
0.1999999999999318
100
AcDbArc
 50
90.0
 51
180.0
  0
LINE
  5
A5
330
1F
100
AcDbEntity
  8
KONTUR
100
AcDbLine
 10
957.5556380779
 20
2460.517905663
 30
0.0
 11
956.5556380779
 21
2460.517905663
 31
0.0
  0
LINE
  5
A6
330
1F
100
AcDbEntity
  8
KONTUR
100
AcDbLine
 10
956.5556380779
 20
2456.517905663
 30
0.0
 11
957.5556380779
 21
2456.517905663
 31
0.0
  0
LINE
  5
A7
330
1F
100
AcDbEntity
  8
KONTUR
100
AcDbLine
 10
740.5556380779
 20
2084.467905663
 30
0.0
 11
748.5556380779
 21
2084.467905663
 31
0.0
  0
LINE
  5
A8
330
1F
100
AcDbEntity
  8
KONTUR
100
AcDbLine
 10
715.5556380779
 20
2083.167905663
 30
0.0
 11
723.5556380779
 21
2083.167905663
 31
0.0
  0
LINE
  5
A9
330
1F
100
AcDbEntity
  8
KONTUR
100
AcDbLine
 10
529.9056380779
 20
2097.667905663
 30
0.0
 11
529.9056380779
 21
2097.167905663
 31
0.0
  0
LINE
  5
AA
330
1F
100
AcDbEntity
  8
KONTUR
100
AcDbLine
 10
591.2056380779
 20
2097.167905663
 30
0.0
 11
591.2056380779
 21
2097.667905663
 31
0.0
  0
ARC
  5
AB
330
1F
100
AcDbEntity
  8
KONTUR
100
AcDbCircle
 10
531.4056380779
 20
2097.167905663
 30
0.0
 40
1.5
100
AcDbArc
 50
180.0
 51
270.0
  0
ARC
  5
AC
330
1F
100
AcDbEntity
  8
KONTUR
100
AcDbCircle
 10
589.7056380779
 20
2097.167905663
 30
0.0
 40
1.5
100
AcDbArc
 50
270.0
 51
0.0
  0
ARC
  5
AD
330
1F
100
AcDbEntity
  8
KONTUR
100
AcDbCircle
 10
972.7556380779
 20
2097.4737496829
 30
0.0
 40
0.4499999999999428
100
AcDbArc
 50
154.4398928089
 51
180.0
  0
ARC
  5
AE
330
1F
100
AcDbEntity
  8
KONTUR
100
AcDbCircle
 10
981.3556380779
 20
2097.4737496829
 30
0.0
 40
0.4500000000001391
100
AcDbArc
 50
0.0
 51
25.5601071912
  0
LINE
  5
AF
330
1F
100
AcDbEntity
  8
KONTUR
100
AcDbLine
 10
972.3056380779
 20
2097.4737496829
 30
0.0
 11
972.3056380779
 21
2095.567905663
 31
0.0
  0
LINE
  5
B0
330
1F
100
AcDbEntity
  8
KONTUR
100
AcDbLine
 10
981.8056380779
 20
2095.567905663
 30
0.0
 11
981.8056380779
 21
2097.4737496829
 31
0.0
  0
LINE
  5
B1
330
1F
100
AcDbEntity
  8
KONTUR
100
AcDbLine
 10
981.8056380779
 20
597.062061643
 30
0.0
 11
981.8056380779
 21
598.9679056629
 31
0.0
  0
LINE
  5
B2
330
1F
100
AcDbEntity
  8
KONTUR
100
AcDbLine
 10
972.3056380779
 20
598.9679056629
 30
0.0
 11
972.3056380779
 21
597.062061643
 31
0.0
  0
ARC
  5
B3
330
1F
100
AcDbEntity
  8
KONTUR
100
AcDbCircle
 10
981.3556380779
 20
597.062061643
 30
0.0
 40
0.4500000000000455
100
AcDbArc
 50
304.7179055026
 51
0.0
  0
ARC
  5
B4
330
1F
100
AcDbEntity
  8
KONTUR
100
AcDbCircle
 10
972.7556380779
 20
597.062061643
 30
0.0
 40
0.4499999999998181
100
AcDbArc
 50
180.0
 51
235.2820944974
  0
ARC
  5
B5
330
1F
100
AcDbEntity
  8
KONTUR
100
AcDbCircle
 10
977.0556380779
 20
603.2679056629
 30
0.0
 40
7.999999999999933
100
AcDbArc
 50
277.4542197498
 51
304.7179055026
  0
ARC
  5
B6
330
1F
100
AcDbEntity
  8
KONTUR
100
AcDbCircle
 10
977.0556380779
 20
603.2679056629
 30
0.0
 40
7.999999999999934
100
AcDbArc
 50
235.2820944974
 51
262.5457802502
  0
LINE
  5
B7
330
1F
100
AcDbEntity
  8
KONTUR
100
AcDbLine
 10
322.3056380779
 20
1338.767905663
 30
0.0
 11
322.3056380779
 21
611.967905663
 31
0.0
  0
LINE
  5
B8
330
1F
100
AcDbEntity
  8
KONTUR
100
AcDbLine
 10
996.2010960808
 20
612.6707191788
 30
0.0
 11
996.7956184988
 21
612.6707191704
 31
0.0
  0
LINE
  5
B9
330
1F
100
AcDbEntity
  8
KONTUR
100
AcDbLine
 10
996.102824365
 20
611.9815541958
 30
0.0
 11
996.1028243569
 21
612.5724634829
 31
0.0
  0
LINE
  5
BA
330
1F
100
AcDbEntity
  8
KONTUR
100
AcDbLine
 10
996.102824562
 20
1338.167905663
 30
0.0
 11
996.1028245704
 21
1338.7578860841
 31
0.0
  0
LINE
  5
BB
330
1F
100
AcDbEntity
  8
KONTUR
100
AcDbLine
 10
646.7056380779
 20
2083.067905663
 30
0.0
 11
646.7056380779
 21
2082.567905663
 31
0.0
  0
LINE
  5
BC
330
1F
100
AcDbEntity
  8
KONTUR
100
AcDbLine
 10
672.4056380779
 20
2082.567905663
 30
0.0
 11
672.4056380779
 21
2083.067905663
 31
0.0
  0
ARC
  5
BD
330
1F
100
AcDbEntity
  8
KONTUR
100
AcDbCircle
 10
659.5556380779
 20
2008.5622238448
 30
0.0
 40
75.60568181818176
100
AcDbArc
 50
80.2144617714
 51
99.7855382286
  0
ARC
  5
BE
330
1F
100
AcDbEntity
  8
KONTUR
100
AcDbCircle
 10
659.5556380779
 20
685.9735874811
 30
0.0
 40
75.60568181818189
100
AcDbArc
 50
260.2144617714
 51
279.7855382286
  0
LINE
  5
BF
330
1F
100
AcDbEntity
  8
KONTUR
100
AcDbLine
 10
672.4056380779
 20
611.467905663
 30
0.0
 11
672.4056380779
 21
611.967905663
 31
0.0
  0
LINE
  5
C0
330
1F
100
AcDbEntity
  8
KONTUR
100
AcDbLine
 10
646.7056380779
 20
611.967905663
 30
0.0
 11
646.7056380779
 21
611.467905663
 31
0.0
  0
LINE
  5
C1
330
1F
100
AcDbEntity
  8
KONTUR
100
AcDbLine
 10
972.0556380779
 20
2090.567905663
 30
0.0
 11
972.0556380779
 21
2086.567905663
 31
0.0
  0
LINE
  5
C2
330
1F
100
AcDbEntity
  8
KONTUR
100
AcDbLine
 10
982.0556380779
 20
2086.567905663
 30
0.0
 11
982.0556380779
 21
2090.567905663
 31
0.0
  0
LINE
  5
C3
330
1F
100
AcDbEntity
  8
KONTUR
100
AcDbLine
 10
982.0556380779
 20
603.967905663
 30
0.0
 11
982.0556380779
 21
607.967905663
 31
0.0
  0
LINE
  5
C4
330
1F
100
AcDbEntity
  8
KONTUR
100
AcDbLine
 10
972.0556380779
 20
607.967905663
 30
0.0
 11
972.0556380779
 21
603.967905663
 31
0.0
  0
ARC
  5
C5
330
1F
100
AcDbEntity
  8
KONTUR
100
AcDbCircle
 10
923.8556380779
 20
1338.7626973296
 30
0.0
 40
3.505208333333485
100
AcDbArc
 50
90.0
 51
145.1056231534
  0
ARC
  5
C6
330
1F
100
AcDbEntity
  8
KONTUR
100
AcDbCircle
 10
927.8556380779
 20
1338.7626973296
 30
0.0
 40
3.505208333333485
100
AcDbArc
 50
34.8943768466
 51
90.0
  0
LINE
  5
C7
330
1F
100
AcDbEntity
  8
KONTUR
100
AcDbLine
 10
920.9806380779
 20
1340.767905663
 30
0.0
 11
920.9806380779
 21
1338.767905663
 31
0.0
  0
LINE
  5
C8
330
1F
100
AcDbEntity
  8
KONTUR
100
AcDbLine
 10
930.7306380779
 20
1338.767905663
 30
0.0
 11
930.7306380779
 21
1340.767905663
 31
0.0
  0
LINE
  5
C9
330
1F
100
AcDbEntity
  8
KONTUR
100
AcDbLine
 10
930.7306380779
 20
1353.767905663
 30
0.0
 11
930.7306380779
 21
1355.767905663
 31
0.0
  0
LINE
  5
CA
330
1F
100
AcDbEntity
  8
KONTUR
100
AcDbLine
 10
920.9806380779
 20
1355.767905663
 30
0.0
 11
920.9806380779
 21
1353.767905663
 31
0.0
  0
ARC
  5
CB
330
1F
100
AcDbEntity
  8
KONTUR
100
AcDbCircle
 10
927.8556380779
 20
1355.7731139963
 30
0.0
 40
3.50520833333342
100
AcDbArc
 50
270.0
 51
325.1056231534
  0
ARC
  5
CC
330
1F
100
AcDbEntity
  8
KONTUR
100
AcDbCircle
 10
923.8556380779
 20
1355.7731139963
 30
0.0
 40
3.50520833333342
100
AcDbArc
 50
214.8943768466
 51
270.0
  0
ARC
  5
CD
330
1F
100
AcDbEntity
  8
KONTUR
100
AcDbCircle
 10
949.4556380779
 20
1338.7626973296
 30
0.0
 40
3.50520833333329
100
AcDbArc
 50
90.0
 51
145.1056231534
  0
ARC
  5
CE
330
1F
100
AcDbEntity
  8
KONTUR
100
AcDbCircle
 10
953.4556380779
 20
1338.7626973296
 30
0.0
 40
3.505208333333383
100
AcDbArc
 50
34.8943768466
 51
90.0
  0
LINE
  5
CF
330
1F
100
AcDbEntity
  8
KONTUR
100
AcDbLine
 10
946.5806380779
 20
1340.767905663
 30
0.0
 11
946.5806380779
 21
1338.767905663
 31
0.0
  0
LINE
  5
D0
330
1F
100
AcDbEntity
  8
KONTUR
100
AcDbLine
 10
956.3306380779
 20
1338.767905663
 30
0.0
 11
956.3306380779
 21
1340.767905663
 31
0.0
  0
ARC
  5
D1
330
1F
100
AcDbEntity
  8
KONTUR
100
AcDbCircle
 10
953.4556380779
 20
1355.7731139963
 30
0.0
 40
3.50520833333342
100
AcDbArc
 50
270.0
 51
325.1056231534
  0
ARC
  5
D2
330
1F
100
AcDbEntity
  8
KONTUR
100
AcDbCircle
 10
949.4556380779
 20
1355.7731139963
 30
0.0
 40
3.505208333333513
100
AcDbArc
 50
214.8943768466
 51
270.0
  0
LINE
  5
D3
330
1F
100
AcDbEntity
  8
KONTUR
100
AcDbLine
 10
956.3306380779
 20
1353.767905663
 30
0.0
 11
956.3306380779
 21
1355.767905663
 31
0.0
  0
LINE
  5
D4
330
1F
100
AcDbEntity
  8
KONTUR
100
AcDbLine
 10
946.5806380779
 20
1355.767905663
 30
0.0
 11
946.5806380779
 21
1353.767905663
 31
0.0
  0
LINE
  5
D5
330
1F
100
AcDbEntity
  8
KONTUR
100
AcDbLine
 10
322.3056380779
 20
2082.567905663
 30
0.0
 11
322.3056380779
 21
1355.767905663
 31
0.0
  0
LINE
  5
D6
330
1F
100
AcDbEntity
  8
KONTUR
100
AcDbLine
 10
996.102824365
 20
1355.7815541958
 30
0.0
 11
996.1028243569
 21
1356.3724634829
 31
0.0
  0
LINE
  5
D7
330
1F
100
AcDbEntity
  8
KONTUR
100
AcDbLine
 10
996.2010960808
 20
1356.4707191788
 30
0.0
 11
996.7956184988
 21
1356.4707191704
 31
0.0
  0
LINE
  5
D8
330
1F
100
AcDbEntity
  8
KONTUR
100
AcDbLine
 10
996.102824562
 20
2081.967905663
 30
0.0
 11
996.1028245704
 21
2082.5578860841
 31
0.0
  0
LINE
  5
D9
330
1F
100
AcDbEntity
  8
KONTUR
100
AcDbLine
 10
987.0556380779
 20
1341.267905663
 30
0.0
 11
987.0556380779
 21
1345.267905663
 31
0.0
  0
LINE
  5
DA
330
1F
100
AcDbEntity
  8
KONTUR
100
AcDbLine
 10
967.0556380779
 20
1345.267905663
 30
0.0
 11
967.0556380779
 21
1341.267905663
 31
0.0
  0
LINE
  5
DB
330
1F
100
AcDbEntity
  8
KONTUR
100
AcDbLine
 10
987.0556380779
 20
1350.267905663
 30
0.0
 11
987.0556380779
 21
1353.267905663
 31
0.0
  0
LINE
  5
DC
330
1F
100
AcDbEntity
  8
KONTUR
100
AcDbLine
 10
967.0556380779
 20
1353.267905663
 30
0.0
 11
967.0556380779
 21
1350.267905663
 31
0.0
  0
LINE
  5
DD
330
1F
100
AcDbEntity
  8
KONTUR
100
AcDbLine
 10
420.5556380779
 20
551.5426224966
 30
0.0
 11
420.5556380779
 21
553.867905663
 31
0.0
  0
LINE
  5
DE
330
1F
100
AcDbEntity
  8
KONTUR
100
AcDbLine
 10
408.5556380779
 20
553.867905663
 30
0.0
 11
408.5556380779
 21
551.5426224966
 31
0.0
  0
ARC
  5
DF
330
1F
100
AcDbEntity
  8
KONTUR
100
AcDbCircle
 10
420.0156380779
 20
551.5426224966
 30
0.0
 40
0.5400000000000205
100
AcDbArc
 50
305.251531542
 51
0.0
  0
ARC
  5
E0
330
1F
100
AcDbEntity
  8
KONTUR
100
AcDbCircle
 10
409.0956380779
 20
551.5426224966
 30
0.0
 40
0.5399999999999636
100
AcDbArc
 50
180.0
 51
234.748468458
  0
ARC
  5
E1
330
1F
100
AcDbEntity
  8
KONTUR
100
AcDbCircle
 10
414.5556380779
 20
559.267905663
 30
0.0
 40
9.999999999999947
100
AcDbArc
 50
278.7102810905
 51
305.251531542
  0
ARC
  5
E2
330
1F
100
AcDbEntity
  8
KONTUR
100
AcDbCircle
 10
414.5556380779
 20
559.267905663
 30
0.0
 40
9.999999999999915
100
AcDbArc
 50
234.748468458
 51
261.2897189095
  0
LINE
  5
E3
330
1F
100
AcDbEntity
  8
KONTUR
100
AcDbLine
 10
960.5556380779
 20
551.5426224966
 30
0.0
 11
960.5556380779
 21
553.867905663
 31
0.0
  0
LINE
  5
E4
330
1F
100
AcDbEntity
  8
KONTUR
100
AcDbLine
 10
948.5556380779
 20
553.867905663
 30
0.0
 11
948.5556380779
 21
551.5426224966
 31
0.0
  0
ARC
  5
E5
330
1F
100
AcDbEntity
  8
KONTUR
100
AcDbCircle
 10
960.0156380779
 20
551.5426224966
 30
0.0
 40
0.5399999999999636
100
AcDbArc
 50
305.251531542
 51
0.0
  0
ARC
  5
E6
330
1F
100
AcDbEntity
  8
KONTUR
100
AcDbCircle
 10
949.0956380779
 20
551.5426224966
 30
0.0
 40
0.5399999999999636
100
AcDbArc
 50
180.0
 51
234.748468458
  0
ARC
  5
E7
330
1F
100
AcDbEntity
  8
KONTUR
100
AcDbCircle
 10
954.5556380779
 20
559.267905663
 30
0.0
 40
10.00000000000003
100
AcDbArc
 50
288.0819426134
 51
305.251531542
  0
ARC
  5
E8
330
1F
100
AcDbEntity
  8
KONTUR
100
AcDbCircle
 10
954.5556380779
 20
559.267905663
 30
0.0
 40
9.99999999999996
100
AcDbArc
 50
234.748468458
 51
251.9180573866
  0
LINE
  5
E9
330
1F
100
AcDbEntity
  8
KONTUR
100
AcDbLine
 10
370.5556380779
 20
551.5426224966
 30
0.0
 11
370.5556380779
 21
553.867905663
 31
0.0
  0
LINE
  5
EA
330
1F
100
AcDbEntity
  8
KONTUR
100
AcDbLine
 10
358.5556380779
 20
553.867905663
 30
0.0
 11
358.5556380779
 21
551.5426224966
 31
0.0
  0
ARC
  5
EB
330
1F
100
AcDbEntity
  8
KONTUR
100
AcDbCircle
 10
370.0156380779
 20
551.5426224966
 30
0.0
 40
0.5399999999999636
100
AcDbArc
 50
305.251531542
 51
0.0
  0
ARC
  5
EC
330
1F
100
AcDbEntity
  8
KONTUR
100
AcDbCircle
 10
359.0956380779
 20
551.5426224966
 30
0.0
 40
0.5399999999999636
100
AcDbArc
 50
180.0
 51
234.748468458
  0
ARC
  5
ED
330
1F
100
AcDbEntity
  8
KONTUR
100
AcDbCircle
 10
364.5556380779
 20
559.267905663
 30
0.0
 40
9.999999999999995
100
AcDbArc
 50
288.0819426134
 51
305.251531542
  0
ARC
  5
EE
330
1F
100
AcDbEntity
  8
KONTUR
100
AcDbCircle
 10
364.5556380779
 20
559.267905663
 30
0.0
 40
9.999999999999995
100
AcDbArc
 50
234.748468458
 51
251.9180573866
  0
ARC
  5
EF
330
1F
100
AcDbEntity
  8
KONTUR
100
AcDbCircle
 10
910.0156380779
 20
551.5426224966
 30
0.0
 40
0.5399999999999636
100
AcDbArc
 50
305.251531542
 51
0.0
  0
ARC
  5
F0
330
1F
100
AcDbEntity
  8
KONTUR
100
AcDbCircle
 10
899.0956380779
 20
551.5426224966
 30
0.0
 40
0.5399999999999636
100
AcDbArc
 50
180.0
 51
234.748468458
  0
LINE
  5
F1
330
1F
100
AcDbEntity
  8
KONTUR
100
AcDbLine
 10
910.5556380779
 20
551.5426224966
 30
0.0
 11
910.5556380779
 21
553.867905663
 31
0.0
  0
LINE
  5
F2
330
1F
100
AcDbEntity
  8
KONTUR
100
AcDbLine
 10
898.5556380779
 20
553.867905663
 30
0.0
 11
898.5556380779
 21
551.5426224966
 31
0.0
  0
ARC
  5
F3
330
1F
100
AcDbEntity
  8
KONTUR
100
AcDbCircle
 10
904.5556380779
 20
559.267905663
 30
0.0
 40
9.99999999999996
100
AcDbArc
 50
288.0819426134
 51
305.251531542
  0
ARC
  5
F4
330
1F
100
AcDbEntity
  8
KONTUR
100
AcDbCircle
 10
904.5556380779
 20
559.267905663
 30
0.0
 40
10.00000000000003
100
AcDbArc
 50
234.748468458
 51
251.9180573866
  0
LINE
  5
F5
330
1F
100
AcDbEntity
  8
KONTUR
100
AcDbLine
 10
374.6056380779
 20
428.867905663
 30
0.0
 11
374.6056380779
 21
419.067905663
 31
0.0
  0
LINE
  5
F6
330
1F
100
AcDbEntity
  8
KONTUR
100
AcDbLine
 10
404.5056380779
 20
419.067905663
 30
0.0
 11
404.5056380779
 21
428.867905663
 31
0.0
  0
LINE
  5
F7
330
1F
100
AcDbEntity
  8
KONTUR
100
AcDbLine
 10
376.3056380779
 20
407.117905663
 30
0.0
 11
377.5556380779
 21
405.867905663
 31
0.0
  0
LINE
  5
F8
330
1F
100
AcDbEntity
  8
KONTUR
100
AcDbLine
 10
401.5556380779
 20
405.867905663
 30
0.0
 11
402.8056380779
 21
407.117905663
 31
0.0
  0
LINE
  5
F9
330
1F
100
AcDbEntity
  8
KONTUR
100
AcDbLine
 10
914.6056380779
 20
428.867905663
 30
0.0
 11
914.6056380779
 21
419.067905663
 31
0.0
  0
LINE
  5
FA
330
1F
100
AcDbEntity
  8
KONTUR
100
AcDbLine
 10
944.5056380779
 20
419.067905663
 30
0.0
 11
944.5056380779
 21
428.867905663
 31
0.0
  0
LINE
  5
FB
330
1F
100
AcDbEntity
  8
KONTUR
100
AcDbLine
 10
916.3056380779
 20
407.117905663
 30
0.0
 11
917.5556380779
 21
405.867905663
 31
0.0
  0
LINE
  5
FC
330
1F
100
AcDbEntity
  8
KONTUR
100
AcDbLine
 10
941.5556380779
 20
405.867905663
 30
0.0
 11
942.8056380779
 21
407.117905663
 31
0.0
  0
LINE
  5
FD
330
1F
100
AcDbEntity
  8
KONTUR
100
AcDbLine
 10
959.1056380779
 20
555.867905663
 30
0.0
 11
959.1056380779
 21
556.167905663
 31
0.0
  0
LINE
  5
FE
330
1F
100
AcDbEntity
  8
KONTUR
100
AcDbLine
 10
950.0056380779
 20
556.167905663
 30
0.0
 11
950.0056380779
 21
555.867905663
 31
0.0
  0
LINE
  5
FF
330
1F
100
AcDbEntity
  8
KONTUR
100
AcDbLine
 10
909.1056380779
 20
555.867905663
 30
0.0
 11
909.1056380779
 21
556.167905663
 31
0.0
  0
LINE
  5
100
330
1F
100
AcDbEntity
  8
KONTUR
100
AcDbLine
 10
900.0056380779
 20
556.167905663
 30
0.0
 11
900.0056380779
 21
555.867905663
 31
0.0
  0
LINE
  5
101
330
1F
100
AcDbEntity
  8
KONTUR
100
AcDbLine
 10
369.1056380779
 20
555.867905663
 30
0.0
 11
369.1056380779
 21
556.167905663
 31
0.0
  0
LINE
  5
102
330
1F
100
AcDbEntity
  8
KONTUR
100
AcDbLine
 10
360.0056380779
 20
556.167905663
 30
0.0
 11
360.0056380779
 21
555.867905663
 31
0.0
  0
LINE
  5
103
330
1F
100
AcDbEntity
  8
KONTUR
100
AcDbLine
 10
419.1056380779
 20
555.867905663
 30
0.0
 11
419.1056380779
 21
556.167905663
 31
0.0
  0
LINE
  5
104
330
1F
100
AcDbEntity
  8
KONTUR
100
AcDbLine
 10
410.0056380779
 20
556.167905663
 30
0.0
 11
410.0056380779
 21
555.867905663
 31
0.0
  0
ARC
  5
105
330
1F
100
AcDbEntity
  8
KONTUR
100
AcDbCircle
 10
316.0556380779
 20
1367.767905663
 30
0.0
 40
6.850000000000028
100
AcDbArc
 50
24.1596241267
 51
112.5226735859
  0
ARC
  5
106
330
1F
100
AcDbEntity
  8
KONTUR
100
AcDbCircle
 10
316.0556380779
 20
1367.767905663
 30
0.0
 40
6.850000000000028
100
AcDbArc
 50
112.5226735859
 51
335.8403758733
  0
CIRCLE
  5
107
330
1F
100
AcDbEntity
  8
KONTUR
100
AcDbCircle
 10
403.5556380779
 20
572.467905663
 30
0.0
 40
6.849999999999952
  0
ARC
  5
108
330
1F
100
AcDbEntity
  8
KONTUR
100
AcDbCircle
 10
316.0556380779
 20
1327.767905663
 30
0.0
 40
6.849999999999974
100
AcDbArc
 50
24.1596241267
 51
112.5226735859
  0
ARC
  5
109
330
1F
100
AcDbEntity
  8
KONTUR
100
AcDbCircle
 10
316.0556380779
 20
1327.767905663
 30
0.0
 40
6.850000000000055
100
AcDbArc
 50
112.5226735859
 51
335.8403758733
  0
CIRCLE
  5
10A
330
1F
100
AcDbEntity
  8
KONTUR
100
AcDbCircle
 10
333.5556380779
 20
572.467905663
 30
0.0
 40
6.849999999999869
  0
CIRCLE
  5
10B
330
1F
100
AcDbEntity
  8
KONTUR
100
AcDbCircle
 10
368.5556380779
 20
584.467905663
 30
0.0
 40
6.850000000000079
  0
LINE
  5
10C
330
1F
100
AcDbEntity
  8
KONTUR
100
AcDbLine
 10
996.3056380779
 20
2457.667905663
 30
0.0
 11
988.8056380779
 21
2457.667905663
 31
0.0
  0
LINE
  5
10D
330
1F
100
AcDbEntity
  8
KONTUR
100
AcDbLine
 10
994.8056380779
 20
2458.467905663
 30
0.0
 11
990.3056380779
 21
2458.467905663
 31
0.0
  0
LINE
  5
10E
330
1F
100
AcDbEntity
  8
KONTUR
100
AcDbLine
 10
330.3056380779
 20
2457.667905663
 30
0.0
 11
322.8056380779
 21
2457.667905663
 31
0.0
  0
LINE
  5
10F
330
1F
100
AcDbEntity
  8
KONTUR
100
AcDbLine
 10
328.8056380779
 20
2458.467905663
 30
0.0
 11
324.3056380779
 21
2458.467905663
 31
0.0
  0
LINE
  5
110
330
1F
100
AcDbEntity
  8
KONTUR
100
AcDbLine
 10
360.3056380779
 20
2457.667905663
 30
0.0
 11
352.8056380779
 21
2457.667905663
 31
0.0
  0
LINE
  5
111
330
1F
100
AcDbEntity
  8
KONTUR
100
AcDbLine
 10
358.8056380779
 20
2458.467905663
 30
0.0
 11
354.3056380779
 21
2458.467905663
 31
0.0
  0
LINE
  5
112
330
1F
100
AcDbEntity
  8
KONTUR
100
AcDbLine
 10
964.8056380779
 20
2458.467905663
 30
0.0
 11
960.3056380779
 21
2458.467905663
 31
0.0
  0
LINE
  5
113
330
1F
100
AcDbEntity
  8
KONTUR
100
AcDbLine
 10
966.3056380779
 20
2457.667905663
 30
0.0
 11
958.8056380779
 21
2457.667905663
 31
0.0
  0
LINE
  5
114
330
1F
100
AcDbEntity
  8
KONTUR
100
AcDbLine
 10
361.5556380779
 20
2456.967905663
 30
0.0
 11
361.5556380779
 21
2455.767905663
 31
0.0
  0
LINE
  5
115
330
1F
100
AcDbEntity
  8
KONTUR
100
AcDbLine
 10
356.5556380779
 20
2456.967905663
 30
0.0
 11
361.5556380779
 21
2456.967905663
 31
0.0
  0
LINE
  5
116
330
1F
100
AcDbEntity
  8
KONTUR
100
AcDbLine
 10
356.5556380779
 20
2456.967905663
 30
0.0
 11
326.5556380779
 21
2456.967905663
 31
0.0
  0
LINE
  5
117
330
1F
100
AcDbEntity
  8
KONTUR
100
AcDbLine
 10
321.5556380779
 20
2455.767905663
 30
0.0
 11
321.5556380779
 21
2456.967905663
 31
0.0
  0
LINE
  5
118
330
1F
100
AcDbEntity
  8
KONTUR
100
AcDbLine
 10
321.5556380779
 20
2456.967905663
 30
0.0
 11
326.5556380779
 21
2456.967905663
 31
0.0
  0
LINE
  5
119
330
1F
100
AcDbEntity
  8
KONTUR
100
AcDbLine
 10
352.5556380779
 20
2458.517905663
 30
0.0
 11
352.5556380779
 21
2456.967905663
 31
0.0
  0
LINE
  5
11A
330
1F
100
AcDbEntity
  8
KONTUR
100
AcDbLine
 10
361.5556380779
 20
2458.517905663
 30
0.0
 11
361.5556380779
 21
2456.967905663
 31
0.0
  0
LINE
  5
11B
330
1F
100
AcDbEntity
  8
KONTUR
100
AcDbLine
 10
352.5556380779
 20
2461.267905663
 30
0.0
 11
352.5556380779
 21
2458.517905663
 31
0.0
  0
LINE
  5
11C
330
1F
100
AcDbEntity
  8
KONTUR
100
AcDbLine
 10
361.5556380779
 20
2461.267905663
 30
0.0
 11
361.5556380779
 21
2458.517905663
 31
0.0
  0
LINE
  5
11D
330
1F
100
AcDbEntity
  8
KONTUR
100
AcDbLine
 10
330.5556380779
 20
2458.517905663
 30
0.0
 11
330.5556380779
 21
2456.967905663
 31
0.0
  0
LINE
  5
11E
330
1F
100
AcDbEntity
  8
KONTUR
100
AcDbLine
 10
321.5556380779
 20
2458.517905663
 30
0.0
 11
321.5556380779
 21
2456.967905663
 31
0.0
  0
LINE
  5
11F
330
1F
100
AcDbEntity
  8
KONTUR
100
AcDbLine
 10
330.5556380779
 20
2461.267905663
 30
0.0
 11
330.5556380779
 21
2458.517905663
 31
0.0
  0
LINE
  5
120
330
1F
100
AcDbEntity
  8
KONTUR
100
AcDbLine
 10
321.5556380779
 20
2461.267905663
 30
0.0
 11
321.5556380779
 21
2458.517905663
 31
0.0
  0
LINE
  5
121
330
1F
100
AcDbEntity
  8
KONTUR
100
AcDbLine
 10
992.5556380779
 20
2456.967905663
 30
0.0
 11
962.5556380779
 21
2456.967905663
 31
0.0
  0
LINE
  5
122
330
1F
100
AcDbEntity
  8
KONTUR
100
AcDbLine
 10
957.5556380779
 20
2455.767905663
 30
0.0
 11
957.5556380779
 21
2456.967905663
 31
0.0
  0
LINE
  5
123
330
1F
100
AcDbEntity
  8
KONTUR
100
AcDbLine
 10
957.5556380779
 20
2456.967905663
 30
0.0
 11
962.5556380779
 21
2456.967905663
 31
0.0
  0
LINE
  5
124
330
1F
100
AcDbEntity
  8
KONTUR
100
AcDbLine
 10
997.5556380779
 20
2456.967905663
 30
0.0
 11
997.5556380779
 21
2455.767905663
 31
0.0
  0
LINE
  5
125
330
1F
100
AcDbEntity
  8
KONTUR
100
AcDbLine
 10
992.5556380779
 20
2456.967905663
 30
0.0
 11
997.5556380779
 21
2456.967905663
 31
0.0
  0
LINE
  5
126
330
1F
100
AcDbEntity
  8
KONTUR
100
AcDbLine
 10
988.5556380779
 20
2461.267905663
 30
0.0
 11
988.5556380779
 21
2458.517905663
 31
0.0
  0
LINE
  5
127
330
1F
100
AcDbEntity
  8
KONTUR
100
AcDbLine
 10
997.5556380779
 20
2461.267905663
 30
0.0
 11
997.5556380779
 21
2458.517905663
 31
0.0
  0
LINE
  5
128
330
1F
100
AcDbEntity
  8
KONTUR
100
AcDbLine
 10
988.5556380779
 20
2458.517905663
 30
0.0
 11
988.5556380779
 21
2456.967905663
 31
0.0
  0
LINE
  5
129
330
1F
100
AcDbEntity
  8
KONTUR
100
AcDbLine
 10
997.5556380779
 20
2458.517905663
 30
0.0
 11
997.5556380779
 21
2456.967905663
 31
0.0
  0
LINE
  5
12A
330
1F
100
AcDbEntity
  8
KONTUR
100
AcDbLine
 10
966.5556380779
 20
2461.267905663
 30
0.0
 11
966.5556380779
 21
2458.517905663
 31
0.0
  0
LINE
  5
12B
330
1F
100
AcDbEntity
  8
KONTUR
100
AcDbLine
 10
957.5556380779
 20
2461.267905663
 30
0.0
 11
957.5556380779
 21
2458.517905663
 31
0.0
  0
LINE
  5
12C
330
1F
100
AcDbEntity
  8
KONTUR
100
AcDbLine
 10
966.5556380779
 20
2458.517905663
 30
0.0
 11
966.5556380779
 21
2456.967905663
 31
0.0
  0
LINE
  5
12D
330
1F
100
AcDbEntity
  8
KONTUR
100
AcDbLine
 10
957.5556380779
 20
2458.517905663
 30
0.0
 11
957.5556380779
 21
2456.967905663
 31
0.0
  0
LINE
  5
12E
330
1F
100
AcDbEntity
  8
KONTUR
100
AcDbLine
 10
986.5556380779
 20
2461.267905663
 30
0.0
 11
986.5556380779
 21
2456.967905663
 31
0.0
  0
LINE
  5
12F
330
1F
100
AcDbEntity
  8
KONTUR
100
AcDbLine
 10
968.5556380779
 20
2461.267905663
 30
0.0
 11
968.5556380779
 21
2456.967905663
 31
0.0
  0
LINE
  5
130
330
1F
100
AcDbEntity
  8
KONTUR
100
AcDbLine
 10
350.5556380779
 20
2461.267905663
 30
0.0
 11
350.5556380779
 21
2456.967905663
 31
0.0
  0
LINE
  5
131
330
1F
100
AcDbEntity
  8
KONTUR
100
AcDbLine
 10
332.5556380779
 20
2461.267905663
 30
0.0
 11
332.5556380779
 21
2456.967905663
 31
0.0
  0
LINE
  5
132
330
1F
100
AcDbEntity
  8
KONTUR
100
AcDbLine
 10
968.5556380779
 20
2458.517905663
 30
0.0
 11
968.5556380779
 21
2461.267905663
 31
0.0
  0
LINE
  5
133
330
1F
100
AcDbEntity
  8
KONTUR
100
AcDbLine
 10
968.5556380779
 20
2456.967905663
 30
0.0
 11
968.5556380779
 21
2458.517905663
 31
0.0
  0
LINE
  5
134
330
1F
100
AcDbEntity
  8
KONTUR
100
AcDbLine
 10
332.5556380779
 20
2458.517905663
 30
0.0
 11
332.5556380779
 21
2461.267905663
 31
0.0
  0
LINE
  5
135
330
1F
100
AcDbEntity
  8
KONTUR
100
AcDbLine
 10
332.5556380779
 20
2456.967905663
 30
0.0
 11
332.5556380779
 21
2458.517905663
 31
0.0
  0
LINE
  5
136
330
1F
100
AcDbEntity
  8
KONTUR
100
AcDbLine
 10
362.7556380779
 20
2460.317905663
 30
0.0
 11
362.7556380779
 21
2456.717905663
 31
0.0
  0
LINE
  5
137
330
1F
100
AcDbEntity
  8
KONTUR
100
AcDbLine
 10
998.7556380779
 20
2460.317905663
 30
0.0
 11
998.7556380779
 21
2456.717905663
 31
0.0
  0
LINE
  5
138
330
1F
100
AcDbEntity
  8
KONTUR
100
AcDbLine
 10
320.3556380779
 20
2458.517905663
 30
0.0
 11
320.3556380779
 21
2460.317905663
 31
0.0
  0
LINE
  5
139
330
1F
100
AcDbEntity
  8
KONTUR
100
AcDbLine
 10
320.3556380779
 20
2456.717905663
 30
0.0
 11
320.3556380779
 21
2458.517905663
 31
0.0
  0
LINE
  5
13A
330
1F
100
AcDbEntity
  8
KONTUR
100
AcDbLine
 10
956.3556380779
 20
2458.517905663
 30
0.0
 11
956.3556380779
 21
2460.317905663
 31
0.0
  0
LINE
  5
13B
330
1F
100
AcDbEntity
  8
KONTUR
100
AcDbLine
 10
956.3556380779
 20
2456.717905663
 30
0.0
 11
956.3556380779
 21
2458.517905663
 31
0.0
  0
ARC
  5
13C
330
1F
100
AcDbEntity
  8
KONTUR
100
AcDbCircle
 10
395.5254903121
 20
2207.2237049893
 30
0.0
 40
1.175640000000017
100
AcDbArc
 50
357.4062741582
 51
61.9360458059
  0
ARC
  5
13D
330
1F
100
AcDbEntity
  8
KONTUR
100
AcDbCircle
 10
395.4207550511
 20
2207.2284494971
 30
0.0
 40
1.280482669001936
100
AcDbArc
 50
275.2978901475
 51
357.4062741582
  0
ARC
  5
13E
330
1F
100
AcDbEntity
  8
KONTUR
100
AcDbCircle
 10
391.4867008275
 20
2128.5024850769
 30
0.0
 40
77.55688857503797
100
AcDbArc
 50
87.0049769654
 51
91.6446358724
  0
ARC
  5
13F
330
1F
100
AcDbEntity
  8
KONTUR
100
AcDbCircle
 10
386.622830583
 20
2226.2207304053
 30
0.0
 40
20.36488195621476
100
AcDbArc
 50
261.5741513951
 51
277.442705303
  0
ARC
  5
140
330
1F
100
AcDbEntity
  8
KONTUR
100
AcDbCircle
 10
383.2942468815
 20
2203.7497592522
 30
0.0
 40
2.351279999999862
100
AcDbArc
 50
81.5741513951
 51
89.7357576068
  0
ARC
  5
141
330
1F
100
AcDbEntity
  8
KONTUR
100
AcDbCircle
 10
383.023531243
 20
2145.0507996729
 30
0.0
 40
61.05086383712733
100
AcDbArc
 50
89.7357576067
 51
94.5067137319
  0
ARC
  5
142
330
1F
100
AcDbEntity
  8
KONTUR
100
AcDbCircle
 10
377.9257629501
 20
2208.322000318
 30
0.0
 40
2.427784574073914
100
AcDbArc
 50
228.8448822436
 51
277.113397041
  0
ARC
  5
143
330
1F
100
AcDbEntity
  8
KONTUR
100
AcDbCircle
 10
377.1898570861
 20
2207.2442370896
 30
0.0
 40
1.142592241567873
100
AcDbArc
 50
118.0309935636
 51
221.0386980827
  0
LINE
  5
144
330
1F
100
AcDbEntity
  8
KONTUR
100
AcDbLine
 10
377.8402494508
 20
2208.884946515
 30
0.0
 11
376.6528968728
 21
2208.2527958434
 31
0.0
  0
ARC
  5
145
330
1F
100
AcDbEntity
  8
KONTUR
100
AcDbCircle
 10
377.4861175499
 20
2209.9752318245
 30
0.0
 40
1.146355729818134
100
AcDbArc
 50
287.9941403838
 51
350.1490028929
  0
ARC
  5
146
330
1F
100
AcDbEntity
  8
KONTUR
100
AcDbCircle
 10
7759.9759223888
 20
2459.3055334575
 30
0.0
 40
7385.576759394216
100
AcDbArc
 50
181.851643436
 51
181.9361429635
  0
ARC
  5
147
330
1F
100
AcDbEntity
  8
KONTUR
100
AcDbCircle
 10
377.37432894
 20
2220.6368762109
 30
0.0
 40
0.8817300000004633
100
AcDbArc
 50
1.8516434401
 51
154.7622916021
  0
LINE
  5
148
330
1F
100
AcDbEntity
  8
KONTUR
100
AcDbLine
 10
370.1383977679
 20
2207.3539416875
 30
0.0
 11
376.5767630347
 21
2221.0128235736
 31
0.0
  0
LINE
  5
149
330
1F
100
AcDbEntity
  8
KONTUR
100
AcDbLine
 10
360.8796372873
 20
2219.6872092472
 30
0.0
 11
366.9609613398
 21
2207.3273100682
 31
0.0
  0
ARC
  5
14A
330
1F
100
AcDbEntity
  8
KONTUR
100
AcDbCircle
 10
324.0514493461
 20
2225.8805475581
 30
0.0
 40
31.57031071420777
100
AcDbArc
 50
354.5909739031
 51
8.4018480694
  0
LINE
  5
14B
330
1F
100
AcDbEntity
  8
KONTUR
100
AcDbLine
 10
359.2067549786
 20
2210.7094804053
 30
0.0
 11
359.2067549786
 21
2219.2979460749
 31
0.0
  0
ARC
  5
14C
330
1F
100
AcDbEntity
  8
KONTUR
100
AcDbCircle
 10
361.2862537393
 20
2210.8294103998
 30
0.0
 40
2.08295422402582
100
AcDbArc
 50
183.3007373472
 51
249.3282843967
  0
ARC
  5
14D
330
1F
100
AcDbEntity
  8
KONTUR
100
AcDbCircle
 10
359.6621841784
 20
2203.9585795008
 30
0.0
 40
5.00157839514437
100
AcDbArc
 50
58.3787992707
 51
79.764423031
  0
ARC
  5
14E
330
1F
100
AcDbEntity
  8
KONTUR
100
AcDbCircle
 10
361.4115238407
 20
2207.1436604308
 30
0.0
 40
1.383993619655151
100
AcDbArc
 50
260.0618212427
 51
50.8924383705
  0
ARC
  5
14F
330
1F
100
AcDbEntity
  8
KONTUR
100
AcDbCircle
 10
357.1754805984
 20
2175.6982055141
 30
0.0
 40
30.3466305039443
100
AcDbArc
 50
82.4311415404
 51
96.2243525973
  0
ARC
  5
150
330
1F
100
AcDbEntity
  8
KONTUR
100
AcDbCircle
 10
353.5534180213
 20
2208.6719936366
 30
0.0
 40
2.825603299790156
100
AcDbArc
 50
240.3929850387
 51
276.7440662298
  0
ARC
  5
151
330
1F
100
AcDbEntity
  8
KONTUR
100
AcDbCircle
 10
352.9674219303
 20
2207.2471576502
 30
0.0
 40
1.311783852410611
100
AcDbArc
 50
130.3421427387
 51
231.8683132366
  0
ARC
  5
152
330
1F
100
AcDbEntity
  8
KONTUR
100
AcDbCircle
 10
353.5402251099
 20
2206.5956676127
 30
0.0
 40
2.179199621388716
100
AcDbArc
 50
99.5437147471
 51
130.7324201541
  0
ARC
  5
153
330
1F
100
AcDbEntity
  8
KONTUR
100
AcDbCircle
 10
352.6651009627
 20
2210.9807765945
 30
0.0
 40
2.294344394479963
100
AcDbArc
 50
282.9409957985
 51
350.5784666576
  0
ARC
  5
154
330
1F
100
AcDbEntity
  8
KONTUR
100
AcDbCircle
 10
398.3056330217
 20
2216.5175339049
 30
0.0
 40
8.55150261740956
100
AcDbArc
 50
241.0196812229
 51
254.9045117306
  0
LINE
  5
155
330
1F
100
AcDbEntity
  8
KONTUR
100
AcDbLine
 10
355.4811814725
 20
2222.9045675427
 30
0.0
 11
354.9284962791
 21
2210.6051999153
 31
0.0
  0
ARC
  5
156
330
1F
100
AcDbEntity
  8
KONTUR
100
AcDbCircle
 10
368.5432659572
 20
2208.1058364129
 30
0.0
 40
1.763460000000214
100
AcDbArc
 50
206.1981327449
 51
334.7622916022
  0
ARC
  5
157
330
1F
100
AcDbEntity
  8
KONTUR
100
AcDbCircle
 10
360.0884849786
 20
2219.2979460749
 30
0.0
 40
0.8817300000002549
100
AcDbArc
 50
26.1981327449
 51
180.0
  0
LINE
  5
158
330
1F
100
AcDbEntity
  8
KONTUR
100
AcDbLine
 10
400.6964973875
 20
2226.4488338307
 30
0.0
 11
398.8375438288
 21
2222.2480415264
 31
0.0
  0
ARC
  5
159
330
1F
100
AcDbEntity
  8
KONTUR
100
AcDbCircle
 10
401.5565598484
 20
2226.0682351111
 30
0.0
 40
0.9405120000001486
100
AcDbArc
 50
21.9194778838
 51
156.129435546
  0
LINE
  5
15A
330
1F
100
AcDbEntity
  8
KONTUR
100
AcDbLine
 10
404.2493817435
 20
2221.8956368984
 30
0.0
 11
402.4290816734
 21
2226.4193312333
 31
0.0
  0
ARC
  5
15B
330
1F
100
AcDbEntity
  8
KONTUR
100
AcDbCircle
 10
403.5949903748
 20
2221.6323148067
 30
0.0
 40
0.7053840000007767
100
AcDbArc
 50
270.0
 51
21.9194778838
  0
LINE
  5
15C
330
1F
100
AcDbEntity
  8
KONTUR
100
AcDbLine
 10
399.6976062898
 20
2220.9269308067
 30
0.0
 11
403.5949903748
 21
2220.9269308067
 31
0.0
  0
ARC
  5
15D
330
1F
100
AcDbEntity
  8
KONTUR
100
AcDbCircle
 10
399.6976062898
 20
2221.8674428067
 30
0.0
 40
0.9405120000005809
100
AcDbArc
 50
156.129435546
 51
270.0
  0
ARC
  5
15E
330
1F
100
AcDbEntity
  8
KONTUR
100
AcDbCircle
 10
352.0190185916
 20
2230.2478975776
 30
0.0
 40
3.273140000138881
100
AcDbArc
 50
4.3022484073
 51
64.8419899519
  0
ARC
  5
15F
330
1F
100
AcDbEntity
  8
KONTUR
100
AcDbCircle
 10
354.0807245626
 20
2238.0006918042
 30
0.0
 40
4.836811161452636
100
AcDbArc
 50
225.6983780891
 51
262.0348375317
  0
ARC
  5
160
330
1F
100
AcDbEntity
  8
KONTUR
100
AcDbCircle
 10
352.0011387594
 20
2235.1691726896
 30
0.0
 40
1.443388858432431
100
AcDbArc
 50
85.1670169906
 51
205.8815131139
  0
ARC
  5
161
330
1F
100
AcDbEntity
  8
KONTUR
100
AcDbCircle
 10
355.2543623985
 20
2309.3400781176
 30
0.0
 40
72.80003555774617
100
AcDbArc
 50
267.534564901
 51
271.8147387325
  0
ARC
  5
162
330
1F
100
AcDbEntity
  8
KONTUR
100
AcDbCircle
 10
357.5597844979
 20
2234.8130956208
 30
0.0
 40
1.763460000000302
100
AcDbArc
 50
26.1981327449
 51
90.0
  0
LINE
  5
163
330
1F
100
AcDbEntity
  8
KONTUR
100
AcDbLine
 10
368.5435741392
 20
2216.4837096057
 30
0.0
 11
359.1420891154
 21
2235.5916219654
 31
0.0
  0
ARC
  5
164
330
1F
100
AcDbEntity
  8
KONTUR
100
AcDbCircle
 10
369.3347264479
 20
2216.8729727781
 30
0.0
 40
0.8817300000004472
100
AcDbArc
 50
206.1981327449
 51
334.7622916022
  0
LINE
  5
165
330
1F
100
AcDbEntity
  8
KONTUR
100
AcDbLine
 10
379.2792683944
 20
2235.9021787711
 30
0.0
 11
370.1322923532
 21
2216.4970254153
 31
0.0
  0
ARC
  5
166
330
1F
100
AcDbEntity
  8
KONTUR
100
AcDbCircle
 10
380.3426896015
 20
2235.4009156208
 30
0.0
 40
1.175640000000092
100
AcDbArc
 50
90.0
 51
154.7622916022
  0
ARC
  5
167
330
1F
100
AcDbEntity
  8
KONTUR
100
AcDbCircle
 10
382.8532028793
 20
2301.8555161929
 30
0.0
 40
65.32721768369503
100
AcDbArc
 50
267.7975911209
 51
272.2024088638
  0
ARC
  5
168
330
1F
100
AcDbEntity
  8
KONTUR
100
AcDbCircle
 10
385.3637161394
 20
2235.4009156198
 30
0.0
 40
1.17564000033537
100
AcDbArc
 50
5.9866169283
 51
89.9999999874
  0
ARC
  5
169
330
1F
100
AcDbEntity
  8
KONTUR
100
AcDbCircle
 10
384.9444026856
 20
2235.3569430229
 30
0.0
 40
1.597252810657197
100
AcDbArc
 50
357.9864296152
 51
5.9866168971
  0
ARC
  5
16A
330
1F
100
AcDbEntity
  8
KONTUR
100
AcDbCircle
 10
384.7736130455
 20
2235.3767649707
 30
0.0
 40
1.768687367875147
100
AcDbArc
 50
337.9290136288
 51
357.5390953044
  0
ARC
  5
16B
330
1F
100
AcDbEntity
  8
KONTUR
100
AcDbCircle
 10
385.3232013245
 20
2235.1539244355
 30
0.0
 40
1.17564000000028
100
AcDbArc
 50
285.510955852
 51
337.9290136288
  0
LINE
  5
16C
330
1F
100
AcDbEntity
  8
KONTUR
100
AcDbLine
 10
384.574658732
 20
2233.7261050749
 30
0.0
 11
385.6375940681
 21
2234.0211020256
 31
0.0
  0
ARC
  5
16D
330
1F
100
AcDbEntity
  8
KONTUR
100
AcDbCircle
 10
385.0769426126
 20
2232.0356903107
 30
0.0
 40
1.763460000000223
100
AcDbArc
 50
106.5486047358
 51
182.4049605028
  0
LINE
  5
16E
330
1F
100
AcDbEntity
  8
KONTUR
100
AcDbLine
 10
384.2337743036
 20
2210.0865230493
 30
0.0
 11
383.3150358666
 21
2231.9616917294
 31
0.0
  0
ARC
  5
16F
330
1F
100
AcDbEntity
  8
KONTUR
100
AcDbCircle
 10
385.4083788009
 20
2210.1358554368
 30
0.0
 40
1.175639999923893
100
AcDbArc
 50
182.4049605008
 51
243.3238892658
  0
ARC
  5
170
330
1F
100
AcDbEntity
  8
KONTUR
100
AcDbCircle
 10
383.2009196355
 20
2198.3151681168
 30
0.0
 40
10.90037250630014
100
AcDbArc
 50
72.5024465264
 51
81.1358634344
  0
ARC
  5
171
330
1F
100
AcDbEntity
  8
KONTUR
100
AcDbCircle
 10
386.4911839576
 20
2206.359933502
 30
0.0
 40
2.351280000000123
100
AcDbArc
 50
84.5058246764
 51
90.3144206902
  0
ARC
  5
172
330
1F
100
AcDbEntity
  8
KONTUR
100
AcDbCircle
 10
386.9902768313
 20
2211.5487401357
 30
0.0
 40
2.861474356230536
100
AcDbArc
 50
264.5058246764
 51
332.1082986081
  0
ARC
  5
173
330
1F
100
AcDbEntity
  8
KONTUR
100
AcDbCircle
 10
950.6141117599
 20
1974.3085057441
 30
0.0
 40
608.6681516270212
100
AcDbArc
 50
154.462652373
 51
157.1966061944
  0
ARC
  5
174
330
1F
100
AcDbEntity
  8
KONTUR
100
AcDbCircle
 10
402.6464583976
 20
2236.1578369683
 30
0.0
 40
1.351986000000098
100
AcDbArc
 50
21.9194778838
 51
156.129435546
  0
ARC
  5
175
330
1F
100
AcDbEntity
  8
KONTUR
100
AcDbCircle
 10
-493.0951416835
 20
1860.5897569741
 30
0.0
 40
972.6419133704729
100
AcDbArc
 50
21.0926930908
 51
22.7462626769
  0
ARC
  5
176
330
1F
100
AcDbEntity
  8
KONTUR
100
AcDbCircle
 10
416.560520939
 20
2211.4997545199
 30
0.0
 40
2.351280000000003
100
AcDbArc
 50
201.9194778838
 51
245.1842715033
  0
ARC
  5
177
330
1F
100
AcDbEntity
  8
KONTUR
100
AcDbCircle
 10
416.0671033446
 20
2210.4326704149
 30
0.0
 40
1.175640000000013
100
AcDbArc
 50
245.1842715033
 51
260.5575669218
  0
ARC
  5
178
330
1F
100
AcDbEntity
  8
KONTUR
100
AcDbCircle
 10
414.7078516946
 20
2202.2596660668
 30
0.0
 40
7.109621922347777
100
AcDbArc
 50
58.1270072449
 51
80.5575669219
  0
ARC
  5
179
330
1F
100
AcDbEntity
  8
KONTUR
100
AcDbCircle
 10
417.7553032197
 20
2207.3967398524
 30
0.0
 40
1.144744667754707
100
AcDbArc
 50
307.0573497426
 51
51.8776593373
  0
ARC
  5
17A
330
1F
100
AcDbEntity
  8
KONTUR
100
AcDbCircle
 10
416.9747901925
 20
2208.3071651549
 30
0.0
 40
2.342818578459424
100
AcDbArc
 50
269.5630130461
 51
308.8732564025
  0
ARC
  5
17B
330
1F
100
AcDbEntity
  8
KONTUR
100
AcDbCircle
 10
412.9864811756
 20
2168.1991253842
 30
0.0
 40
37.97343122172688
100
AcDbArc
 50
83.9982758665
 51
97.1448198183
  0
ARC
  5
17C
330
1F
100
AcDbEntity
  8
KONTUR
100
AcDbCircle
 10
408.196915468
 20
2207.410323649
 30
0.0
 40
1.534075559127042
100
AcDbArc
 50
187.0760591345
 51
272.4851386068
  0
ARC
  5
17D
330
1F
100
AcDbEntity
  8
KONTUR
100
AcDbCircle
 10
407.8412099334
 20
2207.3661691117
 30
0.0
 40
1.175639999354913
100
AcDbArc
 50
109.4323485955
 51
187.0760591629
  0
LINE
  5
17E
330
1F
100
AcDbEntity
  8
KONTUR
100
AcDbLine
 10
408.6158154695
 20
2208.8860982286
 30
0.0
 11
407.450082015
 21
2208.4748387467
 31
0.0
  0
ARC
  5
17F
330
1F
100
AcDbEntity
  8
KONTUR
100
AcDbCircle
 10
408.5180334898
 20
2209.1632656375
 30
0.0
 40
0.2939099999998216
100
AcDbArc
 50
289.4323486064
 51
10.6451827679
  0
LINE
  5
180
330
1F
100
AcDbEntity
  8
KONTUR
100
AcDbLine
 10
408.6515274171
 20
2210.0441006676
 30
0.0
 11
408.8068852933
 21
2209.2175585809
 31
0.0
  0
ARC
  5
181
330
1F
100
AcDbEntity
  8
KONTUR
100
AcDbCircle
 10
391.3204192059
 20
2206.7865240635
 30
0.0
 40
17.63460000003687
100
AcDbArc
 50
10.6451827679
 51
21.9194778838
  0
LINE
  5
182
330
1F
100
AcDbEntity
  8
KONTUR
100
AcDbLine
 10
406.4888301188
 20
2216.3303017671
 30
0.0
 11
407.6802034246
 21
2213.3695763555
 31
0.0
  0
ARC
  5
183
330
1F
100
AcDbEntity
  8
KONTUR
100
AcDbCircle
 10
405.6163082938
 20
2215.9792056448
 30
0.0
 40
0.9405120000001486
100
AcDbArc
 50
21.9194778838
 51
90.0
  0
LINE
  5
184
330
1F
100
AcDbEntity
  8
KONTUR
100
AcDbLine
 10
397.0919170211
 20
2216.9197176448
 30
0.0
 11
405.6163082938
 21
2216.9197176448
 31
0.0
  0
ARC
  5
185
330
1F
100
AcDbEntity
  8
KONTUR
100
AcDbCircle
 10
397.0919170211
 20
2215.9792056448
 30
0.0
 40
0.940512000000287
100
AcDbArc
 50
90.0
 51
156.1294355459
  0
LINE
  5
186
330
1F
100
AcDbEntity
  8
KONTUR
100
AcDbLine
 10
393.6568819599
 20
2210.5409795571
 30
0.0
 11
396.2318545601
 21
2216.3598043645
 31
0.0
  0
ARC
  5
187
330
1F
100
AcDbEntity
  8
KONTUR
100
AcDbCircle
 10
394.7319600361
 20
2210.0652311576
 30
0.0
 40
1.175640000039422
100
AcDbArc
 50
156.1294355467
 51
241.019681221
  0
LINE
  5
188
330
1F
100
AcDbEntity
  8
KONTUR
100
AcDbLine
 10
451.589086632
 20
2222.9531502295
 30
0.0
 11
451.589086632
 21
2211.1311574657
 31
0.0
  0
ARC
  5
189
330
1F
100
AcDbEntity
  8
KONTUR
100
AcDbCircle
 10
580.2062192048
 20
2225.9340654032
 30
0.0
 40
128.6516717594919
100
AcDbArc
 50
179.0603859415
 51
181.3276869412
  0
ARC
  5
18A
330
1F
100
AcDbEntity
  8
KONTUR
100
AcDbCircle
 10
443.0404734372
 20
2228.1977969037
 30
0.0
 40
8.532763541365686
100
AcDbArc
 50
358.9657232369
 51
24.6935217705
  0
ARC
  5
18B
330
1F
100
AcDbEntity
  8
KONTUR
100
AcDbCircle
 10
447.3258773471
 20
2229.6414990422
 30
0.0
 40
4.064387000836989
100
AcDbArc
 50
31.4561289652
 51
75.7919426131
  0
ARC
  5
18C
330
1F
100
AcDbEntity
  8
KONTUR
100
AcDbCircle
 10
448.392347603
 20
2235.8245374156
 30
0.0
 40
2.244035287367414
100
AcDbArc
 50
222.3171932659
 51
268.240739836
  0
ARC
  5
18D
330
1F
100
AcDbEntity
  8
KONTUR
100
AcDbCircle
 10
448.1948829148
 20
2235.1105912406
 30
0.0
 40
1.664900080932097
100
AcDbArc
 50
117.9943971917
 51
208.5937887742
  0
ARC
  5
18E
330
1F
100
AcDbEntity
  8
KONTUR
100
AcDbCircle
 10
448.0986317629
 20
2235.1284030236
 30
0.0
 40
1.605822892259215
100
AcDbArc
 50
78.2975012653
 51
115.2592507946
  0
ARC
  5
18F
330
1F
100
AcDbEntity
  8
KONTUR
100
AcDbCircle
 10
450.0838950691
 20
2247.1161121238
 30
0.0
 40
10.54665175228353
100
AcDbArc
 50
260.9466736113
 51
275.4100655455
  0
ARC
  5
190
330
1F
100
AcDbEntity
  8
KONTUR
100
AcDbCircle
 10
451.5240011424
 20
2234.3737355906
 30
0.0
 40
2.286571158031959
100
AcDbArc
 50
47.2289384461
 51
101.2409559308
  0
LINE
  5
191
330
1F
100
AcDbEntity
  8
KONTUR
100
AcDbLine
 10
470.385253543
 20
2217.1940247863
 30
0.0
 11
453.0767444634
 21
2236.0522455965
 31
0.0
  0
ARC
  5
192
330
1F
100
AcDbEntity
  8
KONTUR
100
AcDbCircle
 10
470.9915437303
 20
2217.7504918739
 30
0.0
 40
0.8229479999998403
100
AcDbArc
 50
222.5464284529
 51
0.0
  0
LINE
  5
193
330
1F
100
AcDbEntity
  8
KONTUR
100
AcDbLine
 10
471.8144917303
 20
2231.1087684689
 30
0.0
 11
471.8144917303
 21
2217.7504918739
 31
0.0
  0
ARC
  5
194
330
1F
100
AcDbEntity
  8
KONTUR
100
AcDbCircle
 10
468.960922468
 20
2230.7374644167
 30
0.0
 40
2.877624755550534
100
AcDbArc
 50
7.413626258
 51
89.4496125495
  0
ARC
  5
195
330
1F
100
AcDbEntity
  8
KONTUR
100
AcDbCircle
 10
469.283221314
 20
2236.8649790149
 30
0.0
 40
3.26335249076646
100
AcDbArc
 50
243.9509976247
 51
264.8195593438
  0
ARC
  5
196
330
1F
100
AcDbEntity
  8
KONTUR
100
AcDbCircle
 10
468.199949849
 20
2235.1122694677
 30
0.0
 40
1.229937628745063
100
AcDbArc
 50
186.3641607909
 51
253.476923058
  0
ARC
  5
197
330
1F
100
AcDbEntity
  8
KONTUR
100
AcDbCircle
 10
468.573181618
 20
2235.0915262905
 30
0.0
 40
1.599771385124504
100
AcDbArc
 50
93.0257953268
 51
184.143538926
  0
ARC
  5
198
330
1F
100
AcDbEntity
  8
KONTUR
100
AcDbCircle
 10
464.0726271719
 20
2137.3825340703
 30
0.0
 40
99.40467586570195
100
AcDbArc
 50
85.5409739507
 51
87.4537641673
  0
ARC
  5
199
330
1F
100
AcDbEntity
  8
KONTUR
100
AcDbCircle
 10
473.3707035038
 20
2256.4766112889
 30
0.0
 40
20.05181844559474
100
AcDbArc
 50
265.5100375536
 51
275.2627731258
  0
ARC
  5
19A
330
1F
100
AcDbEntity
  8
KONTUR
100
AcDbCircle
 10
475.0105799561
 20
2246.4227409543
 30
0.0
 40
9.915423900755538
100
AcDbArc
 50
271.1520047026
 51
278.9915671673
  0
ARC
  5
19B
330
1F
100
AcDbEntity
  8
KONTUR
100
AcDbCircle
 10
476.706765553
 20
2235.2704056565
 30
0.0
 40
1.366634843870855
100
AcDbArc
 50
6.8721468918
 51
96.1543425704
  0
ARC
  5
19C
330
1F
100
AcDbEntity
  8
KONTUR
100
AcDbCircle
 10
476.9623753094
 20
2235.2517081812
 30
0.0
 40
1.116181286292531
100
AcDbArc
 50
294.2692122186
 51
9.3958227399
  0
ARC
  5
19D
330
1F
100
AcDbEntity
  8
KONTUR
100
AcDbCircle
 10
477.9023279844
 20
2231.6293961769
 30
0.0
 40
2.648844466614264
100
AcDbArc
 50
100.4661498282
 51
139.7107079679
  0
ARC
  5
19E
330
1F
100
AcDbEntity
  8
KONTUR
100
AcDbCircle
 10
477.6082461037
 20
2232.1923955714
 30
0.0
 40
2.074307479851329
100
AcDbArc
 50
146.3348337766
 51
164.4335916412
  0
LINE
  5
19F
330
1F
100
AcDbEntity
  8
KONTUR
100
AcDbLine
 10
475.6100240877
 20
2207.2756143598
 30
0.0
 11
475.6100240877
 21
2232.7490465354
 31
0.0
  0
ARC
  5
1A0
330
1F
100
AcDbEntity
  8
KONTUR
100
AcDbCircle
 10
474.1404740877
 20
2207.2756143598
 30
0.0
 40
1.469550000000424
100
AcDbArc
 50
222.5464284529
 51
0.0
  0
LINE
  5
1A1
330
1F
100
AcDbEntity
  8
KONTUR
100
AcDbLine
 10
457.0340545521
 20
2223.7403636231
 30
0.0
 11
473.057813039
 21
2206.281923132
 31
0.0
  0
ARC
  5
1A2
330
1F
100
AcDbEntity
  8
KONTUR
100
AcDbCircle
 10
456.4277643648
 20
2223.1838965356
 30
0.0
 40
0.8229480000003946
100
AcDbArc
 50
42.5464284529
 51
180.0
  0
LINE
  5
1A3
330
1F
100
AcDbEntity
  8
KONTUR
100
AcDbLine
 10
455.6048163648
 20
2210.669616714
 30
0.0
 11
455.6048163648
 21
2223.1838965356
 31
0.0
  0
ARC
  5
1A4
330
1F
100
AcDbEntity
  8
KONTUR
100
AcDbCircle
 10
457.3682763648
 20
2210.6696167139
 30
0.0
 40
1.763459999952886
100
AcDbArc
 50
179.9999999995
 51
257.3100595655
  0
ARC
  5
1A5
330
1F
100
AcDbEntity
  8
KONTUR
100
AcDbCircle
 10
457.7350065284
 20
2212.2982600131
 30
0.0
 40
3.432882058238264
100
AcDbArc
 50
257.3100595641
 51
264.2957248418
  0
ARC
  5
1A6
330
1F
100
AcDbEntity
  8
KONTUR
100
AcDbCircle
 10
457.1575680371
 20
2206.2649282517
 30
0.0
 40
2.628087350101826
100
AcDbArc
 50
51.3879176368
 51
84.8428994224
  0
ARC
  5
1A7
330
1F
100
AcDbEntity
  8
KONTUR
100
AcDbCircle
 10
458.1187714225
 20
2207.3967398525
 30
0.0
 40
1.144744667940751
100
AcDbArc
 50
307.0573497426
 51
53.6294278184
  0
ARC
  5
1A8
330
1F
100
AcDbEntity
  8
KONTUR
100
AcDbCircle
 10
457.3382583954
 20
2208.3071651549
 30
0.0
 40
2.342818578458972
100
AcDbArc
 50
269.5630130461
 51
308.8732564025
  0
ARC
  5
1A9
330
1F
100
AcDbEntity
  8
KONTUR
100
AcDbCircle
 10
453.8704748101
 20
2177.4773376328
 30
0.0
 40
28.69521697161914
100
AcDbArc
 50
83.0948455941
 51
98.2208388781
  0
ARC
  5
1AA
330
1F
100
AcDbEntity
  8
KONTUR
100
AcDbCircle
 10
449.7008590279
 20
2207.410323649
 30
0.0
 40
1.534075559126783
100
AcDbArc
 50
187.0760591345
 51
272.4851386069
  0
ARC
  5
1AB
330
1F
100
AcDbEntity
  8
KONTUR
100
AcDbCircle
 10
449.3451534936
 20
2207.3661691117
 30
0.0
 40
1.175639999677547
100
AcDbArc
 50
109.4323485955
 51
187.0760591629
  0
ARC
  5
1AC
330
1F
100
AcDbEntity
  8
KONTUR
100
AcDbCircle
 10
441.7222873583
 20
2225.0794752968
 30
0.0
 40
18.11110136312738
100
AcDbArc
 50
293.5343406526
 51
298.1708732457
  0
ARC
  5
1AD
330
1F
100
AcDbEntity
  8
KONTUR
100
AcDbCircle
 10
448.9176503341
 20
2211.5727495527
 30
0.0
 40
2.807584327956817
100
AcDbArc
 50
298.8552671613
 51
321.1408136726
  0
ARC
  5
1AE
330
1F
100
AcDbEntity
  8
KONTUR
100
AcDbCircle
 10
449.08331196
 20
2211.3031435084
 30
0.0
 40
2.511669943707932
100
AcDbArc
 50
323.559633309
 51
356.0736117731
  0
ARC
  5
1AF
330
1F
100
AcDbEntity
  8
KONTUR
100
AcDbCircle
 10
499.4937574175
 20
2222.3326432648
 30
0.0
 40
14.22032489730769
100
AcDbArc
 50
179.0333482778
 51
248.2762157062
  0
ARC
  5
1B0
330
1F
100
AcDbEntity
  8
KONTUR
100
AcDbCircle
 10
496.6008191259
 20
2220.7788681612
 30
0.0
 40
11.89519306791213
100
AcDbArc
 50
258.5051860546
 51
304.3163733328
  0
ARC
  5
1B1
330
1F
100
AcDbEntity
  8
KONTUR
100
AcDbCircle
 10
498.0563789616
 20
2218.5429876116
 30
0.0
 40
9.2280908134803
100
AcDbArc
 50
304.6783741113
 51
1.2764766245
  0
ARC
  5
1B2
330
1F
100
AcDbEntity
  8
KONTUR
100
AcDbCircle
 10
488.7597189674
 20
2219.0323241727
 30
0.0
 40
18.52463425738317
100
AcDbArc
 50
359.1222991187
 51
35.7371965301
  0
ARC
  5
1B3
330
1F
100
AcDbEntity
  8
KONTUR
100
AcDbCircle
 10
495.2148977447
 20
2221.939213058
 30
0.0
 40
11.6726770918617
100
AcDbArc
 50
42.6787896565
 51
91.576936742
  0
ARC
  5
1B4
330
1F
100
AcDbEntity
  8
KONTUR
100
AcDbCircle
 10
494.8600604837
 20
2223.9276088103
 30
0.0
 40
9.679918948196015
100
AcDbArc
 50
89.8010384413
 51
188.0470902976
  0
ARC
  5
1B5
330
1F
100
AcDbEntity
  8
KONTUR
100
AcDbCircle
 10
499.304400142
 20
2222.7694516191
 30
0.0
 40
13.17103938985023
100
AcDbArc
 50
350.34191932
 51
56.9740847993
  0
ARC
  5
1B6
330
1F
100
AcDbEntity
  8
KONTUR
100
AcDbCircle
 10
498.3339780473
 20
2220.4240386143
 30
0.0
 40
13.95544154325199
100
AcDbArc
 50
305.9462454843
 51
0.5572728012
  0
ARC
  5
1B7
330
1F
100
AcDbEntity
  8
KONTUR
100
AcDbCircle
 10
496.3794807932
 20
2222.0212975853
 30
0.0
 40
16.40854096561995
100
AcDbArc
 50
259.6845260691
 51
308.1978872478
  0
ARC
  5
1B8
330
1F
100
AcDbEntity
  8
KONTUR
100
AcDbCircle
 10
495.0245447427
 20
2220.876018407
 30
0.0
 40
15.08138723217298
100
AcDbArc
 50
191.9619722321
 51
263.9737437474
  0
ARC
  5
1B9
330
1F
100
AcDbEntity
  8
KONTUR
100
AcDbCircle
 10
495.5492336072
 20
2221.2864111573
 30
0.0
 40
15.68247402950848
100
AcDbArc
 50
86.2978960938
 51
193.0315315193
  0
ARC
  5
1BA
330
1F
100
AcDbEntity
  8
KONTUR
100
AcDbCircle
 10
496.4710482669
 20
2219.3315624238
 30
0.0
 40
17.60483141746817
100
AcDbArc
 50
55.3406072651
 51
89.704530429
  0
ARC
  5
1BB
330
1F
100
AcDbEntity
  8
KONTUR
100
AcDbCircle
 10
442.6932064836
 20
2233.7765010278
 30
0.0
 40
1.365458100743419
100
AcDbArc
 50
16.3118941946
 51
129.9964834567
  0
ARC
  5
1BC
330
1F
100
AcDbEntity
  8
KONTUR
100
AcDbCircle
 10
433.804072786
 20
2232.1487037451
 30
0.0
 40
10.39604595799265
100
AcDbArc
 50
0.5395045746
 51
11.1552746094
  0
ARC
  5
1BD
330
1F
100
AcDbEntity
  8
KONTUR
100
AcDbCircle
 10
463.4476356847
 20
2232.9713450246
 30
0.0
 40
19.26161767894384
100
AcDbArc
 50
182.1563633555
 51
196.1314308898
  0
ARC
  5
1BE
330
1F
100
AcDbEntity
  8
KONTUR
100
AcDbCircle
 10
443.5719168374
 20
2227.3439897057
 30
0.0
 40
1.399903111271874
100
AcDbArc
 50
204.8489177139
 51
11.3571738078
  0
ARC
  5
1BF
330
1F
100
AcDbEntity
  8
KONTUR
100
AcDbCircle
 10
431.1914738237
 20
2221.0724739313
 30
0.0
 40
12.47936331217911
100
AcDbArc
 50
27.0913787663
 51
93.4037548448
  0
ARC
  5
1C0
330
1F
100
AcDbEntity
  8
KONTUR
100
AcDbCircle
 10
430.658550582
 20
2224.418955857
 30
0.0
 40
9.11324100423728
100
AcDbArc
 50
91.3078218395
 51
161.0327204396
  0
ARC
  5
1C1
330
1F
100
AcDbEntity
  8
KONTUR
100
AcDbCircle
 10
437.563120224
 20
2221.8891086793
 30
0.0
 40
16.46586195640392
100
AcDbArc
 50
160.516650172
 51
203.7516672404
  0
ARC
  5
1C2
330
1F
100
AcDbEntity
  8
KONTUR
100
AcDbCircle
 10
432.04577327
 20
2219.2050480981
 30
0.0
 40
10.33742726434675
100
AcDbArc
 50
202.4519379539
 51
260.1941293991
  0
ARC
  5
1C3
330
1F
100
AcDbEntity
  8
KONTUR
100
AcDbCircle
 10
432.2557195926
 20
2218.0443107111
 30
0.0
 40
9.238266440753966
100
AcDbArc
 50
257.6842134415
 51
312.8608682707
  0
ARC
  5
1C4
330
1F
100
AcDbEntity
  8
KONTUR
100
AcDbCircle
 10
437.4443057979
 20
2212.8246789316
 30
0.0
 40
1.899745909718321
100
AcDbArc
 50
305.2146227661
 51
0.7735525212
  0
ARC
  5
1C5
330
1F
100
AcDbEntity
  8
KONTUR
100
AcDbCircle
 10
384.6040889067
 20
2216.6167915866
 30
0.0
 40
54.86921568685745
100
AcDbArc
 50
356.0638697208
 51
2.6633018939
  0
ARC
  5
1C6
330
1F
100
AcDbEntity
  8
KONTUR
100
AcDbCircle
 10
438.6898878976
 20
2219.1933896263
 30
0.0
 40
0.7246527930277636
100
AcDbArc
 50
357.8639630715
 51
77.2379869176
  0
ARC
  5
1C7
330
1F
100
AcDbEntity
  8
KONTUR
100
AcDbCircle
 10
438.6956306964
 20
2225.0143529719
 30
0.0
 40
5.116540543508128
100
AcDbArc
 50
245.3634241645
 51
271.7285216796
  0
ARC
  5
1C8
330
1F
100
AcDbEntity
  8
KONTUR
100
AcDbCircle
 10
437.0665451215
 20
2221.6789525127
 30
0.0
 40
1.40856184250164
100
AcDbArc
 50
79.0913149517
 51
249.0427844507
  0
ARC
  5
1C9
330
1F
100
AcDbEntity
  8
KONTUR
100
AcDbCircle
 10
440.543466693
 20
2312.3032130724
 30
0.0
 40
89.2988774047191
100
AcDbArc
 50
267.9397312861
 51
273.043735047
  0
ARC
  5
1CA
330
1F
100
AcDbEntity
  8
KONTUR
100
AcDbCircle
 10
445.3870960563
 20
2221.7018961873
 30
0.0
 40
1.432052355682421
100
AcDbArc
 50
272.7256592245
 51
94.0851687946
  0
ARC
  5
1CB
330
1F
100
AcDbEntity
  8
KONTUR
100
AcDbCircle
 10
445.6402294706
 20
2219.2818732357
 30
0.0
 40
1.006740936181831
100
AcDbArc
 50
100.590883574
 51
190.1658888017
  0
ARC
  5
1CC
330
1F
100
AcDbEntity
  8
KONTUR
100
AcDbCircle
 10
45.881028774
 20
2208.8226735969
 30
0.0
 40
398.9007876942289
100
AcDbArc
 50
0.2931485453
 51
1.4769397701
  0
ARC
  5
1CD
330
1F
100
AcDbEntity
  8
KONTUR
100
AcDbCircle
 10
443.6883919452
 20
2210.7542795252
 30
0.0
 40
1.093681117501018
100
AcDbArc
 50
282.1852934853
 51
5.7368518472
  0
ARC
  5
1CE
330
1F
100
AcDbEntity
  8
KONTUR
100
AcDbCircle
 10
444.1643172228
 20
2206.1819990142
 30
0.0
 40
3.511801958373433
100
AcDbArc
 50
94.0017468451
 51
119.1893758579
  0
ARC
  5
1CF
330
1F
100
AcDbEntity
  8
KONTUR
100
AcDbCircle
 10
432.7146160065
 20
2222.2517943893
 30
0.0
 40
16.24536554382809
100
AcDbArc
 50
291.8344206551
 51
306.8248717039
  0
ARC
  5
1D0
330
1F
100
AcDbEntity
  8
KONTUR
100
AcDbCircle
 10
431.2865047285
 20
2223.7658147367
 30
0.0
 40
18.19790907373649
100
AcDbArc
 50
259.20245446
 51
294.2360278692
  0
ARC
  5
1D1
330
1F
100
AcDbEntity
  8
KONTUR
100
AcDbCircle
 10
430.4378126398
 20
2220.6286092383
 30
0.0
 40
14.95927551986739
100
AcDbArc
 50
200.3274912467
 51
260.1444933823
  0
ARC
  5
1D2
330
1F
100
AcDbEntity
  8
KONTUR
100
AcDbCircle
 10
436.2724733721
 20
2220.8198216491
 30
0.0
 40
20.58009231162152
100
AcDbArc
 50
164.1282059391
 51
195.1768412117
  0
ARC
  5
1D3
330
1F
100
AcDbEntity
  8
KONTUR
100
AcDbCircle
 10
430.8882203403
 20
2221.651771107
 30
0.0
 40
15.18846779859429
100
AcDbArc
 50
104.7909611426
 51
161.591305432
  0
ARC
  5
1D4
330
1F
100
AcDbEntity
  8
KONTUR
100
AcDbCircle
 10
431.9752628251
 20
2216.1319098692
 30
0.0
 40
20.80601868802924
100
AcDbArc
 50
63.7354831952
 51
103.8046049438
  0
ARC
  5
1D5
330
1F
100
AcDbEntity
  8
KONTUR
100
AcDbCircle
 10
441.4784883309
 20
2235.2027139545
 30
0.0
 40
0.5080792441208036
100
AcDbArc
 50
234.3352678632
 51
311.5631659849
  0
ARC
  5
1D6
330
1F
100
AcDbEntity
  8
KONTUR
100
AcDbCircle
 10
530.7167646654
 20
2234.7992415867
 30
0.0
 40
1.459624894585969
100
AcDbArc
 50
15.8945988336
 51
107.5048152118
  0
ARC
  5
1D7
330
1F
100
AcDbEntity
  8
KONTUR
100
AcDbCircle
 10
566.3534035716
 20
2236.9998311514
 30
0.0
 40
34.28015434113922
100
AcDbArc
 50
183.011313453
 51
192.4759856789
  0
ARC
  5
1D8
330
1F
100
AcDbEntity
  8
KONTUR
100
AcDbCircle
 10
531.460518294
 20
2229.1182821293
 30
0.0
 40
1.499741486940513
100
AcDbArc
 50
209.9323782346
 51
18.5047769816
  0
ARC
  5
1D9
330
1F
100
AcDbEntity
  8
KONTUR
100
AcDbCircle
 10
524.4091607408
 20
2227.1004598337
 30
0.0
 40
5.890091325348083
100
AcDbArc
 50
12.446559139
 51
43.3682057464
  0
ARC
  5
1DA
330
1F
100
AcDbEntity
  8
KONTUR
100
AcDbCircle
 10
523.2318987544
 20
2226.0617202421
 30
0.0
 40
7.459385229450862
100
AcDbArc
 50
42.9588844973
 51
92.8105440309
  0
ARC
  5
1DB
330
1F
100
AcDbEntity
  8
KONTUR
100
AcDbCircle
 10
522.6765262595
 20
2228.6519608078
 30
0.0
 40
4.863869305514206
100
AcDbArc
 50
87.765826132
 51
146.5136262538
  0
ARC
  5
1DC
330
1F
100
AcDbEntity
  8
KONTUR
100
AcDbCircle
 10
521.6170588765
 20
2229.6495813752
 30
0.0
 40
3.438746745570223
100
AcDbArc
 50
150.6407192579
 51
253.848450679
  0
ARC
  5
1DD
330
1F
100
AcDbEntity
  8
KONTUR
100
AcDbCircle
 10
537.2982549118
 20
2262.2726644569
 30
0.0
 40
39.59167188279064
100
AcDbArc
 50
245.1506121041
 51
255.130927987
  0
ARC
  5
1DE
330
1F
100
AcDbEntity
  8
KONTUR
100
AcDbCircle
 10
524.2755745024
 20
2214.360194248
 30
0.0
 40
10.06243127687975
100
AcDbArc
 50
43.4943730857
 51
73.4695170447
  0
ARC
  5
1DF
330
1F
100
AcDbEntity
  8
KONTUR
100
AcDbCircle
 10
524.1986430483
 20
2214.8855561658
 30
0.0
 40
9.766293785991026
100
AcDbArc
 50
348.0135940147
 51
40.9469802019
  0
ARC
  5
1E0
330
1F
100
AcDbEntity
  8
KONTUR
100
AcDbCircle
 10
524.3996040593
 20
2215.7675741319
 30
0.0
 40
9.794746239445718
100
AcDbArc
 50
289.1790656201
 51
342.7149083
  0
ARC
  5
1E1
330
1F
100
AcDbEntity
  8
KONTUR
100
AcDbCircle
 10
522.7720657101
 20
2222.3112142417
 30
0.0
 40
16.52123117107818
100
AcDbArc
 50
264.4175235663
 51
287.0543442898
  0
ARC
  5
1E2
330
1F
100
AcDbEntity
  8
KONTUR
100
AcDbCircle
 10
521.1605638766
 20
2214.9410831344
 30
0.0
 40
9.072744183450638
100
AcDbArc
 50
230.3404899967
 51
270.0274145043
  0
ARC
  5
1E3
330
1F
100
AcDbEntity
  8
KONTUR
100
AcDbCircle
 10
536.0129919271
 20
2218.0085515007
 30
0.0
 40
22.96025633813137
100
AcDbArc
 50
189.0515713186
 51
205.9639496664
  0
ARC
  5
1E4
330
1F
100
AcDbEntity
  8
KONTUR
100
AcDbCircle
 10
514.8559543822
 20
2214.7835525002
 30
0.0
 40
1.56592028373898
100
AcDbArc
 50
47.9234716042
 51
194.3153322522
  0
ARC
  5
1E5
330
1F
100
AcDbEntity
  8
KONTUR
100
AcDbCircle
 10
511.1780035302
 20
2212.5035711624
 30
0.0
 40
5.847802124413099
100
AcDbArc
 50
15.2400212175
 51
36.0609951633
  0
ARC
  5
1E6
330
1F
100
AcDbEntity
  8
KONTUR
100
AcDbCircle
 10
521.781681531
 20
2215.4240225584
 30
0.0
 40
5.150746640222652
100
AcDbArc
 50
195.5785388232
 51
241.6521143683
  0
ARC
  5
1E7
330
1F
100
AcDbEntity
  8
KONTUR
100
AcDbCircle
 10
523.9693040745
 20
2216.9628380081
 30
0.0
 40
7.637767319172935
100
AcDbArc
 50
232.6535709107
 51
307.4387199771
  0
ARC
  5
1E8
330
1F
100
AcDbEntity
  8
KONTUR
100
AcDbCircle
 10
525.8305726665
 20
2213.8359185413
 30
0.0
 40
4.045670766300757
100
AcDbArc
 50
313.4408730777
 51
54.9324969774
  0
ARC
  5
1E9
330
1F
100
AcDbEntity
  8
KONTUR
100
AcDbCircle
 10
510.8122992238
 20
2184.3628434411
 30
0.0
 40
37.08884769041022
100
AcDbArc
 50
62.1214982095
 51
72.8072543619
  0
ARC
  5
1EA
330
1F
100
AcDbEntity
  8
KONTUR
100
AcDbCircle
 10
524.2435380792
 20
2230.8150712949
 30
0.0
 40
11.29368644612301
100
AcDbArc
 50
222.4102912639
 51
257.3760202402
  0
ARC
  5
1EB
330
1F
100
AcDbEntity
  8
KONTUR
100
AcDbCircle
 10
521.740456896
 20
2228.6228324157
 30
0.0
 40
7.967356970956935
100
AcDbArc
 50
122.0960792939
 51
222.9105300648
  0
ARC
  5
1EC
330
1F
100
AcDbEntity
  8
KONTUR
100
AcDbCircle
 10
523.8743286906
 20
2224.1332320718
 30
0.0
 40
12.9174998985955
100
AcDbArc
 50
66.5303468208
 51
119.5324722646
  0
ARC
  5
1ED
330
1F
100
AcDbEntity
  8
KONTUR
100
AcDbCircle
 10
529.4276780334
 20
2237.4143703272
 30
0.0
 40
1.489481022962453
100
AcDbArc
 50
254.0709490456
 51
304.7992946426
  0
LINE
  5
1EE
330
1F
100
AcDbEntity
  8
KONTUR
100
AcDbLine
 10
878.9583146849
 20
2223.1869659157
 30
0.0
 11
878.9583146849
 21
2221.6833034754
 31
0.0
  0
LINE
  5
1EF
330
1F
100
AcDbEntity
  8
KONTUR
100
AcDbLine
 10
864.1084631849
 20
2223.1869659157
 30
0.0
 11
864.1084631849
 21
2221.6833034754
 31
0.0
  0
LINE
  5
1F0
330
1F
100
AcDbEntity
  8
KONTUR
100
AcDbLine
 10
878.8904744456
 20
2213.2507882131
 30
0.0
 11
878.8904744456
 21
2214.7544506534
 31
0.0
  0
LINE
  5
1F1
330
1F
100
AcDbEntity
  8
KONTUR
100
AcDbLine
 10
856.7428754514
 20
2225.3596606721
 30
0.0
 11
859.646276799
 21
2225.3596606721
 31
0.0
  0
LINE
  5
1F2
330
1F
100
AcDbEntity
  8
KONTUR
100
AcDbLine
 10
864.1678012014
 20
2207.1118128502
 30
0.0
 11
867.071202549
 21
2207.1118128502
 31
0.0
  0
LINE
  5
1F3
330
1F
100
AcDbEntity
  8
KONTUR
100
AcDbLine
 10
936.2724879444
 20
2207.1118128502
 30
0.0
 11
939.175889292
 21
2207.1118128502
 31
0.0
  0
LINE
  5
1F4
330
1F
100
AcDbEntity
  8
KONTUR
100
AcDbLine
 10
944.6332283391
 20
2202.3450970511
 30
0.0
 11
947.0394401629
 21
2202.3450970511
 31
0.0
  0
LINE
  5
1F5
330
1F
100
AcDbEntity
  8
KONTUR
100
AcDbLine
 10
897.5690033829
 20
2202.3450970511
 30
0.0
 11
900.6021396602
 21
2202.3450970511
 31
0.0
  0
CIRCLE
  5
1F6
330
1F
100
AcDbEntity
  8
KONTUR
100
AcDbCircle
 10
951.5677244341
 20
2219.2199283011
 30
0.0
 40
2.999999999999886
  0
ARC
  5
1F7
330
1F
100
AcDbEntity
  8
KONTUR
100
AcDbCircle
 10
882.6368574402
 20
2227.3428009753
 30
0.0
 40
6.749932500000037
100
AcDbArc
 50
236.9770620645
 51
243.5782769131
  0
LINE
  5
1F8
330
1F
100
AcDbEntity
  8
KONTUR
100
AcDbLine
 10
879.6333079349
 20
2223.8619591657
 30
0.0
 11
879.6333079349
 21
2221.2979453837
 31
0.0
  0
LINE
  5
1F9
330
1F
100
AcDbEntity
  8
KONTUR
100
AcDbLine
 10
879.6333079349
 20
2223.8619591657
 30
0.0
 11
882.2993608152
 21
2226.528012046
 31
0.0
  0
LINE
  5
1FA
330
1F
100
AcDbEntity
  8
KONTUR
100
AcDbLine
 10
882.2993608152
 20
2222.7576439047
 30
0.0
 11
882.2993608152
 21
2226.528012046
 31
0.0
  0
LINE
  5
1FB
330
1F
100
AcDbEntity
  8
KONTUR
100
AcDbLine
 10
882.2993608152
 20
2222.7576439047
 30
0.0
 11
880.4863292829
 21
2220.9446123724
 31
0.0
  0
ARC
  5
1FC
330
1F
100
AcDbEntity
  8
KONTUR
100
AcDbCircle
 10
882.6368574402
 20
2227.3428009753
 30
0.0
 40
6.749932500000273
100
AcDbArc
 50
251.421723087
 51
258.0229379356
  0
LINE
  5
1FD
330
1F
100
AcDbEntity
  8
KONTUR
100
AcDbLine
 10
882.2993608152
 20
2221.803059296
 30
0.0
 11
881.2361109071
 21
2220.7398093878
 31
0.0
  0
LINE
  5
1FE
330
1F
100
AcDbEntity
  8
KONTUR
100
AcDbLine
 10
882.2993608152
 20
2220.6013111709
 30
0.0
 11
882.2993608152
 21
2221.803059296
 31
0.0
  0
LINE
  5
1FF
330
1F
100
AcDbEntity
  8
KONTUR
100
AcDbLine
 10
882.9743540652
 20
2220.6013111709
 30
0.0
 11
882.9743540652
 21
2221.803059296
 31
0.0
  0
LINE
  5
200
330
1F
100
AcDbEntity
  8
KONTUR
100
AcDbLine
 10
882.9743540652
 20
2221.803059296
 30
0.0
 11
884.0376039734
 21
2220.7398093878
 31
0.0
  0
ARC
  5
201
330
1F
100
AcDbEntity
  8
KONTUR
100
AcDbCircle
 10
882.6368574402
 20
2227.3428009753
 30
0.0
 40
6.749932500002881
100
AcDbArc
 50
281.9770620645
 51
288.5782769131
  0
LINE
  5
202
330
1F
100
AcDbEntity
  8
KONTUR
100
AcDbLine
 10
882.9743540652
 20
2222.7576439047
 30
0.0
 11
884.7873855975
 21
2220.9446123724
 31
0.0
  0
LINE
  5
203
330
1F
100
AcDbEntity
  8
KONTUR
100
AcDbLine
 10
882.9743540652
 20
2222.7576439047
 30
0.0
 11
882.9743540652
 21
2226.528012046
 31
0.0
  0
LINE
  5
204
330
1F
100
AcDbEntity
  8
KONTUR
100
AcDbLine
 10
885.6404069455
 20
2223.8619591657
 30
0.0
 11
882.9743540652
 21
2226.528012046
 31
0.0
  0
LINE
  5
205
330
1F
100
AcDbEntity
  8
KONTUR
100
AcDbLine
 10
885.6404069455
 20
2223.8619591657
 30
0.0
 11
885.6404069455
 21
2221.2979453837
 31
0.0
  0
ARC
  5
206
330
1F
100
AcDbEntity
  8
KONTUR
100
AcDbCircle
 10
882.6368574402
 20
2227.3428009753
 30
0.0
 40
6.74993250000525
100
AcDbArc
 50
296.421723087
 51
303.0229379355
  0
LINE
  5
207
330
1F
100
AcDbEntity
  8
KONTUR
100
AcDbLine
 10
886.3154001955
 20
2223.1869659157
 30
0.0
 11
886.3154001955
 21
2221.6833034754
 31
0.0
  0
LINE
  5
208
330
1F
100
AcDbEntity
  8
KONTUR
100
AcDbLine
 10
887.1651644441
 20
2222.3372016672
 30
0.0
 11
886.3154001955
 21
2223.1869659157
 31
0.0
  0
ARC
  5
209
330
1F
100
AcDbEntity
  8
KONTUR
100
AcDbCircle
 10
882.6368574402
 20
2227.3428009753
 30
0.0
 40
6.749932500001406
100
AcDbArc
 50
312.1340160174
 51
317.8659839826
  0
LINE
  5
20A
330
1F
100
AcDbEntity
  8
KONTUR
100
AcDbLine
 10
887.6424567484
 20
2222.8144939715
 30
0.0
 11
886.7926924999
 21
2223.66425822
 31
0.0
  0
LINE
  5
20B
330
1F
100
AcDbEntity
  8
KONTUR
100
AcDbLine
 10
886.7926924999
 20
2223.66425822
 30
0.0
 11
888.2963549402
 21
2223.66425822
 31
0.0
  0
ARC
  5
20C
330
1F
100
AcDbEntity
  8
KONTUR
100
AcDbCircle
 10
882.6368574402
 20
2227.3428009753
 30
0.0
 40
6.7499325000005
100
AcDbArc
 50
326.9770620645
 51
333.5782769131
  0
LINE
  5
20D
330
1F
100
AcDbEntity
  8
KONTUR
100
AcDbLine
 10
886.1176992499
 20
2224.33925147
 30
0.0
 11
888.6817130319
 21
2224.33925147
 31
0.0
  0
LINE
  5
20E
330
1F
100
AcDbEntity
  8
KONTUR
100
AcDbLine
 10
886.1176992499
 20
2224.33925147
 30
0.0
 11
883.4516463696
 21
2227.0053043503
 31
0.0
  0
LINE
  5
20F
330
1F
100
AcDbEntity
  8
KONTUR
100
AcDbLine
 10
887.2220145109
 20
2227.0053043503
 30
0.0
 11
883.4516463696
 21
2227.0053043503
 31
0.0
  0
ARC
  5
210
330
1F
100
AcDbEntity
  8
KONTUR
100
AcDbCircle
 10
882.6368574402
 20
2227.3428009753
 30
0.0
 40
6.74993250000113
100
AcDbArc
 50
341.421723087
 51
348.0229379355
  0
LINE
  5
211
330
1F
100
AcDbEntity
  8
KONTUR
100
AcDbLine
 10
888.1765991196
 20
2227.0053043503
 30
0.0
 11
889.2398490277
 21
2225.9420544422
 31
0.0
  0
LINE
  5
212
330
1F
100
AcDbEntity
  8
KONTUR
100
AcDbLine
 10
889.3783472446
 20
2227.0053043503
 30
0.0
 11
888.1765991196
 21
2227.0053043503
 31
0.0
  0
ARC
  5
213
330
1F
100
AcDbEntity
  8
KONTUR
100
AcDbCircle
 10
882.6368574402
 20
2227.3428009753
 30
0.0
 40
6.749932500007658
100
AcDbArc
 50
357.1340160174
 51
2.8659839826
  0
LINE
  5
214
330
1F
100
AcDbEntity
  8
KONTUR
100
AcDbLine
 10
889.3783472446
 20
2227.6802976003
 30
0.0
 11
888.1765991196
 21
2227.6802976003
 31
0.0
  0
LINE
  5
215
330
1F
100
AcDbEntity
  8
KONTUR
100
AcDbLine
 10
888.1765991196
 20
2227.6802976003
 30
0.0
 11
889.2398490277
 21
2228.7435475085
 31
0.0
  0
ARC
  5
216
330
1F
100
AcDbEntity
  8
KONTUR
100
AcDbCircle
 10
882.6368574402
 20
2227.3428009753
 30
0.0
 40
6.749932500009628
100
AcDbArc
 50
11.9770620645
 51
18.578276913
  0
LINE
  5
217
330
1F
100
AcDbEntity
  8
KONTUR
100
AcDbLine
 10
887.2220145109
 20
2227.6802976003
 30
0.0
 11
889.0350460432
 21
2229.4933291326
 31
0.0
  0
LINE
  5
218
330
1F
100
AcDbEntity
  8
KONTUR
100
AcDbLine
 10
887.2220145109
 20
2227.6802976003
 30
0.0
 11
883.4516463696
 21
2227.6802976003
 31
0.0
  0
LINE
  5
219
330
1F
100
AcDbEntity
  8
KONTUR
100
AcDbLine
 10
886.1176992499
 20
2230.3463504806
 30
0.0
 11
883.4516463696
 21
2227.6802976003
 31
0.0
  0
LINE
  5
21A
330
1F
100
AcDbEntity
  8
KONTUR
100
AcDbLine
 10
886.1176992499
 20
2230.3463504806
 30
0.0
 11
888.6817130319
 21
2230.3463504806
 31
0.0
  0
ARC
  5
21B
330
1F
100
AcDbEntity
  8
KONTUR
100
AcDbCircle
 10
882.6368574402
 20
2227.3428009753
 30
0.0
 40
6.749932500007596
100
AcDbArc
 50
26.4217230869
 51
33.0229379355
  0
LINE
  5
21C
330
1F
100
AcDbEntity
  8
KONTUR
100
AcDbLine
 10
886.7926924999
 20
2231.0213437306
 30
0.0
 11
888.2963549402
 21
2231.0213437306
 31
0.0
  0
LINE
  5
21D
330
1F
100
AcDbEntity
  8
KONTUR
100
AcDbLine
 10
887.6424567484
 20
2231.8711079791
 30
0.0
 11
886.7926924999
 21
2231.0213437306
 31
0.0
  0
ARC
  5
21E
330
1F
100
AcDbEntity
  8
KONTUR
100
AcDbCircle
 10
882.6368574402
 20
2227.3428009753
 30
0.0
 40
6.749932500000029
100
AcDbArc
 50
42.1340160174
 51
47.8659839826
  0
LINE
  5
21F
330
1F
100
AcDbEntity
  8
KONTUR
100
AcDbLine
 10
887.165164444
 20
2232.3484002835
 30
0.0
 11
886.3154001955
 21
2231.498636035
 31
0.0
  0
LINE
  5
220
330
1F
100
AcDbEntity
  8
KONTUR
100
AcDbLine
 10
886.3154001955
 20
2231.498636035
 30
0.0
 11
886.3154001955
 21
2233.0022984753
 31
0.0
  0
ARC
  5
221
330
1F
100
AcDbEntity
  8
KONTUR
100
AcDbCircle
 10
882.6368574402
 20
2227.3428009753
 30
0.0
 40
6.749932500002439
100
AcDbArc
 50
56.9770620645
 51
63.578276913
  0
LINE
  5
222
330
1F
100
AcDbEntity
  8
KONTUR
100
AcDbLine
 10
885.6404069455
 20
2230.823642785
 30
0.0
 11
885.6404069455
 21
2233.387656567
 31
0.0
  0
LINE
  5
223
330
1F
100
AcDbEntity
  8
KONTUR
100
AcDbLine
 10
882.9743540652
 20
2231.927958046
 30
0.0
 11
882.9743540652
 21
2228.1575899047
 31
0.0
  0
LINE
  5
224
330
1F
100
AcDbEntity
  8
KONTUR
100
AcDbLine
 10
882.9743540652
 20
2231.927958046
 30
0.0
 11
884.7873855975
 21
2233.7409895783
 31
0.0
  0
ARC
  5
225
330
1F
100
AcDbEntity
  8
KONTUR
100
AcDbCircle
 10
882.6368574402
 20
2227.3428009753
 30
0.0
 40
6.749932500000549
100
AcDbArc
 50
71.4217230869
 51
78.0229379355
  0
LINE
  5
226
330
1F
100
AcDbEntity
  8
KONTUR
100
AcDbLine
 10
882.9743540652
 20
2232.8825426547
 30
0.0
 11
884.0376039734
 21
2233.9457925628
 31
0.0
  0
LINE
  5
227
330
1F
100
AcDbEntity
  8
KONTUR
100
AcDbLine
 10
882.9743540652
 20
2234.0842907797
 30
0.0
 11
882.9743540652
 21
2232.8825426547
 31
0.0
  0
ARC
  5
228
330
1F
100
AcDbEntity
  8
KONTUR
100
AcDbCircle
 10
882.6368574402
 20
2227.3428009753
 30
0.0
 40
6.749932499999215
100
AcDbArc
 50
87.1340160174
 51
92.8659839826
  0
LINE
  5
229
330
1F
100
AcDbEntity
  8
KONTUR
100
AcDbLine
 10
882.2993608152
 20
2234.0842907797
 30
0.0
 11
882.2993608152
 21
2232.8825426547
 31
0.0
  0
LINE
  5
22A
330
1F
100
AcDbEntity
  8
KONTUR
100
AcDbLine
 10
882.2993608152
 20
2232.8825426547
 30
0.0
 11
881.2361109071
 21
2233.9457925628
 31
0.0
  0
ARC
  5
22B
330
1F
100
AcDbEntity
  8
KONTUR
100
AcDbCircle
 10
882.6368574402
 20
2227.3428009753
 30
0.0
 40
6.749932499998512
100
AcDbArc
 50
101.9770620645
 51
108.578276913
  0
LINE
  5
22C
330
1F
100
AcDbEntity
  8
KONTUR
100
AcDbLine
 10
882.2993608152
 20
2231.927958046
 30
0.0
 11
880.4863292829
 21
2233.7409895783
 31
0.0
  0
LINE
  5
22D
330
1F
100
AcDbEntity
  8
KONTUR
100
AcDbLine
 10
882.2993608152
 20
2231.927958046
 30
0.0
 11
882.2993608152
 21
2228.1575899047
 31
0.0
  0
LINE
  5
22E
330
1F
100
AcDbEntity
  8
KONTUR
100
AcDbLine
 10
879.6333079349
 20
2230.823642785
 30
0.0
 11
882.2993608152
 21
2228.1575899047
 31
0.0
  0
LINE
  5
22F
330
1F
100
AcDbEntity
  8
KONTUR
100
AcDbLine
 10
879.6333079349
 20
2230.823642785
 30
0.0
 11
879.6333079349
 21
2233.387656567
 31
0.0
  0
ARC
  5
230
330
1F
100
AcDbEntity
  8
KONTUR
100
AcDbCircle
 10
882.6368574402
 20
2227.3428009753
 30
0.0
 40
6.749932499997538
100
AcDbArc
 50
116.4217230869
 51
123.0229379355
  0
LINE
  5
231
330
1F
100
AcDbEntity
  8
KONTUR
100
AcDbLine
 10
878.9583146849
 20
2231.498636035
 30
0.0
 11
878.9583146849
 21
2233.0022984753
 31
0.0
  0
LINE
  5
232
330
1F
100
AcDbEntity
  8
KONTUR
100
AcDbLine
 10
878.1085504364
 20
2232.3484002835
 30
0.0
 11
878.9583146849
 21
2231.498636035
 31
0.0
  0
ARC
  5
233
330
1F
100
AcDbEntity
  8
KONTUR
100
AcDbCircle
 10
882.6368574402
 20
2227.3428009753
 30
0.0
 40
6.749932499996994
100
AcDbArc
 50
132.1340160174
 51
137.8659839826
  0
LINE
  5
234
330
1F
100
AcDbEntity
  8
KONTUR
100
AcDbLine
 10
877.6312581321
 20
2231.8711079791
 30
0.0
 11
878.4810223806
 21
2231.0213437306
 31
0.0
  0
LINE
  5
235
330
1F
100
AcDbEntity
  8
KONTUR
100
AcDbLine
 10
878.4810223806
 20
2231.0213437306
 30
0.0
 11
876.9773599403
 21
2231.0213437306
 31
0.0
  0
ARC
  5
236
330
1F
100
AcDbEntity
  8
KONTUR
100
AcDbCircle
 10
882.6368574402
 20
2227.3428009753
 30
0.0
 40
6.749932499996109
100
AcDbArc
 50
146.9770620645
 51
153.5782769131
  0
LINE
  5
237
330
1F
100
AcDbEntity
  8
KONTUR
100
AcDbLine
 10
879.1560156306
 20
2230.3463504806
 30
0.0
 11
876.5920018486
 21
2230.3463504806
 31
0.0
  0
LINE
  5
238
330
1F
100
AcDbEntity
  8
KONTUR
100
AcDbLine
 10
879.1560156306
 20
2230.3463504806
 30
0.0
 11
881.8220685109
 21
2227.6802976003
 31
0.0
  0
LINE
  5
239
330
1F
100
AcDbEntity
  8
KONTUR
100
AcDbLine
 10
878.0517003696
 20
2227.6802976003
 30
0.0
 11
881.8220685109
 21
2227.6802976003
 31
0.0
  0
LINE
  5
23A
330
1F
100
AcDbEntity
  8
KONTUR
100
AcDbLine
 10
878.0517003696
 20
2227.6802976003
 30
0.0
 11
876.2386688373
 21
2229.4933291326
 31
0.0
  0
ARC
  5
23B
330
1F
100
AcDbEntity
  8
KONTUR
100
AcDbCircle
 10
882.6368574402
 20
2227.3428009753
 30
0.0
 40
6.749932499999849
100
AcDbArc
 50
161.421723087
 51
168.0229379355
  0
LINE
  5
23C
330
1F
100
AcDbEntity
  8
KONTUR
100
AcDbLine
 10
877.0971157609
 20
2227.6802976003
 30
0.0
 11
876.0338658527
 21
2228.7435475085
 31
0.0
  0
LINE
  5
23D
330
1F
100
AcDbEntity
  8
KONTUR
100
AcDbLine
 10
875.8953676358
 20
2227.6802976003
 30
0.0
 11
877.0971157609
 21
2227.6802976003
 31
0.0
  0
ARC
  5
23E
330
1F
100
AcDbEntity
  8
KONTUR
100
AcDbCircle
 10
882.6368574402
 20
2227.3428009753
 30
0.0
 40
6.749932499995508
100
AcDbArc
 50
177.1340160174
 51
182.8659839826
  0
LINE
  5
23F
330
1F
100
AcDbEntity
  8
KONTUR
100
AcDbLine
 10
875.8953676358
 20
2227.0053043503
 30
0.0
 11
877.0971157609
 21
2227.0053043503
 31
0.0
  0
LINE
  5
240
330
1F
100
AcDbEntity
  8
KONTUR
100
AcDbLine
 10
877.0971157609
 20
2227.0053043503
 30
0.0
 11
876.0338658528
 21
2225.9420544422
 31
0.0
  0
ARC
  5
241
330
1F
100
AcDbEntity
  8
KONTUR
100
AcDbCircle
 10
882.6368574402
 20
2227.3428009753
 30
0.0
 40
6.749932499993733
100
AcDbArc
 50
191.9770620645
 51
198.5782769131
  0
LINE
  5
242
330
1F
100
AcDbEntity
  8
KONTUR
100
AcDbLine
 10
878.0517003696
 20
2227.0053043503
 30
0.0
 11
876.2386688373
 21
2225.192272818
 31
0.0
  0
LINE
  5
243
330
1F
100
AcDbEntity
  8
KONTUR
100
AcDbLine
 10
878.0517003696
 20
2227.0053043503
 30
0.0
 11
881.8220685109
 21
2227.0053043503
 31
0.0
  0
LINE
  5
244
330
1F
100
AcDbEntity
  8
KONTUR
100
AcDbLine
 10
879.1560156306
 20
2224.33925147
 30
0.0
 11
881.8220685109
 21
2227.0053043503
 31
0.0
  0
LINE
  5
245
330
1F
100
AcDbEntity
  8
KONTUR
100
AcDbLine
 10
879.1560156306
 20
2224.33925147
 30
0.0
 11
876.5920018486
 21
2224.33925147
 31
0.0
  0
ARC
  5
246
330
1F
100
AcDbEntity
  8
KONTUR
100
AcDbCircle
 10
882.6368574402
 20
2227.3428009753
 30
0.0
 40
6.749932499995375
100
AcDbArc
 50
206.421723087
 51
213.0229379355
  0
LINE
  5
247
330
1F
100
AcDbEntity
  8
KONTUR
100
AcDbLine
 10
878.4810223806
 20
2223.66425822
 30
0.0
 11
876.9773599403
 21
2223.66425822
 31
0.0
  0
ARC
  5
248
330
1F
100
AcDbEntity
  8
KONTUR
100
AcDbCircle
 10
882.6368574402
 20
2227.3428009753
 30
0.0
 40
6.749932500000169
100
AcDbArc
 50
222.1340160174
 51
227.8659839826
  0
LINE
  5
249
330
1F
100
AcDbEntity
  8
KONTUR
100
AcDbLine
 10
878.1085504364
 20
2222.3372016672
 30
0.0
 11
878.9583146849
 21
2223.1869659157
 31
0.0
  0
ARC
  5
24A
330
1F
100
AcDbEntity
  8
KONTUR
100
AcDbCircle
 10
867.7870059402
 20
2227.3428009753
 30
0.0
 40
6.749932499995489
100
AcDbArc
 50
236.9770620645
 51
243.578276913
  0
LINE
  5
24B
330
1F
100
AcDbEntity
  8
KONTUR
100
AcDbLine
 10
864.7834564349
 20
2223.8619591657
 30
0.0
 11
864.7834564349
 21
2221.2979453837
 31
0.0
  0
LINE
  5
24C
330
1F
100
AcDbEntity
  8
KONTUR
100
AcDbLine
 10
864.7834564349
 20
2223.8619591657
 30
0.0
 11
867.4495093152
 21
2226.528012046
 31
0.0
  0
LINE
  5
24D
330
1F
100
AcDbEntity
  8
KONTUR
100
AcDbLine
 10
867.4495093152
 20
2222.7576439047
 30
0.0
 11
867.4495093152
 21
2226.528012046
 31
0.0
  0
LINE
  5
24E
330
1F
100
AcDbEntity
  8
KONTUR
100
AcDbLine
 10
867.4495093152
 20
2222.7576439047
 30
0.0
 11
865.6364777829
 21
2220.9446123724
 31
0.0
  0
ARC
  5
24F
330
1F
100
AcDbEntity
  8
KONTUR
100
AcDbCircle
 10
867.7870059402
 20
2227.3428009753
 30
0.0
 40
6.74993249999436
100
AcDbArc
 50
251.4217230869
 51
258.0229379355
  0
LINE
  5
250
330
1F
100
AcDbEntity
  8
KONTUR
100
AcDbLine
 10
867.4495093152
 20
2221.803059296
 30
0.0
 11
866.3862594071
 21
2220.7398093879
 31
0.0
  0
LINE
  5
251
330
1F
100
AcDbEntity
  8
KONTUR
100
AcDbLine
 10
867.4495093152
 20
2220.601311171
 30
0.0
 11
867.4495093152
 21
2221.803059296
 31
0.0
  0
ARC
  5
252
330
1F
100
AcDbEntity
  8
KONTUR
100
AcDbCircle
 10
867.7870059402
 20
2227.3428009753
 30
0.0
 40
6.749932499995985
100
AcDbArc
 50
267.1340160174
 51
272.8659839825
  0
LINE
  5
253
330
1F
100
AcDbEntity
  8
KONTUR
100
AcDbLine
 10
868.1245025652
 20
2220.601311171
 30
0.0
 11
868.1245025652
 21
2221.803059296
 31
0.0
  0
LINE
  5
254
330
1F
100
AcDbEntity
  8
KONTUR
100
AcDbLine
 10
868.1245025652
 20
2221.803059296
 30
0.0
 11
869.1877524734
 21
2220.7398093879
 31
0.0
  0
ARC
  5
255
330
1F
100
AcDbEntity
  8
KONTUR
100
AcDbCircle
 10
867.7870059402
 20
2227.3428009753
 30
0.0
 40
6.749932499996614
100
AcDbArc
 50
281.9770620644
 51
288.578276913
  0
LINE
  5
256
330
1F
100
AcDbEntity
  8
KONTUR
100
AcDbLine
 10
868.1245025652
 20
2222.7576439047
 30
0.0
 11
869.9375340975
 21
2220.9446123724
 31
0.0
  0
LINE
  5
257
330
1F
100
AcDbEntity
  8
KONTUR
100
AcDbLine
 10
868.1245025652
 20
2222.7576439047
 30
0.0
 11
868.1245025652
 21
2226.528012046
 31
0.0
  0
LINE
  5
258
330
1F
100
AcDbEntity
  8
KONTUR
100
AcDbLine
 10
870.7905554455
 20
2223.8619591657
 30
0.0
 11
870.7905554455
 21
2221.2979453837
 31
0.0
  0
ARC
  5
259
330
1F
100
AcDbEntity
  8
KONTUR
100
AcDbCircle
 10
867.7870059402
 20
2227.3428009753
 30
0.0
 40
6.749932499997077
100
AcDbArc
 50
296.4217230869
 51
303.0229379354
  0
LINE
  5
25A
330
1F
100
AcDbEntity
  8
KONTUR
100
AcDbLine
 10
872.315312944
 20
2222.3372016672
 30
0.0
 11
871.4655486955
 21
2223.1869659157
 31
0.0
  0
ARC
  5
25B
330
1F
100
AcDbEntity
  8
KONTUR
100
AcDbCircle
 10
867.7870059402
 20
2227.3428009753
 30
0.0
 40
6.749932499998776
100
AcDbArc
 50
312.1340160173
 51
317.8659839825
  0
LINE
  5
25C
330
1F
100
AcDbEntity
  8
KONTUR
100
AcDbLine
 10
872.7926052484
 20
2222.8144939715
 30
0.0
 11
871.9428409999
 21
2223.66425822
 31
0.0
  0
LINE
  5
25D
330
1F
100
AcDbEntity
  8
KONTUR
100
AcDbLine
 10
871.9428409999
 20
2223.66425822
 30
0.0
 11
873.4465034402
 21
2223.66425822
 31
0.0
  0
ARC
  5
25E
330
1F
100
AcDbEntity
  8
KONTUR
100
AcDbCircle
 10
867.7870059402
 20
2227.3428009753
 30
0.0
 40
6.749932500000694
100
AcDbArc
 50
326.9770620644
 51
333.5782769131
  0
LINE
  5
25F
330
1F
100
AcDbEntity
  8
KONTUR
100
AcDbLine
 10
871.2678477499
 20
2224.33925147
 30
0.0
 11
873.8318615319
 21
2224.33925147
 31
0.0
  0
LINE
  5
260
330
1F
100
AcDbEntity
  8
KONTUR
100
AcDbLine
 10
871.2678477499
 20
2224.33925147
 30
0.0
 11
868.6017948696
 21
2227.0053043503
 31
0.0
  0
LINE
  5
261
330
1F
100
AcDbEntity
  8
KONTUR
100
AcDbLine
 10
872.3721630109
 20
2227.0053043503
 30
0.0
 11
868.6017948696
 21
2227.0053043503
 31
0.0
  0
LINE
  5
262
330
1F
100
AcDbEntity
  8
KONTUR
100
AcDbLine
 10
872.3721630109
 20
2227.0053043503
 30
0.0
 11
874.1851945432
 21
2225.192272818
 31
0.0
  0
ARC
  5
263
330
1F
100
AcDbEntity
  8
KONTUR
100
AcDbCircle
 10
867.7870059402
 20
2227.3428009753
 30
0.0
 40
6.749932500000072
100
AcDbArc
 50
341.4217230869
 51
348.0229379355
  0
LINE
  5
264
330
1F
100
AcDbEntity
  8
KONTUR
100
AcDbLine
 10
873.3267476196
 20
2227.0053043503
 30
0.0
 11
874.3899975277
 21
2225.9420544422
 31
0.0
  0
LINE
  5
265
330
1F
100
AcDbEntity
  8
KONTUR
100
AcDbLine
 10
874.5284957446
 20
2227.0053043503
 30
0.0
 11
873.3267476196
 21
2227.0053043503
 31
0.0
  0
ARC
  5
266
330
1F
100
AcDbEntity
  8
KONTUR
100
AcDbCircle
 10
867.7870059402
 20
2227.3428009753
 30
0.0
 40
6.749932499999301
100
AcDbArc
 50
357.1340160174
 51
2.8659839826
  0
LINE
  5
267
330
1F
100
AcDbEntity
  8
KONTUR
100
AcDbLine
 10
874.5284957446
 20
2227.6802976003
 30
0.0
 11
873.3267476196
 21
2227.6802976003
 31
0.0
  0
LINE
  5
268
330
1F
100
AcDbEntity
  8
KONTUR
100
AcDbLine
 10
873.3267476196
 20
2227.6802976003
 30
0.0
 11
874.3899975277
 21
2228.7435475085
 31
0.0
  0
ARC
  5
269
330
1F
100
AcDbEntity
  8
KONTUR
100
AcDbCircle
 10
867.7870059402
 20
2227.3428009753
 30
0.0
 40
6.749932500009686
100
AcDbArc
 50
11.9770620645
 51
18.578276913
  0
LINE
  5
26A
330
1F
100
AcDbEntity
  8
KONTUR
100
AcDbLine
 10
872.3721630109
 20
2227.6802976003
 30
0.0
 11
874.1851945432
 21
2229.4933291326
 31
0.0
  0
LINE
  5
26B
330
1F
100
AcDbEntity
  8
KONTUR
100
AcDbLine
 10
872.3721630109
 20
2227.6802976003
 30
0.0
 11
868.6017948696
 21
2227.6802976003
 31
0.0
  0
LINE
  5
26C
330
1F
100
AcDbEntity
  8
KONTUR
100
AcDbLine
 10
871.2678477499
 20
2230.3463504807
 30
0.0
 11
868.6017948696
 21
2227.6802976003
 31
0.0
  0
LINE
  5
26D
330
1F
100
AcDbEntity
  8
KONTUR
100
AcDbLine
 10
871.2678477499
 20
2230.3463504807
 30
0.0
 11
873.8318615319
 21
2230.3463504807
 31
0.0
  0
ARC
  5
26E
330
1F
100
AcDbEntity
  8
KONTUR
100
AcDbCircle
 10
867.7870059402
 20
2227.3428009753
 30
0.0
 40
6.749932500010742
100
AcDbArc
 50
26.4217230869
 51
33.0229379355
  0
LINE
  5
26F
330
1F
100
AcDbEntity
  8
KONTUR
100
AcDbLine
 10
871.9428409999
 20
2231.0213437307
 30
0.0
 11
873.4465034402
 21
2231.0213437307
 31
0.0
  0
LINE
  5
270
330
1F
100
AcDbEntity
  8
KONTUR
100
AcDbLine
 10
872.7926052484
 20
2231.8711079792
 30
0.0
 11
871.9428409999
 21
2231.0213437307
 31
0.0
  0
ARC
  5
271
330
1F
100
AcDbEntity
  8
KONTUR
100
AcDbCircle
 10
867.7870059402
 20
2227.3428009753
 30
0.0
 40
6.749932500000294
100
AcDbArc
 50
42.1340160174
 51
47.8659839826
  0
LINE
  5
272
330
1F
100
AcDbEntity
  8
KONTUR
100
AcDbLine
 10
872.3153129441
 20
2232.3484002835
 30
0.0
 11
871.4655486955
 21
2231.498636035
 31
0.0
  0
LINE
  5
273
330
1F
100
AcDbEntity
  8
KONTUR
100
AcDbLine
 10
871.4655486955
 20
2231.498636035
 30
0.0
 11
871.4655486955
 21
2233.0022984753
 31
0.0
  0
ARC
  5
274
330
1F
100
AcDbEntity
  8
KONTUR
100
AcDbCircle
 10
867.7870059402
 20
2227.3428009753
 30
0.0
 40
6.749932499990195
100
AcDbArc
 50
56.9770620645
 51
63.578276913
  0
LINE
  5
275
330
1F
100
AcDbEntity
  8
KONTUR
100
AcDbLine
 10
870.7905554455
 20
2230.823642785
 30
0.0
 11
870.7905554455
 21
2233.387656567
 31
0.0
  0
LINE
  5
276
330
1F
100
AcDbEntity
  8
KONTUR
100
AcDbLine
 10
870.7905554455
 20
2230.823642785
 30
0.0
 11
868.1245025652
 21
2228.1575899047
 31
0.0
  0
LINE
  5
277
330
1F
100
AcDbEntity
  8
KONTUR
100
AcDbLine
 10
868.1245025652
 20
2231.927958046
 30
0.0
 11
868.1245025652
 21
2228.1575899047
 31
0.0
  0
LINE
  5
278
330
1F
100
AcDbEntity
  8
KONTUR
100
AcDbLine
 10
868.1245025652
 20
2231.927958046
 30
0.0
 11
869.9375340975
 21
2233.7409895783
 31
0.0
  0
ARC
  5
279
330
1F
100
AcDbEntity
  8
KONTUR
100
AcDbCircle
 10
867.7870059402
 20
2227.3428009753
 30
0.0
 40
6.749932499988914
100
AcDbArc
 50
71.421723087
 51
78.0229379355
  0
LINE
  5
27A
330
1F
100
AcDbEntity
  8
KONTUR
100
AcDbLine
 10
868.1245025652
 20
2232.8825426547
 30
0.0
 11
869.1877524734
 21
2233.9457925628
 31
0.0
  0
LINE
  5
27B
330
1F
100
AcDbEntity
  8
KONTUR
100
AcDbLine
 10
868.1245025652
 20
2234.0842907797
 30
0.0
 11
868.1245025652
 21
2232.8825426547
 31
0.0
  0
ARC
  5
27C
330
1F
100
AcDbEntity
  8
KONTUR
100
AcDbCircle
 10
867.7870059402
 20
2227.3428009753
 30
0.0
 40
6.749932499989149
100
AcDbArc
 50
87.1340160174
 51
92.8659839826
  0
LINE
  5
27D
330
1F
100
AcDbEntity
  8
KONTUR
100
AcDbLine
 10
867.4495093152
 20
2234.0842907797
 30
0.0
 11
867.4495093152
 21
2232.8825426547
 31
0.0
  0
LINE
  5
27E
330
1F
100
AcDbEntity
  8
KONTUR
100
AcDbLine
 10
867.4495093152
 20
2232.8825426547
 30
0.0
 11
866.3862594071
 21
2233.9457925628
 31
0.0
  0
ARC
  5
27F
330
1F
100
AcDbEntity
  8
KONTUR
100
AcDbCircle
 10
867.7870059402
 20
2227.3428009753
 30
0.0
 40
6.749932499991638
100
AcDbArc
 50
101.9770620646
 51
108.5782769131
  0
LINE
  5
280
330
1F
100
AcDbEntity
  8
KONTUR
100
AcDbLine
 10
867.4495093152
 20
2231.927958046
 30
0.0
 11
865.6364777829
 21
2233.7409895783
 31
0.0
  0
LINE
  5
281
330
1F
100
AcDbEntity
  8
KONTUR
100
AcDbLine
 10
867.4495093152
 20
2231.927958046
 30
0.0
 11
867.4495093152
 21
2228.1575899047
 31
0.0
  0
LINE
  5
282
330
1F
100
AcDbEntity
  8
KONTUR
100
AcDbLine
 10
864.7834564349
 20
2230.823642785
 30
0.0
 11
867.4495093152
 21
2228.1575899047
 31
0.0
  0
LINE
  5
283
330
1F
100
AcDbEntity
  8
KONTUR
100
AcDbLine
 10
864.7834564349
 20
2230.823642785
 30
0.0
 11
864.7834564349
 21
2233.387656567
 31
0.0
  0
ARC
  5
284
330
1F
100
AcDbEntity
  8
KONTUR
100
AcDbCircle
 10
867.7870059402
 20
2227.3428009753
 30
0.0
 40
6.749932499991718
100
AcDbArc
 50
116.421723087
 51
123.0229379356
  0
LINE
  5
285
330
1F
100
AcDbEntity
  8
KONTUR
100
AcDbLine
 10
864.1084631849
 20
2231.498636035
 30
0.0
 11
864.1084631849
 21
2233.0022984753
 31
0.0
  0
LINE
  5
286
330
1F
100
AcDbEntity
  8
KONTUR
100
AcDbLine
 10
863.2586989364
 20
2232.3484002835
 30
0.0
 11
864.1084631849
 21
2231.498636035
 31
0.0
  0
ARC
  5
287
330
1F
100
AcDbEntity
  8
KONTUR
100
AcDbCircle
 10
867.7870059402
 20
2227.3428009753
 30
0.0
 40
6.749932499992386
100
AcDbArc
 50
132.1340160175
 51
137.8659839827
  0
LINE
  5
288
330
1F
100
AcDbEntity
  8
KONTUR
100
AcDbLine
 10
863.6311708806
 20
2231.0213437306
 30
0.0
 11
862.1275084403
 21
2231.0213437306
 31
0.0
  0
ARC
  5
289
330
1F
100
AcDbEntity
  8
KONTUR
100
AcDbCircle
 10
867.7870059402
 20
2227.3428009753
 30
0.0
 40
6.74993249999326
100
AcDbArc
 50
146.9770620646
 51
153.578276913
  0
LINE
  5
28A
330
1F
100
AcDbEntity
  8
KONTUR
100
AcDbLine
 10
864.3061641306
 20
2230.3463504806
 30
0.0
 11
861.7421503486
 21
2230.3463504806
 31
0.0
  0
LINE
  5
28B
330
1F
100
AcDbEntity
  8
KONTUR
100
AcDbLine
 10
864.3061641306
 20
2230.3463504806
 30
0.0
 11
866.9722170109
 21
2227.6802976003
 31
0.0
  0
LINE
  5
28C
330
1F
100
AcDbEntity
  8
KONTUR
100
AcDbLine
 10
863.2018488696
 20
2227.6802976003
 30
0.0
 11
866.9722170109
 21
2227.6802976003
 31
0.0
  0
LINE
  5
28D
330
1F
100
AcDbEntity
  8
KONTUR
100
AcDbLine
 10
863.2018488696
 20
2227.6802976003
 30
0.0
 11
861.3888173373
 21
2229.4933291326
 31
0.0
  0
ARC
  5
28E
330
1F
100
AcDbEntity
  8
KONTUR
100
AcDbCircle
 10
867.7870059402
 20
2227.3428009753
 30
0.0
 40
6.749932500000141
100
AcDbArc
 50
161.4217230869
 51
168.0229379355
  0
LINE
  5
28F
330
1F
100
AcDbEntity
  8
KONTUR
100
AcDbLine
 10
862.2472642609
 20
2227.6802976003
 30
0.0
 11
861.1840143527
 21
2228.7435475085
 31
0.0
  0
LINE
  5
290
330
1F
100
AcDbEntity
  8
KONTUR
100
AcDbLine
 10
861.0455161358
 20
2227.6802976003
 30
0.0
 11
862.2472642609
 21
2227.6802976003
 31
0.0
  0
ARC
  5
291
330
1F
100
AcDbEntity
  8
KONTUR
100
AcDbCircle
 10
867.7870059402
 20
2227.3428009753
 30
0.0
 40
6.749932500000096
100
AcDbArc
 50
177.1340160174
 51
182.8659839826
  0
LINE
  5
292
330
1F
100
AcDbEntity
  8
KONTUR
100
AcDbLine
 10
861.0455161358
 20
2227.0053043503
 30
0.0
 11
862.2472642609
 21
2227.0053043503
 31
0.0
  0
LINE
  5
293
330
1F
100
AcDbEntity
  8
KONTUR
100
AcDbLine
 10
862.2472642609
 20
2227.0053043503
 30
0.0
 11
861.1840143528
 21
2225.9420544422
 31
0.0
  0
ARC
  5
294
330
1F
100
AcDbEntity
  8
KONTUR
100
AcDbCircle
 10
867.7870059402
 20
2227.3428009753
 30
0.0
 40
6.749932499990296
100
AcDbArc
 50
191.9770620645
 51
198.5782769131
  0
LINE
  5
295
330
1F
100
AcDbEntity
  8
KONTUR
100
AcDbLine
 10
863.2018488696
 20
2227.0053043503
 30
0.0
 11
861.3888173373
 21
2225.192272818
 31
0.0
  0
LINE
  5
296
330
1F
100
AcDbEntity
  8
KONTUR
100
AcDbLine
 10
864.3061641306
 20
2224.33925147
 30
0.0
 11
866.9722170109
 21
2227.0053043503
 31
0.0
  0
LINE
  5
297
330
1F
100
AcDbEntity
  8
KONTUR
100
AcDbLine
 10
864.3061641306
 20
2224.33925147
 30
0.0
 11
861.7421503486
 21
2224.33925147
 31
0.0
  0
ARC
  5
298
330
1F
100
AcDbEntity
  8
KONTUR
100
AcDbCircle
 10
867.7870059402
 20
2227.3428009753
 30
0.0
 40
6.749932499986235
100
AcDbArc
 50
206.421723087
 51
213.0229379355
  0
LINE
  5
299
330
1F
100
AcDbEntity
  8
KONTUR
100
AcDbLine
 10
863.6311708806
 20
2223.66425822
 30
0.0
 11
862.1275084403
 21
2223.66425822
 31
0.0
  0
LINE
  5
29A
330
1F
100
AcDbEntity
  8
KONTUR
100
AcDbLine
 10
862.7814066321
 20
2222.8144939715
 30
0.0
 11
863.6311708806
 21
2223.66425822
 31
0.0
  0
ARC
  5
29B
330
1F
100
AcDbEntity
  8
KONTUR
100
AcDbCircle
 10
867.7870059402
 20
2227.3428009753
 30
0.0
 40
6.749932499999884
100
AcDbArc
 50
222.1340160174
 51
227.8659839826
  0
LINE
  5
29C
330
1F
100
AcDbEntity
  8
KONTUR
100
AcDbLine
 10
863.2586989364
 20
2222.3372016672
 30
0.0
 11
864.1084631849
 21
2223.1869659157
 31
0.0
  0
ARC
  5
29D
330
1F
100
AcDbEntity
  8
KONTUR
100
AcDbCircle
 10
875.2119316902
 20
2209.0949531534
 30
0.0
 40
6.749932500000379
100
AcDbArc
 50
56.9770620645
 51
63.5782769131
  0
LINE
  5
29E
330
1F
100
AcDbEntity
  8
KONTUR
100
AcDbLine
 10
878.2154811956
 20
2212.5757949631
 30
0.0
 11
878.2154811956
 21
2215.1398087451
 31
0.0
  0
LINE
  5
29F
330
1F
100
AcDbEntity
  8
KONTUR
100
AcDbLine
 10
878.2154811956
 20
2212.5757949631
 30
0.0
 11
875.5494283152
 21
2209.9097420828
 31
0.0
  0
LINE
  5
2A0
330
1F
100
AcDbEntity
  8
KONTUR
100
AcDbLine
 10
875.5494283152
 20
2213.6801102241
 30
0.0
 11
875.5494283152
 21
2209.9097420828
 31
0.0
  0
LINE
  5
2A1
330
1F
100
AcDbEntity
  8
KONTUR
100
AcDbLine
 10
875.5494283152
 20
2213.6801102241
 30
0.0
 11
877.3624598475
 21
2215.4931417564
 31
0.0
  0
ARC
  5
2A2
330
1F
100
AcDbEntity
  8
KONTUR
100
AcDbCircle
 10
875.2119316902
 20
2209.0949531534
 30
0.0
 40
6.749932500001976
100
AcDbArc
 50
71.4217230869
 51
78.0229379355
  0
LINE
  5
2A3
330
1F
100
AcDbEntity
  8
KONTUR
100
AcDbLine
 10
875.5494283152
 20
2214.6346948328
 30
0.0
 11
876.6126782234
 21
2215.6979447409
 31
0.0
  0
LINE
  5
2A4
330
1F
100
AcDbEntity
  8
KONTUR
100
AcDbLine
 10
875.5494283152
 20
2215.8364429578
 30
0.0
 11
875.5494283152
 21
2214.6346948328
 31
0.0
  0
ARC
  5
2A5
330
1F
100
AcDbEntity
  8
KONTUR
100
AcDbCircle
 10
875.2119316902
 20
2209.0949531534
 30
0.0
 40
6.749932500001691
100
AcDbArc
 50
87.1340160174
 51
92.8659839826
  0
LINE
  5
2A6
330
1F
100
AcDbEntity
  8
KONTUR
100
AcDbLine
 10
874.8744350652
 20
2215.8364429578
 30
0.0
 11
874.8744350652
 21
2214.6346948328
 31
0.0
  0
LINE
  5
2A7
330
1F
100
AcDbEntity
  8
KONTUR
100
AcDbLine
 10
874.8744350652
 20
2214.6346948328
 30
0.0
 11
873.8111851571
 21
2215.6979447409
 31
0.0
  0
ARC
  5
2A8
330
1F
100
AcDbEntity
  8
KONTUR
100
AcDbCircle
 10
875.2119316902
 20
2209.0949531534
 30
0.0
 40
6.749932500001541
100
AcDbArc
 50
101.9770620645
 51
108.578276913
  0
LINE
  5
2A9
330
1F
100
AcDbEntity
  8
KONTUR
100
AcDbLine
 10
874.8744350652
 20
2213.6801102241
 30
0.0
 11
873.0614035329
 21
2215.4931417564
 31
0.0
  0
LINE
  5
2AA
330
1F
100
AcDbEntity
  8
KONTUR
100
AcDbLine
 10
874.8744350652
 20
2213.6801102241
 30
0.0
 11
874.8744350652
 21
2209.9097420828
 31
0.0
  0
LINE
  5
2AB
330
1F
100
AcDbEntity
  8
KONTUR
100
AcDbLine
 10
872.2083821849
 20
2212.5757949631
 30
0.0
 11
874.8744350652
 21
2209.9097420828
 31
0.0
  0
LINE
  5
2AC
330
1F
100
AcDbEntity
  8
KONTUR
100
AcDbLine
 10
872.2083821849
 20
2212.5757949631
 30
0.0
 11
872.2083821849
 21
2215.1398087451
 31
0.0
  0
ARC
  5
2AD
330
1F
100
AcDbEntity
  8
KONTUR
100
AcDbCircle
 10
875.2119316902
 20
2209.0949531534
 30
0.0
 40
6.74993250000023
100
AcDbArc
 50
116.4217230869
 51
123.0229379355
  0
LINE
  5
2AE
330
1F
100
AcDbEntity
  8
KONTUR
100
AcDbLine
 10
871.5333889349
 20
2213.2507882131
 30
0.0
 11
871.5333889349
 21
2214.7544506534
 31
0.0
  0
LINE
  5
2AF
330
1F
100
AcDbEntity
  8
KONTUR
100
AcDbLine
 10
870.6836246864
 20
2214.1005524616
 30
0.0
 11
871.5333889349
 21
2213.2507882131
 31
0.0
  0
ARC
  5
2B0
330
1F
100
AcDbEntity
  8
KONTUR
100
AcDbCircle
 10
875.2119316902
 20
2209.0949531534
 30
0.0
 40
6.749932499999792
100
AcDbArc
 50
132.1340160174
 51
137.8659839826
  0
LINE
  5
2B1
330
1F
100
AcDbEntity
  8
KONTUR
100
AcDbLine
 10
870.2063323821
 20
2213.6232601572
 30
0.0
 11
871.0560966306
 21
2212.7734959087
 31
0.0
  0
LINE
  5
2B2
330
1F
100
AcDbEntity
  8
KONTUR
100
AcDbLine
 10
871.0560966306
 20
2212.7734959087
 30
0.0
 11
869.5524341903
 21
2212.7734959087
 31
0.0
  0
ARC
  5
2B3
330
1F
100
AcDbEntity
  8
KONTUR
100
AcDbCircle
 10
875.2119316902
 20
2209.0949531534
 30
0.0
 40
6.749932499998998
100
AcDbArc
 50
146.9770620645
 51
153.5782769131
  0
LINE
  5
2B4
330
1F
100
AcDbEntity
  8
KONTUR
100
AcDbLine
 10
871.7310898806
 20
2212.0985026587
 30
0.0
 11
869.1670760986
 21
2212.0985026587
 31
0.0
  0
LINE
  5
2B5
330
1F
100
AcDbEntity
  8
KONTUR
100
AcDbLine
 10
871.7310898806
 20
2212.0985026587
 30
0.0
 11
874.3971427609
 21
2209.4324497784
 31
0.0
  0
LINE
  5
2B6
330
1F
100
AcDbEntity
  8
KONTUR
100
AcDbLine
 10
870.6267746196
 20
2209.4324497784
 30
0.0
 11
874.3971427609
 21
2209.4324497784
 31
0.0
  0
LINE
  5
2B7
330
1F
100
AcDbEntity
  8
KONTUR
100
AcDbLine
 10
870.6267746196
 20
2209.4324497784
 30
0.0
 11
868.8137430873
 21
2211.2454813107
 31
0.0
  0
ARC
  5
2B8
330
1F
100
AcDbEntity
  8
KONTUR
100
AcDbCircle
 10
875.2119316902
 20
2209.0949531534
 30
0.0
 40
6.749932499998347
100
AcDbArc
 50
161.4217230869
 51
168.0229379355
  0
LINE
  5
2B9
330
1F
100
AcDbEntity
  8
KONTUR
100
AcDbLine
 10
869.6721900109
 20
2209.4324497784
 30
0.0
 11
868.6089401028
 21
2210.4956996866
 31
0.0
  0
LINE
  5
2BA
330
1F
100
AcDbEntity
  8
KONTUR
100
AcDbLine
 10
868.4704418859
 20
2209.4324497784
 30
0.0
 11
869.6721900109
 21
2209.4324497784
 31
0.0
  0
ARC
  5
2BB
330
1F
100
AcDbEntity
  8
KONTUR
100
AcDbCircle
 10
875.2119316902
 20
2209.0949531534
 30
0.0
 40
6.749932499997847
100
AcDbArc
 50
177.1340160174
 51
182.8659839826
  0
LINE
  5
2BC
330
1F
100
AcDbEntity
  8
KONTUR
100
AcDbLine
 10
868.4704418859
 20
2208.7574565284
 30
0.0
 11
869.6721900109
 21
2208.7574565284
 31
0.0
  0
LINE
  5
2BD
330
1F
100
AcDbEntity
  8
KONTUR
100
AcDbLine
 10
869.6721900109
 20
2208.7574565284
 30
0.0
 11
868.6089401028
 21
2207.6942066203
 31
0.0
  0
ARC
  5
2BE
330
1F
100
AcDbEntity
  8
KONTUR
100
AcDbCircle
 10
875.2119316902
 20
2209.0949531534
 30
0.0
 40
6.749932499997157
100
AcDbArc
 50
191.9770620645
 51
198.5782769131
  0
LINE
  5
2BF
330
1F
100
AcDbEntity
  8
KONTUR
100
AcDbLine
 10
870.6267746196
 20
2208.7574565284
 30
0.0
 11
868.8137430873
 21
2206.9444249961
 31
0.0
  0
LINE
  5
2C0
330
1F
100
AcDbEntity
  8
KONTUR
100
AcDbLine
 10
870.6267746196
 20
2208.7574565284
 30
0.0
 11
874.3971427609
 21
2208.7574565284
 31
0.0
  0
LINE
  5
2C1
330
1F
100
AcDbEntity
  8
KONTUR
100
AcDbLine
 10
871.7310898806
 20
2206.0914036481
 30
0.0
 11
874.3971427609
 21
2208.7574565284
 31
0.0
  0
LINE
  5
2C2
330
1F
100
AcDbEntity
  8
KONTUR
100
AcDbLine
 10
871.7310898806
 20
2206.0914036481
 30
0.0
 11
869.1670760986
 21
2206.0914036481
 31
0.0
  0
ARC
  5
2C3
330
1F
100
AcDbEntity
  8
KONTUR
100
AcDbCircle
 10
875.2119316902
 20
2209.0949531534
 30
0.0
 40
6.74993249999753
100
AcDbArc
 50
206.4217230869
 51
213.0229379355
  0
LINE
  5
2C4
330
1F
100
AcDbEntity
  8
KONTUR
100
AcDbLine
 10
871.0560966306
 20
2205.4164103981
 30
0.0
 11
869.5524341903
 21
2205.4164103981
 31
0.0
  0
LINE
  5
2C5
330
1F
100
AcDbEntity
  8
KONTUR
100
AcDbLine
 10
870.2063323821
 20
2204.5666461496
 30
0.0
 11
871.0560966306
 21
2205.4164103981
 31
0.0
  0
ARC
  5
2C6
330
1F
100
AcDbEntity
  8
KONTUR
100
AcDbCircle
 10
875.2119316902
 20
2209.0949531534
 30
0.0
 40
6.749932500000194
100
AcDbArc
 50
222.1340160174
 51
227.8659839826
  0
LINE
  5
2C7
330
1F
100
AcDbEntity
  8
KONTUR
100
AcDbLine
 10
870.6836246864
 20
2204.0893538453
 30
0.0
 11
871.5333889349
 21
2204.9391180938
 31
0.0
  0
LINE
  5
2C8
330
1F
100
AcDbEntity
  8
KONTUR
100
AcDbLine
 10
871.5333889349
 20
2204.9391180938
 30
0.0
 11
871.5333889349
 21
2203.4354556535
 31
0.0
  0
ARC
  5
2C9
330
1F
100
AcDbEntity
  8
KONTUR
100
AcDbCircle
 10
875.2119316902
 20
2209.0949531534
 30
0.0
 40
6.749932500001107
100
AcDbArc
 50
236.9770620645
 51
243.5782769129
  0
LINE
  5
2CA
330
1F
100
AcDbEntity
  8
KONTUR
100
AcDbLine
 10
872.2083821849
 20
2205.6141113438
 30
0.0
 11
872.2083821849
 21
2203.0500975618
 31
0.0
  0
LINE
  5
2CB
330
1F
100
AcDbEntity
  8
KONTUR
100
AcDbLine
 10
872.2083821849
 20
2205.6141113438
 30
0.0
 11
874.8744350652
 21
2208.2801642241
 31
0.0
  0
LINE
  5
2CC
330
1F
100
AcDbEntity
  8
KONTUR
100
AcDbLine
 10
874.8744350652
 20
2204.5097960828
 30
0.0
 11
874.8744350652
 21
2208.2801642241
 31
0.0
  0
LINE
  5
2CD
330
1F
100
AcDbEntity
  8
KONTUR
100
AcDbLine
 10
874.8744350652
 20
2204.5097960828
 30
0.0
 11
873.0614035329
 21
2202.6967645505
 31
0.0
  0
ARC
  5
2CE
330
1F
100
AcDbEntity
  8
KONTUR
100
AcDbCircle
 10
875.2119316902
 20
2209.0949531534
 30
0.0
 40
6.749932499999597
100
AcDbArc
 50
251.4217230868
 51
258.0229379355
  0
LINE
  5
2CF
330
1F
100
AcDbEntity
  8
KONTUR
100
AcDbLine
 10
874.8744350652
 20
2203.5552114741
 30
0.0
 11
873.8111851571
 21
2202.4919615659
 31
0.0
  0
LINE
  5
2D0
330
1F
100
AcDbEntity
  8
KONTUR
100
AcDbLine
 10
874.8744350652
 20
2202.353463349
 30
0.0
 11
874.8744350652
 21
2203.5552114741
 31
0.0
  0
ARC
  5
2D1
330
1F
100
AcDbEntity
  8
KONTUR
100
AcDbCircle
 10
875.2119316902
 20
2209.0949531534
 30
0.0
 40
6.749932499998524
100
AcDbArc
 50
267.1340160174
 51
272.8659839826
  0
LINE
  5
2D2
330
1F
100
AcDbEntity
  8
KONTUR
100
AcDbLine
 10
875.5494283152
 20
2202.353463349
 30
0.0
 11
875.5494283152
 21
2203.5552114741
 31
0.0
  0
LINE
  5
2D3
330
1F
100
AcDbEntity
  8
KONTUR
100
AcDbLine
 10
875.5494283152
 20
2203.5552114741
 30
0.0
 11
876.6126782234
 21
2202.4919615659
 31
0.0
  0
ARC
  5
2D4
330
1F
100
AcDbEntity
  8
KONTUR
100
AcDbCircle
 10
875.2119316902
 20
2209.0949531534
 30
0.0
 40
6.749932499998569
100
AcDbArc
 50
281.9770620645
 51
288.5782769131
  0
LINE
  5
2D5
330
1F
100
AcDbEntity
  8
KONTUR
100
AcDbLine
 10
875.5494283152
 20
2204.5097960828
 30
0.0
 11
877.3624598475
 21
2202.6967645505
 31
0.0
  0
LINE
  5
2D6
330
1F
100
AcDbEntity
  8
KONTUR
100
AcDbLine
 10
875.5494283152
 20
2204.5097960828
 30
0.0
 11
875.5494283152
 21
2208.2801642241
 31
0.0
  0
LINE
  5
2D7
330
1F
100
AcDbEntity
  8
KONTUR
100
AcDbLine
 10
878.2154811956
 20
2205.6141113438
 30
0.0
 11
875.5494283152
 21
2208.2801642241
 31
0.0
  0
LINE
  5
2D8
330
1F
100
AcDbEntity
  8
KONTUR
100
AcDbLine
 10
878.2154811956
 20
2205.6141113438
 30
0.0
 11
878.2154811956
 21
2203.0500975618
 31
0.0
  0
ARC
  5
2D9
330
1F
100
AcDbEntity
  8
KONTUR
100
AcDbCircle
 10
875.2119316902
 20
2209.0949531534
 30
0.0
 40
6.749932499999312
100
AcDbArc
 50
296.421723087
 51
303.0229379355
  0
LINE
  5
2DA
330
1F
100
AcDbEntity
  8
KONTUR
100
AcDbLine
 10
878.8904744456
 20
2204.9391180938
 30
0.0
 11
878.8904744456
 21
2203.4354556535
 31
0.0
  0
LINE
  5
2DB
330
1F
100
AcDbEntity
  8
KONTUR
100
AcDbLine
 10
879.7402386941
 20
2204.0893538453
 30
0.0
 11
878.8904744456
 21
2204.9391180938
 31
0.0
  0
ARC
  5
2DC
330
1F
100
AcDbEntity
  8
KONTUR
100
AcDbCircle
 10
875.2119316902
 20
2209.0949531534
 30
0.0
 40
6.749932499999868
100
AcDbArc
 50
312.1340160174
 51
317.8659839826
  0
LINE
  5
2DD
330
1F
100
AcDbEntity
  8
KONTUR
100
AcDbLine
 10
880.2175309984
 20
2204.5666461496
 30
0.0
 11
879.3677667499
 21
2205.4164103981
 31
0.0
  0
LINE
  5
2DE
330
1F
100
AcDbEntity
  8
KONTUR
100
AcDbLine
 10
879.3677667499
 20
2205.4164103981
 30
0.0
 11
880.8714291902
 21
2205.4164103981
 31
0.0
  0
ARC
  5
2DF
330
1F
100
AcDbEntity
  8
KONTUR
100
AcDbCircle
 10
875.2119316902
 20
2209.0949531534
 30
0.0
 40
6.749932500000385
100
AcDbArc
 50
326.9770620645
 51
333.5782769131
  0
LINE
  5
2E0
330
1F
100
AcDbEntity
  8
KONTUR
100
AcDbLine
 10
878.6927734999
 20
2206.0914036481
 30
0.0
 11
881.2567872819
 21
2206.0914036481
 31
0.0
  0
LINE
  5
2E1
330
1F
100
AcDbEntity
  8
KONTUR
100
AcDbLine
 10
878.6927734999
 20
2206.0914036481
 30
0.0
 11
876.0267206196
 21
2208.7574565284
 31
0.0
  0
LINE
  5
2E2
330
1F
100
AcDbEntity
  8
KONTUR
100
AcDbLine
 10
879.7970887609
 20
2208.7574565284
 30
0.0
 11
876.0267206196
 21
2208.7574565284
 31
0.0
  0
LINE
  5
2E3
330
1F
100
AcDbEntity
  8
KONTUR
100
AcDbLine
 10
879.7970887609
 20
2208.7574565284
 30
0.0
 11
881.6101202932
 21
2206.9444249961
 31
0.0
  0
ARC
  5
2E4
330
1F
100
AcDbEntity
  8
KONTUR
100
AcDbCircle
 10
875.2119316902
 20
2209.0949531534
 30
0.0
 40
6.749932500000747
100
AcDbArc
 50
341.421723087
 51
348.0229379355
  0
LINE
  5
2E5
330
1F
100
AcDbEntity
  8
KONTUR
100
AcDbLine
 10
880.7516733696
 20
2208.7574565284
 30
0.0
 11
881.8149232777
 21
2207.6942066203
 31
0.0
  0
LINE
  5
2E6
330
1F
100
AcDbEntity
  8
KONTUR
100
AcDbLine
 10
881.9534214946
 20
2208.7574565284
 30
0.0
 11
880.7516733696
 21
2208.7574565284
 31
0.0
  0
ARC
  5
2E7
330
1F
100
AcDbEntity
  8
KONTUR
100
AcDbCircle
 10
875.2119316902
 20
2209.0949531534
 30
0.0
 40
6.749932500000936
100
AcDbArc
 50
357.1340160174
 51
2.8659839826
  0
LINE
  5
2E8
330
1F
100
AcDbEntity
  8
KONTUR
100
AcDbLine
 10
881.9534214946
 20
2209.4324497784
 30
0.0
 11
880.7516733696
 21
2209.4324497784
 31
0.0
  0
LINE
  5
2E9
330
1F
100
AcDbEntity
  8
KONTUR
100
AcDbLine
 10
880.7516733696
 20
2209.4324497784
 30
0.0
 11
881.8149232777
 21
2210.4956996866
 31
0.0
  0
ARC
  5
2EA
330
1F
100
AcDbEntity
  8
KONTUR
100
AcDbCircle
 10
875.2119316902
 20
2209.0949531534
 30
0.0
 40
6.74993250000115
100
AcDbArc
 50
11.9770620645
 51
18.5782769131
  0
LINE
  5
2EB
330
1F
100
AcDbEntity
  8
KONTUR
100
AcDbLine
 10
879.7970887609
 20
2209.4324497784
 30
0.0
 11
881.6101202932
 21
2211.2454813107
 31
0.0
  0
LINE
  5
2EC
330
1F
100
AcDbEntity
  8
KONTUR
100
AcDbLine
 10
879.7970887609
 20
2209.4324497784
 30
0.0
 11
876.0267206196
 21
2209.4324497784
 31
0.0
  0
LINE
  5
2ED
330
1F
100
AcDbEntity
  8
KONTUR
100
AcDbLine
 10
878.6927734999
 20
2212.0985026587
 30
0.0
 11
876.0267206196
 21
2209.4324497784
 31
0.0
  0
LINE
  5
2EE
330
1F
100
AcDbEntity
  8
KONTUR
100
AcDbLine
 10
878.6927734999
 20
2212.0985026587
 30
0.0
 11
881.2567872819
 21
2212.0985026587
 31
0.0
  0
ARC
  5
2EF
330
1F
100
AcDbEntity
  8
KONTUR
100
AcDbCircle
 10
875.2119316902
 20
2209.0949531534
 30
0.0
 40
6.749932500001596
100
AcDbArc
 50
26.421723087
 51
33.0229379355
  0
LINE
  5
2F0
330
1F
100
AcDbEntity
  8
KONTUR
100
AcDbLine
 10
879.3677667499
 20
2212.7734959087
 30
0.0
 11
880.8714291902
 21
2212.7734959087
 31
0.0
  0
LINE
  5
2F1
330
1F
100
AcDbEntity
  8
KONTUR
100
AcDbLine
 10
880.2175309984
 20
2213.6232601572
 30
0.0
 11
879.3677667499
 21
2212.7734959087
 31
0.0
  0
ARC
  5
2F2
330
1F
100
AcDbEntity
  8
KONTUR
100
AcDbCircle
 10
875.2119316902
 20
2209.0949531534
 30
0.0
 40
6.749932500000326
100
AcDbArc
 50
42.1340160174
 51
47.8659839826
  0
LINE
  5
2F3
330
1F
100
AcDbEntity
  8
KONTUR
100
AcDbLine
 10
879.7402386941
 20
2214.1005524616
 30
0.0
 11
878.8904744456
 21
2213.2507882131
 31
0.0
  0
LINE
  5
2F4
330
1F
100
AcDbEntity
  8
KONTUR
100
AcDbLine
 10
915.6515990338
 20
2211.251669449
 30
0.0
 11
915.6515990338
 21
2211.4104752243
 31
0.0
  0
LINE
  5
2F5
330
1F
100
AcDbEntity
  8
KONTUR
100
AcDbLine
 10
918.7433717224
 20
2211.251669449
 30
0.0
 11
915.6515990338
 21
2211.251669449
 31
0.0
  0
LINE
  5
2F6
330
1F
100
AcDbEntity
  8
KONTUR
100
AcDbLine
 10
918.7433717224
 20
2211.4210544373
 30
0.0
 11
918.7433717224
 21
2211.251669449
 31
0.0
  0
ARC
  5
2F7
330
1F
100
AcDbEntity
  8
KONTUR
100
AcDbCircle
 10
920.5021632776
 20
2211.4807278756
 30
0.0
 40
1.759803583942618
100
AcDbArc
 50
133.2347973525
 51
181.9432235229
  0
ARC
  5
2F8
330
1F
100
AcDbEntity
  8
KONTUR
100
AcDbCircle
 10
921.1229885032
 20
2209.91824106
 30
0.0
 40
3.380384743048352
100
AcDbArc
 50
74.8720488201
 51
122.7010558959
  0
ARC
  5
2F9
330
1F
100
AcDbEntity
  8
KONTUR
100
AcDbCircle
 10
921.716128587
 20
2211.8887320772
 30
0.0
 40
1.324670321588417
100
AcDbArc
 50
282.6039688549
 51
77.3960311451
  0
ARC
  5
2FA
330
1F
100
AcDbEntity
  8
KONTUR
100
AcDbCircle
 10
920.2581467578
 20
2215.2617891999
 30
0.0
 40
4.982156475659792
100
AcDbArc
 50
273.6255557556
 51
290.5276431155
  0
LINE
  5
2FB
330
1F
100
AcDbEntity
  8
KONTUR
100
AcDbLine
 10
920.5731967367
 20
2210.2896038998
 30
0.0
 11
918.9090024188
 21
2210.0609154454
 31
0.0
  0
ARC
  5
2FC
330
1F
100
AcDbEntity
  8
KONTUR
100
AcDbCircle
 10
919.6234694642
 20
2205.0666133296
 30
0.0
 40
5.045147845525816
100
AcDbArc
 50
98.1412921492
 51
127.0168745493
  0
ARC
  5
2FD
330
1F
100
AcDbEntity
  8
KONTUR
100
AcDbCircle
 10
919.0544750071
 20
2206.0682987313
 30
0.0
 40
3.905614219592637
100
AcDbArc
 50
129.1995309556
 51
275.8825513548
  0
ARC
  5
2FE
330
1F
100
AcDbEntity
  8
KONTUR
100
AcDbCircle
 10
918.9871365499
 20
2207.9850872256
 30
0.0
 40
5.820650568845331
100
AcDbArc
 50
274.608032815
 51
305.8919140692
  0
LINE
  5
2FF
330
1F
100
AcDbEntity
  8
KONTUR
100
AcDbLine
 10
923.1601937163
 20
2203.9323076117
 30
0.0
 11
922.3995397024
 21
2203.2696362642
 31
0.0
  0
LINE
  5
300
330
1F
100
AcDbEntity
  8
KONTUR
100
AcDbLine
 10
923.1601937163
 20
2203.9323076117
 30
0.0
 11
923.1601937163
 21
2203.4668067709
 31
0.0
  0
ARC
  5
301
330
1F
100
AcDbEntity
  8
KONTUR
100
AcDbCircle
 10
924.6897051194
 20
2203.4726956925
 30
0.0
 40
1.529522739838615
100
AcDbArc
 50
180.2205989995
 51
215.7221499347
  0
LINE
  5
302
330
1F
100
AcDbEntity
  8
KONTUR
100
AcDbLine
 10
923.4479500374
 20
2202.5796760242
 30
0.0
 11
926.9382539397
 21
2202.5796760242
 31
0.0
  0
LINE
  5
303
330
1F
100
AcDbEntity
  8
KONTUR
100
AcDbLine
 10
926.9382539397
 20
2202.5796760242
 30
0.0
 11
926.9382539397
 21
2203.1941669315
 31
0.0
  0
ARC
  5
304
330
1F
100
AcDbEntity
  8
KONTUR
100
AcDbCircle
 10
927.6613068665
 20
2204.5606699632
 30
0.0
 40
1.546006491148143
100
AcDbArc
 50
182.1856446511
 51
242.1154981228
  0
LINE
  5
305
330
1F
100
AcDbEntity
  8
KONTUR
100
AcDbLine
 10
926.1164250904
 20
2211.8835848059
 30
0.0
 11
926.1164250904
 21
2204.5017092266
 31
0.0
  0
ARC
  5
306
330
1F
100
AcDbEntity
  8
KONTUR
100
AcDbCircle
 10
922.7221722237
 20
2211.9189300061
 30
0.0
 40
3.394436890942933
100
AcDbArc
 50
359.4033863462
 51
71.3151613485
  0
ARC
  5
307
330
1F
100
AcDbEntity
  8
KONTUR
100
AcDbCircle
 10
921.0216111266
 20
2207.9257504053
 30
0.0
 40
7.729071557808447
100
AcDbArc
 50
68.8557376938
 51
91.4496567651
  0
ARC
  5
308
330
1F
100
AcDbEntity
  8
KONTUR
100
AcDbCircle
 10
928.878695554
 20
2143.5217799464
 30
0.0
 40
72.5786714421755
100
AcDbArc
 50
96.370094023
 51
98.1717232191
  0
ARC
  5
309
330
1F
100
AcDbEntity
  8
KONTUR
100
AcDbCircle
 10
925.9860904064
 20
2200.5897622968
 30
0.0
 40
16.53409300297034
100
AcDbArc
 50
116.6793542866
 51
123.3784651322
  0
ARC
  5
30A
330
1F
100
AcDbEntity
  8
KONTUR
100
AcDbCircle
 10
856.7428754514
 20
2225.2921613471
 30
0.0
 40
0.0674993249995168
100
AcDbArc
 50
90.0
 51
176.432330356
  0
ARC
  5
30B
330
1F
100
AcDbEntity
  8
KONTUR
100
AcDbCircle
 10
854.3147039965
 20
2225.4435534244
 30
0.0
 40
2.365387062652024
100
AcDbArc
 50
187.7930668285
 51
356.4323303556
  0
LINE
  5
30C
330
1F
100
AcDbEntity
  8
KONTUR
100
AcDbLine
 10
851.803912263
 20
2226.4082505883
 30
0.0
 11
851.9711630439
 21
2225.1228171469
 31
0.0
  0
ARC
  5
30D
330
1F
100
AcDbEntity
  8
KONTUR
100
AcDbCircle
 10
858.497424555
 20
2227.2791592811
 30
0.0
 40
6.749932500000345
100
AcDbArc
 50
171.5166951021
 51
187.4132429007
  0
LINE
  5
30E
330
1F
100
AcDbEntity
  8
KONTUR
100
AcDbLine
 10
851.9772254582
 20
2229.3200291432
 30
0.0
 11
851.8213438039
 21
2228.2749175649
 31
0.0
  0
ARC
  5
30F
330
1F
100
AcDbEntity
  8
KONTUR
100
AcDbCircle
 10
854.3145502985
 20
2228.9557206711
 30
0.0
 40
2.365546040988409
100
AcDbArc
 50
3.5710103889
 51
171.1408433078
  0
ARC
  5
310
330
1F
100
AcDbEntity
  8
KONTUR
100
AcDbCircle
 10
856.7428715917
 20
2229.1072642296
 30
0.0
 40
0.0674993250003175
100
AcDbArc
 50
183.5710103881
 51
270.0000000003
  0
LINE
  5
311
330
1F
100
AcDbEntity
  8
KONTUR
100
AcDbLine
 10
859.6267972296
 20
2229.0397649046
 30
0.0
 11
856.7428715917
 21
2229.0397649046
 31
0.0
  0
ARC
  5
312
330
1F
100
AcDbEntity
  8
KONTUR
100
AcDbCircle
 10
859.6267972296
 20
2229.1072642296
 30
0.0
 40
0.0674993250000607
100
AcDbArc
 50
269.9999999999
 51
23.5021874293
  0
LINE
  5
313
330
1F
100
AcDbEntity
  8
KONTUR
100
AcDbLine
 10
859.2663249833
 20
2230.6433305137
 30
0.0
 11
859.688697138
 21
2229.1341818858
 31
0.0
  0
ARC
  5
314
330
1F
100
AcDbEntity
  8
KONTUR
100
AcDbCircle
 10
854.2446748968
 20
2228.5009297531
 30
0.0
 40
5.45956505690249
100
AcDbArc
 50
23.1046864546
 51
171.6932313319
  0
LINE
  5
315
330
1F
100
AcDbEntity
  8
KONTUR
100
AcDbLine
 10
848.6914788514
 20
2228.317996403
 30
0.0
 11
848.8423876188
 21
2229.2896900315
 31
0.0
  0
ARC
  5
316
330
1F
100
AcDbEntity
  8
KONTUR
100
AcDbCircle
 10
855.3614520579
 20
2227.2821169797
 30
0.0
 40
6.749932499999558
100
AcDbArc
 50
171.1722090026
 51
187.8084014418
  0
LINE
  5
317
330
1F
100
AcDbEntity
  8
KONTUR
100
AcDbLine
 10
848.8281853167
 20
2225.2414799989
 30
0.0
 11
848.6741054081
 21
2226.3650654322
 31
0.0
  0
ARC
  5
318
330
1F
100
AcDbEntity
  8
KONTUR
100
AcDbCircle
 10
854.2557783198
 20
2225.9467402096
 30
0.0
 40
5.473221882286014
100
AcDbArc
 50
187.4035187804
 51
336.3436607706
  0
LINE
  5
319
330
1F
100
AcDbEntity
  8
KONTUR
100
AcDbLine
 10
859.7079611255
 20
2225.2647532691
 30
0.0
 11
859.2690778219
 21
2223.7506104604
 31
0.0
  0
ARC
  5
31A
330
1F
100
AcDbEntity
  8
KONTUR
100
AcDbCircle
 10
859.646276799
 20
2225.2921613471
 30
0.0
 40
0.0674993249999716
100
AcDbArc
 50
336.0430789966
 51
89.9999999999
  0
ARC
  5
31B
330
1F
100
AcDbEntity
  8
KONTUR
100
AcDbCircle
 10
864.1678012014
 20
2207.0443135252
 30
0.0
 40
0.0674993249995168
100
AcDbArc
 50
90.000000001
 51
176.4323303552
  0
ARC
  5
31C
330
1F
100
AcDbEntity
  8
KONTUR
100
AcDbCircle
 10
861.7396297465
 20
2207.1957056025
 30
0.0
 40
2.365387062652024
100
AcDbArc
 50
187.7930668285
 51
356.4323303557
  0
LINE
  5
31D
330
1F
100
AcDbEntity
  8
KONTUR
100
AcDbLine
 10
859.228838013
 20
2208.1604027664
 30
0.0
 11
859.3960887939
 21
2206.874969325
 31
0.0
  0
ARC
  5
31E
330
1F
100
AcDbEntity
  8
KONTUR
100
AcDbCircle
 10
865.922350305
 20
2209.0313114592
 30
0.0
 40
6.749932499998716
100
AcDbArc
 50
171.5166951022
 51
187.4132429007
  0
LINE
  5
31F
330
1F
100
AcDbEntity
  8
KONTUR
100
AcDbLine
 10
859.4021512082
 20
2211.0721813213
 30
0.0
 11
859.2462695539
 21
2210.027069743
 31
0.0
  0
ARC
  5
320
330
1F
100
AcDbEntity
  8
KONTUR
100
AcDbCircle
 10
861.7394760485
 20
2210.7078728492
 30
0.0
 40
2.365546040988016
100
AcDbArc
 50
3.5710103888
 51
171.1408433078
  0
ARC
  5
321
330
1F
100
AcDbEntity
  8
KONTUR
100
AcDbCircle
 10
864.1677973417
 20
2210.8594164077
 30
0.0
 40
0.0674993250004263
100
AcDbArc
 50
183.5710103935
 51
270.0000000003
  0
LINE
  5
322
330
1F
100
AcDbEntity
  8
KONTUR
100
AcDbLine
 10
867.0517229796
 20
2210.7919170827
 30
0.0
 11
864.1677973417
 21
2210.7919170827
 31
0.0
  0
ARC
  5
323
330
1F
100
AcDbEntity
  8
KONTUR
100
AcDbCircle
 10
867.0517229796
 20
2210.8594164077
 30
0.0
 40
0.0674993250004263
100
AcDbArc
 50
269.9999999998
 51
23.5021874289
  0
LINE
  5
324
330
1F
100
AcDbEntity
  8
KONTUR
100
AcDbLine
 10
866.6912507333
 20
2212.3954826918
 30
0.0
 11
867.113622888
 21
2210.8863340639
 31
0.0
  0
ARC
  5
325
330
1F
100
AcDbEntity
  8
KONTUR
100
AcDbCircle
 10
861.6696006468
 20
2210.2530819312
 30
0.0
 40
5.459565056902381
100
AcDbArc
 50
23.1046864546
 51
171.6932313319
  0
LINE
  5
326
330
1F
100
AcDbEntity
  8
KONTUR
100
AcDbLine
 10
856.1164046014
 20
2210.0701485811
 30
0.0
 11
856.2673133688
 21
2211.0418422096
 31
0.0
  0
ARC
  5
327
330
1F
100
AcDbEntity
  8
KONTUR
100
AcDbCircle
 10
862.7863778079
 20
2209.0342691578
 30
0.0
 40
6.749932500000608
100
AcDbArc
 50
171.1722090027
 51
187.8084014418
  0
LINE
  5
328
330
1F
100
AcDbEntity
  8
KONTUR
100
AcDbLine
 10
856.2531110667
 20
2206.993632177
 30
0.0
 11
856.0990311581
 21
2208.1172176103
 31
0.0
  0
ARC
  5
329
330
1F
100
AcDbEntity
  8
KONTUR
100
AcDbCircle
 10
861.6807040698
 20
2207.6988923877
 30
0.0
 40
5.473221882286293
100
AcDbArc
 50
187.4035187804
 51
336.3436607706
  0
LINE
  5
32A
330
1F
100
AcDbEntity
  8
KONTUR
100
AcDbLine
 10
867.1328868755
 20
2207.0169054472
 30
0.0
 11
866.6940035719
 21
2205.5027626385
 31
0.0
  0
ARC
  5
32B
330
1F
100
AcDbEntity
  8
KONTUR
100
AcDbCircle
 10
867.071202549
 20
2207.0443135252
 30
0.0
 40
0.0674993250004911
100
AcDbArc
 50
336.0430790015
 51
89.999999997
  0
ARC
  5
32C
330
1F
100
AcDbEntity
  8
KONTUR
100
AcDbCircle
 10
936.2724879444
 20
2207.0443135252
 30
0.0
 40
0.0674993249999716
100
AcDbArc
 50
89.9999999996
 51
176.432330356
  0
ARC
  5
32D
330
1F
100
AcDbEntity
  8
KONTUR
100
AcDbCircle
 10
933.8443164896
 20
2207.1957056025
 30
0.0
 40
2.365387062652024
100
AcDbArc
 50
187.7930668285
 51
356.4323303556
  0
LINE
  5
32E
330
1F
100
AcDbEntity
  8
KONTUR
100
AcDbLine
 10
931.333524756
 20
2208.1604027664
 30
0.0
 11
931.500775537
 21
2206.874969325
 31
0.0
  0
ARC
  5
32F
330
1F
100
AcDbEntity
  8
KONTUR
100
AcDbCircle
 10
938.027037048
 20
2209.0313114592
 30
0.0
 40
6.749932499998772
100
AcDbArc
 50
171.5166951021
 51
187.4132429007
  0
LINE
  5
330
330
1F
100
AcDbEntity
  8
KONTUR
100
AcDbLine
 10
931.5068379512
 20
2211.0721813213
 30
0.0
 11
931.350956297
 21
2210.027069743
 31
0.0
  0
ARC
  5
331
330
1F
100
AcDbEntity
  8
KONTUR
100
AcDbCircle
 10
933.8441627916
 20
2210.7078728492
 30
0.0
 40
2.365546040987931
100
AcDbArc
 50
3.5710103889
 51
171.1408433078
  0
ARC
  5
332
330
1F
100
AcDbEntity
  8
KONTUR
100
AcDbCircle
 10
936.2724840847
 20
2210.8594164077
 30
0.0
 40
0.0674993249999716
100
AcDbArc
 50
183.5710103784
 51
270.0
  0
LINE
  5
333
330
1F
100
AcDbEntity
  8
KONTUR
100
AcDbLine
 10
939.1564097226
 20
2210.7919170827
 30
0.0
 11
936.2724840847
 21
2210.7919170827
 31
0.0
  0
ARC
  5
334
330
1F
100
AcDbEntity
  8
KONTUR
100
AcDbCircle
 10
939.1564097226
 20
2210.8594164077
 30
0.0
 40
0.0674993250000607
100
AcDbArc
 50
270.0
 51
23.5021874293
  0
LINE
  5
335
330
1F
100
AcDbEntity
  8
KONTUR
100
AcDbLine
 10
938.7959374764
 20
2212.3954826918
 30
0.0
 11
939.218309631
 21
2210.8863340639
 31
0.0
  0
ARC
  5
336
330
1F
100
AcDbEntity
  8
KONTUR
100
AcDbCircle
 10
933.7742873899
 20
2210.2530819312
 30
0.0
 40
5.459565056902715
100
AcDbArc
 50
23.1046864546
 51
171.6932313319
  0
LINE
  5
337
330
1F
100
AcDbEntity
  8
KONTUR
100
AcDbLine
 10
928.2210913444
 20
2210.0701485811
 30
0.0
 11
928.3720001119
 21
2211.0418422096
 31
0.0
  0
ARC
  5
338
330
1F
100
AcDbEntity
  8
KONTUR
100
AcDbCircle
 10
934.8910645509
 20
2209.0342691578
 30
0.0
 40
6.749932500000672
100
AcDbArc
 50
171.1722090026
 51
187.8084014418
  0
LINE
  5
339
330
1F
100
AcDbEntity
  8
KONTUR
100
AcDbLine
 10
928.3577978097
 20
2206.993632177
 30
0.0
 11
928.2037179012
 21
2208.1172176103
 31
0.0
  0
ARC
  5
33A
330
1F
100
AcDbEntity
  8
KONTUR
100
AcDbCircle
 10
933.7853908129
 20
2207.6988923877
 30
0.0
 40
5.473221882286183
100
AcDbArc
 50
187.4035187804
 51
336.3436607706
  0
LINE
  5
33B
330
1F
100
AcDbEntity
  8
KONTUR
100
AcDbLine
 10
939.2375736185
 20
2207.0169054472
 30
0.0
 11
938.798690315
 21
2205.5027626385
 31
0.0
  0
ARC
  5
33C
330
1F
100
AcDbEntity
  8
KONTUR
100
AcDbCircle
 10
939.175889292
 20
2207.0443135252
 30
0.0
 40
0.0674993249990621
100
AcDbArc
 50
336.0430789801
 51
90.0000000076
  0
LINE
  5
33D
330
1F
100
AcDbEntity
  8
KONTUR
100
AcDbLine
 10
947.0394401629
 20
2204.7860692806
 30
0.0
 11
947.0394401629
 21
2202.3450970511
 31
0.0
  0
LINE
  5
33E
330
1F
100
AcDbEntity
  8
KONTUR
100
AcDbLine
 10
945.9832148391
 20
2204.7860692806
 30
0.0
 11
947.0394401629
 21
2204.7860692806
 31
0.0
  0
ARC
  5
33F
330
1F
100
AcDbEntity
  8
KONTUR
100
AcDbCircle
 10
945.9832148391
 20
2205.7985591556
 30
0.0
 40
1.012489875000028
100
AcDbArc
 50
180.0000000003
 51
270.0
  0
LINE
  5
340
330
1F
100
AcDbEntity
  8
KONTUR
100
AcDbLine
 10
944.9707249641
 20
2212.8013965078
 30
0.0
 11
944.9707249641
 21
2205.7985591556
 31
0.0
  0
LINE
  5
341
330
1F
100
AcDbEntity
  8
KONTUR
100
AcDbLine
 10
944.9707249641
 20
2212.8013965078
 30
0.0
 11
947.0394401629
 21
2212.8013965078
 31
0.0
  0
LINE
  5
342
330
1F
100
AcDbEntity
  8
KONTUR
100
AcDbLine
 10
947.0394401629
 20
2212.8013965078
 30
0.0
 11
947.0394401629
 21
2215.0531242754
 31
0.0
  0
LINE
  5
343
330
1F
100
AcDbEntity
  8
KONTUR
100
AcDbLine
 10
944.9707249641
 20
2215.0531242754
 30
0.0
 11
947.0394401629
 21
2215.0531242754
 31
0.0
  0
LINE
  5
344
330
1F
100
AcDbEntity
  8
KONTUR
100
AcDbLine
 10
944.9707249641
 20
2219.2199283011
 30
0.0
 11
944.9707249641
 21
2215.0531242754
 31
0.0
  0
LINE
  5
345
330
1F
100
AcDbEntity
  8
KONTUR
100
AcDbLine
 10
941.9332553391
 20
2219.2199283011
 30
0.0
 11
944.9707249641
 21
2219.2199283011
 31
0.0
  0
LINE
  5
346
330
1F
100
AcDbEntity
  8
KONTUR
100
AcDbLine
 10
941.9332553391
 20
2219.2199283011
 30
0.0
 11
941.9332553391
 21
2215.0531242754
 31
0.0
  0
LINE
  5
347
330
1F
100
AcDbEntity
  8
KONTUR
100
AcDbLine
 10
940.2830688289
 20
2215.0531242754
 30
0.0
 11
941.9332553391
 21
2215.0531242754
 31
0.0
  0
LINE
  5
348
330
1F
100
AcDbEntity
  8
KONTUR
100
AcDbLine
 10
940.2830688289
 20
2212.8013965078
 30
0.0
 11
940.2830688289
 21
2215.0531242754
 31
0.0
  0
LINE
  5
349
330
1F
100
AcDbEntity
  8
KONTUR
100
AcDbLine
 10
940.2830688289
 20
2212.8013965078
 30
0.0
 11
941.9332553391
 21
2212.8013965078
 31
0.0
  0
LINE
  5
34A
330
1F
100
AcDbEntity
  8
KONTUR
100
AcDbLine
 10
941.9332553391
 20
2212.8013965078
 30
0.0
 11
941.9332553391
 21
2205.0450700511
 31
0.0
  0
ARC
  5
34B
330
1F
100
AcDbEntity
  8
KONTUR
100
AcDbCircle
 10
944.6332283391
 20
2205.0450700511
 30
0.0
 40
2.699973000000227
100
AcDbArc
 50
180.0
 51
270.0
  0
LINE
  5
34C
330
1F
100
AcDbEntity
  8
KONTUR
100
AcDbLine
 10
900.6021396602
 20
2211.5601545333
 30
0.0
 11
900.6021396602
 21
2202.3450970511
 31
0.0
  0
ARC
  5
34D
330
1F
100
AcDbEntity
  8
KONTUR
100
AcDbCircle
 10
896.6815402721
 20
2211.7664391655
 30
0.0
 40
3.926022530708018
100
AcDbArc
 50
356.9881263247
 51
155.7884035763
  0
ARC
  5
34E
330
1F
100
AcDbEntity
  8
KONTUR
100
AcDbCircle
 10
889.5594132798
 20
2211.8306937746
 30
0.0
 40
3.864126205343483
100
AcDbArc
 50
23.5811993582
 51
147.3519132624
  0
LINE
  5
34F
330
1F
100
AcDbEntity
  8
KONTUR
100
AcDbLine
 10
886.305819304
 20
2215.3001809231
 30
0.0
 11
886.305819304
 21
2213.9153034675
 31
0.0
  0
LINE
  5
350
330
1F
100
AcDbEntity
  8
KONTUR
100
AcDbLine
 10
883.268349679
 20
2215.3001809231
 30
0.0
 11
886.305819304
 21
2215.3001809231
 31
0.0
  0
LINE
  5
351
330
1F
100
AcDbEntity
  8
KONTUR
100
AcDbLine
 10
883.268349679
 20
2215.3001809231
 30
0.0
 11
883.268349679
 21
2202.3450970511
 31
0.0
  0
LINE
  5
352
330
1F
100
AcDbEntity
  8
KONTUR
100
AcDbLine
 10
883.268349679
 20
2202.3450970511
 30
0.0
 11
886.305819304
 21
2202.3450970511
 31
0.0
  0
LINE
  5
353
330
1F
100
AcDbEntity
  8
KONTUR
100
AcDbLine
 10
886.305819304
 20
2210.5981211336
 30
0.0
 11
886.305819304
 21
2202.3450970511
 31
0.0
  0
ARC
  5
354
330
1F
100
AcDbEntity
  8
KONTUR
100
AcDbCircle
 10
888.3645487165
 20
2210.5981211336
 30
0.0
 40
2.058729412500043
100
AcDbArc
 50
0.0
 51
180.0
  0
LINE
  5
355
330
1F
100
AcDbEntity
  8
KONTUR
100
AcDbLine
 10
890.423278129
 20
2210.5981211336
 30
0.0
 11
890.423278129
 21
2202.3450970511
 31
0.0
  0
LINE
  5
356
330
1F
100
AcDbEntity
  8
KONTUR
100
AcDbLine
 10
890.423278129
 20
2202.3450970511
 30
0.0
 11
893.4515445579
 21
2202.3450970511
 31
0.0
  0
LINE
  5
357
330
1F
100
AcDbEntity
  8
KONTUR
100
AcDbLine
 10
893.4515445579
 20
2210.5981211336
 30
0.0
 11
893.4515445579
 21
2202.3450970511
 31
0.0
  0
ARC
  5
358
330
1F
100
AcDbEntity
  8
KONTUR
100
AcDbCircle
 10
895.5102739704
 20
2210.5981211336
 30
0.0
 40
2.058729412500043
100
AcDbArc
 50
0.0
 51
180.0
  0
LINE
  5
359
330
1F
100
AcDbEntity
  8
KONTUR
100
AcDbLine
 10
897.5690033829
 20
2210.5981211336
 30
0.0
 11
897.5690033829
 21
2202.3450970511
 31
0.0
  0
LINE
  5
35A
330
1F
100
AcDbEntity
  8
KONTUR
100
AcDbLine
 10
904.9914497382
 20
2203.9371851589
 30
0.0
 11
904.9914497382
 21
2197.467776123
 31
0.0
  0
ARC
  5
35B
330
1F
100
AcDbEntity
  8
KONTUR
100
AcDbCircle
 10
908.5395547884
 20
2206.730098945
 30
0.0
 40
4.515464191444682
100
AcDbArc
 50
218.2082807071
 51
238.3907464293
  0
ARC
  5
35C
330
1F
100
AcDbEntity
  8
KONTUR
100
AcDbCircle
 10
908.29557286
 20
2206.3336554605
 30
0.0
 40
4.049959500000017
100
AcDbArc
 50
238.3907464293
 51
289.8005710805
  0
ARC
  5
35D
330
1F
100
AcDbEntity
  8
KONTUR
100
AcDbCircle
 10
907.5403724486
 20
2208.4312397003
 30
0.0
 40
6.279351189331279
100
AcDbArc
 50
289.8005710805
 51
325.3436484526
  0
ARC
  5
35E
330
1F
100
AcDbEntity
  8
KONTUR
100
AcDbCircle
 10
904.7571028372
 20
2209.1316866942
 30
0.0
 40
9.023431898378956
100
AcDbArc
 50
331.7481881037
 51
28.2518118963
  0
ARC
  5
35F
330
1F
100
AcDbEntity
  8
KONTUR
100
AcDbCircle
 10
908.0897534803
 20
2209.9703927667
 30
0.0
 40
5.75225339947677
100
AcDbArc
 50
36.6356971957
 51
86.5650016128
  0
ARC
  5
360
330
1F
100
AcDbEntity
  8
KONTUR
100
AcDbCircle
 10
908.3491007593
 20
2211.5407714144
 30
0.0
 40
4.172412471565103
100
AcDbArc
 50
88.8284995959
 51
143.5838533452
  0
LINE
  5
361
330
1F
100
AcDbEntity
  8
KONTUR
100
AcDbLine
 10
904.9914497382
 20
2215.3067592147
 30
0.0
 11
904.9914497382
 21
2214.0177061034
 31
0.0
  0
LINE
  5
362
330
1F
100
AcDbEntity
  8
KONTUR
100
AcDbLine
 10
901.9539801132
 20
2215.3067592147
 30
0.0
 11
904.9914497382
 21
2215.3067592147
 31
0.0
  0
LINE
  5
363
330
1F
100
AcDbEntity
  8
KONTUR
100
AcDbLine
 10
901.9539801132
 20
2215.3067592147
 30
0.0
 11
901.9539801132
 21
2197.467776123
 31
0.0
  0
LINE
  5
364
330
1F
100
AcDbEntity
  8
KONTUR
100
AcDbLine
 10
901.9539801132
 20
2197.467776123
 30
0.0
 11
773.7568791882
 21
2197.467776123
 31
0.0
  0
ARC
  5
365
330
1F
100
AcDbEntity
  8
KONTUR
100
AcDbCircle
 10
1205.4708585773
 20
2240.967776123
 30
0.0
 40
433.9000000000001
100
AcDbArc
 50
180.4621742407
 51
185.7537691588
  0
LINE
  5
366
330
1F
100
AcDbEntity
  8
KONTUR
100
AcDbLine
 10
771.5849749627
 20
2237.467776123
 30
0.0
 11
890.7367764402
 21
2237.467776123
 31
0.0
  0
LINE
  5
367
330
1F
100
AcDbEntity
  8
KONTUR
100
AcDbLine
 10
890.7367764402
 20
2237.467776123
 30
0.0
 11
890.7367764402
 21
2220.592944873
 31
0.0
  0
LINE
  5
368
330
1F
100
AcDbEntity
  8
KONTUR
100
AcDbLine
 10
890.7367764402
 20
2220.592944873
 30
0.0
 11
893.7742460652
 21
2220.592944873
 31
0.0
  0
LINE
  5
369
330
1F
100
AcDbEntity
  8
KONTUR
100
AcDbLine
 10
893.7742460652
 20
2237.467776123
 30
0.0
 11
893.7742460652
 21
2220.592944873
 31
0.0
  0
LINE
  5
36A
330
1F
100
AcDbEntity
  8
KONTUR
100
AcDbLine
 10
893.7742460652
 20
2237.467776123
 30
0.0
 11
966.6056380779
 21
2237.467776123
 31
0.0
  0
ARC
  5
36B
330
1F
100
AcDbEntity
  8
KONTUR
100
AcDbCircle
 10
966.6056380779
 20
2235.467776123
 30
0.0
 40
2.000000000000114
100
AcDbArc
 50
359.9999999999
 51
90.0
  0
LINE
  5
36C
330
1F
100
AcDbEntity
  8
KONTUR
100
AcDbLine
 10
968.6056380779
 20
2235.467776123
 30
0.0
 11
968.6056380779
 21
2197.467776123
 31
0.0
  0
LINE
  5
36D
330
1F
100
AcDbEntity
  8
KONTUR
100
AcDbLine
 10
968.6056380779
 20
2197.467776123
 30
0.0
 11
904.9914497382
 21
2197.467776123
 31
0.0
  0
ARC
  5
36E
330
1F
100
AcDbEntity
  8
KONTUR
100
AcDbCircle
 10
920.4239222765
 20
2211.1816959753
 30
0.0
 40
4.777803792281227
100
AcDbArc
 50
137.7094561079
 51
177.2554126719
  0
ARC
  5
36F
330
1F
100
AcDbEntity
  8
KONTUR
100
AcDbCircle
 10
882.6368574402
 20
2227.3428009753
 30
0.0
 40
6.749932500000515
100
AcDbArc
 50
267.1340160174
 51
272.8659839826
  0
LINE
  5
370
330
1F
100
AcDbEntity
  8
KONTUR
100
AcDbLine
 10
887.2220145109
 20
2227.0053043503
 30
0.0
 11
889.0350460432
 21
2225.192272818
 31
0.0
  0
LINE
  5
371
330
1F
100
AcDbEntity
  8
KONTUR
100
AcDbLine
 10
885.6404069455
 20
2230.823642785
 30
0.0
 11
882.9743540652
 21
2228.1575899047
 31
0.0
  0
LINE
  5
372
330
1F
100
AcDbEntity
  8
KONTUR
100
AcDbLine
 10
877.6312581321
 20
2222.8144939715
 30
0.0
 11
878.4810223806
 21
2223.66425822
 31
0.0
  0
LINE
  5
373
330
1F
100
AcDbEntity
  8
KONTUR
100
AcDbLine
 10
870.7905554455
 20
2223.8619591657
 30
0.0
 11
868.1245025652
 21
2226.528012046
 31
0.0
  0
LINE
  5
374
330
1F
100
AcDbEntity
  8
KONTUR
100
AcDbLine
 10
871.4655486955
 20
2223.1869659157
 30
0.0
 11
871.4655486955
 21
2221.6833034754
 31
0.0
  0
LINE
  5
375
330
1F
100
AcDbEntity
  8
KONTUR
100
AcDbLine
 10
862.7814066321
 20
2231.8711079791
 30
0.0
 11
863.6311708806
 21
2231.0213437306
 31
0.0
  0
LINE
  5
376
330
1F
100
AcDbEntity
  8
KONTUR
100
AcDbLine
 10
863.2018488696
 20
2227.0053043503
 30
0.0
 11
866.9722170109
 21
2227.0053043503
 31
0.0
  0
LINE
  5
377
330
1F
100
AcDbEntity
  8
KONTUR
100
AcDbLine
 10
773.7568791882
 20
2197.467776123
 30
0.0
 11
770.7417935264
 21
2197.467776123
 31
0.0
  0
ARC
  5
378
330
1F
100
AcDbEntity
  8
KONTUR
100
AcDbCircle
 10
1205.4708585773
 20
2240.967776123
 30
0.0
 40
433.9000000000001
100
AcDbArc
 50
185.7537691588
 51
195.1638943503
  0
LINE
  5
379
330
1F
100
AcDbEntity
  8
KONTUR
100
AcDbLine
 10
786.6785950384
 20
2127.467776123
 30
0.0
 11
785.1070161741
 21
2127.467776123
 31
0.0
  0
ARC
  5
37A
330
1F
100
AcDbEntity
  8
KONTUR
100
AcDbCircle
 10
785.1070161741
 20
2129.467776123
 30
0.0
 40
2.0
100
AcDbArc
 50
194.8554180962
 51
270.0
  0
ARC
  5
37B
330
1F
100
AcDbEntity
  8
KONTUR
100
AcDbCircle
 10
1205.4708585773
 20
2240.967776123
 30
0.0
 40
436.9000000000001
100
AcDbArc
 50
185.7141285894
 51
194.8554180962
  0
ARC
  5
37C
330
1F
100
AcDbEntity
  8
KONTUR
100
AcDbCircle
 10
919.8384915542
 20
2206.29009214
 30
0.0
 40
1.40469564282857
100
AcDbArc
 50
176.2924509041
 51
241.5808880535
  0
ARC
  5
37D
330
1F
100
AcDbEntity
  8
KONTUR
100
AcDbCircle
 10
921.0446972727
 20
2204.5226582778
 30
0.0
 40
3.643612412311357
100
AcDbArc
 50
92.8885888717
 51
120.9656267363
  0
ARC
  5
37E
330
1F
100
AcDbEntity
  8
KONTUR
100
AcDbCircle
 10
918.2110170838
 20
2235.4461924664
 30
0.0
 40
27.41294544899457
100
AcDbArc
 50
275.5475605235
 51
278.5532723453
  0
ARC
  5
37F
330
1F
100
AcDbEntity
  8
KONTUR
100
AcDbCircle
 10
922.1877236268
 20
2209.0056196121
 30
0.0
 40
0.6749932499994481
100
AcDbArc
 50
278.5532723501
 51
296.1302263385
  0
LINE
  5
380
330
1F
100
AcDbEntity
  8
KONTUR
100
AcDbLine
 10
923.0368451736
 20
2208.670321378
 30
0.0
 11
922.4849993361
 21
2208.3996138033
 31
0.0
  0
LINE
  5
381
330
1F
100
AcDbEntity
  8
KONTUR
100
AcDbLine
 10
923.0368451736
 20
2208.670321378
 30
0.0
 11
923.0368451736
 21
2207.4432958977
 31
0.0
  0
ARC
  5
382
330
1F
100
AcDbEntity
  8
KONTUR
100
AcDbCircle
 10
919.913167422
 20
2207.5182502756
 30
0.0
 40
3.124576908097917
100
AcDbArc
 50
336.5378418415
 51
358.6254198156
  0
ARC
  5
383
330
1F
100
AcDbEntity
  8
KONTUR
100
AcDbCircle
 10
920.6052442964
 20
2207.1762760816
 30
0.0
 40
2.353873236615192
100
AcDbArc
 50
295.6725115709
 51
337.466618392
  0
ARC
  5
384
330
1F
100
AcDbEntity
  8
KONTUR
100
AcDbCircle
 10
920.3973703573
 20
2208.3188978059
 30
0.0
 40
3.487355261950596
100
AcDbArc
 50
249.3929551628
 51
290.6111971247
  0
ARC
  5
385
330
1F
100
AcDbEntity
  8
KONTUR
100
AcDbCircle
 10
919.8904516588
 20
2206.384348324
 30
0.0
 40
1.453719900382684
100
AcDbArc
 50
119.7100446049
 51
180.1349210477
  0
ARC
  5
386
330
1F
100
AcDbEntity
  8
KONTUR
100
AcDbCircle
 10
907.8108707017
 20
2210.5751727488
 30
0.0
 40
2.459634539618456
100
AcDbArc
 50
21.0676596702
 51
158.9323403298
  0
ARC
  5
387
330
1F
100
AcDbEntity
  8
KONTUR
100
AcDbCircle
 10
902.2776097618
 20
2208.6137266115
 30
0.0
 40
8.329626817616392
100
AcDbArc
 50
3.311986424
 51
19.9759276326
  0
ARC
  5
388
330
1F
100
AcDbEntity
  8
KONTUR
100
AcDbCircle
 10
900.7675044132
 20
2209.6154815273
 30
0.0
 40
9.839597608760823
100
AcDbArc
 50
341.6375284539
 51
356.9675581866
  0
ARC
  5
389
330
1F
100
AcDbEntity
  8
KONTUR
100
AcDbCircle
 10
907.8108707017
 20
2207.3999032796
 30
0.0
 40
2.459634539618554
100
AcDbArc
 50
201.0676596702
 51
338.9323403298
  0
ARC
  5
38A
330
1F
100
AcDbEntity
  8
KONTUR
100
AcDbCircle
 10
911.2326377415
 20
2208.8900852584
 30
0.0
 40
6.190437218844951
100
AcDbArc
 50
178.1034926884
 51
202.5538018522
  0
ARC
  5
38B
330
1F
100
AcDbEntity
  8
KONTUR
100
AcDbCircle
 10
910.2870220263
 20
2209.2818399894
 30
0.0
 40
5.244761331461012
100
AcDbArc
 50
155.4696123816
 51
182.0420555953
  0
CIRCLE
  5
38C
330
1F
100
AcDbEntity
  8
KONTUR
100
AcDbCircle
 10
951.5677244341
 20
2219.2199283011
 30
0.0
 40
2.5
  0
LINE
  5
38D
330
1F
100
AcDbEntity
  8
KONTUR
100
AcDbLine
 10
950.672322932
 20
2221.0249969913
 30
0.0
 11
952.2268533637
 21
2221.0249969913
 31
0.0
  0
LINE
  5
38E
330
1F
100
AcDbEntity
  8
KONTUR
100
AcDbLine
 10
950.672322932
 20
2217.446825074
 30
0.0
 11
950.672322932
 21
2221.0249969913
 31
0.0
  0
LINE
  5
38F
330
1F
100
AcDbEntity
  8
KONTUR
100
AcDbLine
 10
951.172322932
 20
2217.446825074
 30
0.0
 11
951.172322932
 21
2219.3128463741
 31
0.0
  0
LINE
  5
390
330
1F
100
AcDbEntity
  8
KONTUR
100
AcDbLine
 10
951.2884325167
 20
2219.3128463741
 30
0.0
 11
951.172322932
 21
2219.3128463741
 31
0.0
  0
LINE
  5
391
330
1F
100
AcDbEntity
  8
KONTUR
100
AcDbLine
 10
952.5155002303
 20
2217.3721441602
 30
0.0
 11
951.2884325167
 21
2219.3128463741
 31
0.0
  0
LINE
  5
392
330
1F
100
AcDbEntity
  8
KONTUR
100
AcDbLine
 10
952.5155002303
 20
2217.3721441602
 30
0.0
 11
952.9381108153
 21
2217.6393524936
 31
0.0
  0
LINE
  5
393
330
1F
100
AcDbEntity
  8
KONTUR
100
AcDbLine
 10
952.9381108153
 20
2217.6393524936
 30
0.0
 11
951.879993658
 21
2219.3128463741
 31
0.0
  0
ARC
  5
394
330
1F
100
AcDbEntity
  8
KONTUR
100
AcDbCircle
 10
951.9954346467
 20
2220.1806694812
 30
0.0
 40
0.8754676276238976
100
AcDbArc
 50
262.4227915124
 51
74.6724233821
  0
LINE
  5
395
330
1F
100
AcDbEntity
  8
KONTUR
100
AcDbLine
 10
950.672322932
 20
2217.446825074
 30
0.0
 11
951.172322932
 21
2217.446825074
 31
0.0
  0
LINE
  5
396
330
1F
100
AcDbEntity
  8
KONTUR
100
AcDbLine
 10
951.172322932
 20
2219.8111323516
 30
0.0
 11
951.172322932
 21
2220.5249969913
 31
0.0
  0
LINE
  5
397
330
1F
100
AcDbEntity
  8
KONTUR
100
AcDbLine
 10
951.172322932
 20
2220.5249969913
 30
0.0
 11
952.1451493926
 21
2220.5249969913
 31
0.0
  0
ARC
  5
398
330
1F
100
AcDbEntity
  8
KONTUR
100
AcDbCircle
 10
951.9954346467
 20
2220.1806694812
 30
0.0
 40
0.3754676276238413
100
AcDbArc
 50
262.4227915123
 51
66.5004361415
  0
LINE
  5
399
330
1F
100
AcDbEntity
  8
KONTUR
100
AcDbLine
 10
951.9459247016
 20
2219.8084804099
 30
0.0
 11
951.172322932
 21
2219.8111323516
 31
0.0
  0
LINE
  5
39A
330
1F
100
AcDbEntity
  8
KONTUR
100
AcDbLine
 10
880.8556380779
 20
2178.492776123
 30
0.0
 11
875.5056380779
 21
2183.792776123
 31
0.0
  0
LINE
  5
39B
330
1F
100
AcDbEntity
  8
KONTUR
100
AcDbLine
 10
878.9306380779
 20
2178.492776123
 30
0.0
 11
880.8556380779
 21
2178.492776123
 31
0.0
  0
LINE
  5
39C
330
1F
100
AcDbEntity
  8
KONTUR
100
AcDbLine
 10
878.9306380779
 20
2176.642776123
 30
0.0
 11
878.9306380779
 21
2178.492776123
 31
0.0
  0
LINE
  5
39D
330
1F
100
AcDbEntity
  8
KONTUR
100
AcDbLine
 10
872.0806380779
 20
2176.642776123
 30
0.0
 11
878.9306380779
 21
2176.642776123
 31
0.0
  0
LINE
  5
39E
330
1F
100
AcDbEntity
  8
KONTUR
100
AcDbLine
 10
872.0806380779
 20
2178.492776123
 30
0.0
 11
872.0806380779
 21
2176.642776123
 31
0.0
  0
LINE
  5
39F
330
1F
100
AcDbEntity
  8
KONTUR
100
AcDbLine
 10
875.5056380779
 20
2183.792776123
 30
0.0
 11
870.1556380779
 21
2178.492776123
 31
0.0
  0
ARC
  5
3A0
330
1F
100
AcDbEntity
  8
KONTUR
100
AcDbCircle
 10
870.0056380779
 20
2174.717776123
 30
0.0
 40
2.5
100
AcDbArc
 50
180.0
 51
270.0
  0
LINE
  5
3A1
330
1F
100
AcDbEntity
  8
KONTUR
100
AcDbLine
 10
870.0056380779
 20
2172.217776123
 30
0.0
 11
881.0056380779
 21
2172.217776123
 31
0.0
  0
ARC
  5
3A2
330
1F
100
AcDbEntity
  8
KONTUR
100
AcDbCircle
 10
881.0056380779
 20
2174.717776123
 30
0.0
 40
2.5
100
AcDbArc
 50
270.0
 51
0.0
  0
LINE
  5
3A3
330
1F
100
AcDbEntity
  8
KONTUR
100
AcDbLine
 10
883.5056380779
 20
2174.717776123
 30
0.0
 11
883.5056380779
 21
2185.717776123
 31
0.0
  0
ARC
  5
3A4
330
1F
100
AcDbEntity
  8
KONTUR
100
AcDbCircle
 10
881.0056380779
 20
2185.717776123
 30
0.0
 40
2.5
100
AcDbArc
 50
0.0
 51
90.0
  0
LINE
  5
3A5
330
1F
100
AcDbEntity
  8
KONTUR
100
AcDbLine
 10
870.0056380779
 20
2188.217776123
 30
0.0
 11
881.0056380779
 21
2188.217776123
 31
0.0
  0
ARC
  5
3A6
330
1F
100
AcDbEntity
  8
KONTUR
100
AcDbCircle
 10
870.0056380779
 20
2185.717776123
 30
0.0
 40
2.5
100
AcDbArc
 50
90.0
 51
180.0
  0
LINE
  5
3A7
330
1F
100
AcDbEntity
  8
KONTUR
100
AcDbLine
 10
867.5056380779
 20
2174.717776123
 30
0.0
 11
867.5056380779
 21
2185.717776123
 31
0.0
  0
LINE
  5
3A8
330
1F
100
AcDbEntity
  8
KONTUR
100
AcDbLine
 10
870.1556380779
 20
2178.492776123
 30
0.0
 11
872.0806380779
 21
2178.492776123
 31
0.0
  0
LINE
  5
3A9
330
1F
100
AcDbEntity
  8
KONTUR
100
AcDbLine
 10
927.7556380779
 20
2154.717776123
 30
0.0
 11
929.2556380779
 21
2154.717776123
 31
0.0
  0
LINE
  5
3AA
330
1F
100
AcDbEntity
  8
KONTUR
100
AcDbLine
 10
929.2556380779
 20
2159.217776123
 30
0.0
 11
929.2556380779
 21
2154.717776123
 31
0.0
  0
LINE
  5
3AB
330
1F
100
AcDbEntity
  8
KONTUR
100
AcDbLine
 10
927.7556380779
 20
2159.217776123
 30
0.0
 11
929.2556380779
 21
2159.217776123
 31
0.0
  0
LINE
  5
3AC
330
1F
100
AcDbEntity
  8
KONTUR
100
AcDbLine
 10
927.7556380779
 20
2159.217776123
 30
0.0
 11
927.7556380779
 21
2154.717776123
 31
0.0
  0
LINE
  5
3AD
330
1F
100
AcDbEntity
  8
KONTUR
100
AcDbLine
 10
930.3325611548
 20
2158.1023915076
 30
0.0
 11
929.7556380779
 21
2156.717776123
 31
0.0
  0
ARC
  5
3AE
330
1F
100
AcDbEntity
  8
KONTUR
100
AcDbCircle
 10
928.5056380779
 20
2153.717776123
 30
0.0
 40
3.24999999999958
100
AcDbArc
 50
112.619864948
 51
67.380135052
  0
LINE
  5
3AF
330
1F
100
AcDbEntity
  8
KONTUR
100
AcDbLine
 10
926.678715001
 20
2158.1023915076
 30
0.0
 11
927.2556380779
 21
2156.717776123
 31
0.0
  0
ARC
  5
3B0
330
1F
100
AcDbEntity
  8
KONTUR
100
AcDbCircle
 10
928.5056380779
 20
2153.717776123
 30
0.0
 40
4.750000000000298
100
AcDbArc
 50
112.619864948
 51
67.380135052
  0
LINE
  5
3B1
330
1F
100
AcDbEntity
  8
KONTUR
100
AcDbLine
 10
923.0056380779
 20
2161.717776123
 30
0.0
 11
934.0056380779
 21
2161.717776123
 31
0.0
  0
ARC
  5
3B2
330
1F
100
AcDbEntity
  8
KONTUR
100
AcDbCircle
 10
934.0056380779
 20
2159.217776123
 30
0.0
 40
2.5
100
AcDbArc
 50
0.0
 51
90.0
  0
LINE
  5
3B3
330
1F
100
AcDbEntity
  8
KONTUR
100
AcDbLine
 10
936.5056380779
 20
2148.217776123
 30
0.0
 11
936.5056380779
 21
2159.217776123
 31
0.0
  0
ARC
  5
3B4
330
1F
100
AcDbEntity
  8
KONTUR
100
AcDbCircle
 10
934.0056380779
 20
2148.217776123
 30
0.0
 40
2.5
100
AcDbArc
 50
270.0
 51
0.0
  0
LINE
  5
3B5
330
1F
100
AcDbEntity
  8
KONTUR
100
AcDbLine
 10
923.0056380779
 20
2145.717776123
 30
0.0
 11
934.0056380779
 21
2145.717776123
 31
0.0
  0
ARC
  5
3B6
330
1F
100
AcDbEntity
  8
KONTUR
100
AcDbCircle
 10
923.0056380779
 20
2148.217776123
 30
0.0
 40
2.5
100
AcDbArc
 50
180.0
 51
270.0
  0
LINE
  5
3B7
330
1F
100
AcDbEntity
  8
KONTUR
100
AcDbLine
 10
920.5056380779
 20
2148.217776123
 30
0.0
 11
920.5056380779
 21
2159.217776123
 31
0.0
  0
ARC
  5
3B8
330
1F
100
AcDbEntity
  8
KONTUR
100
AcDbCircle
 10
923.0056380779
 20
2159.217776123
 30
0.0
 40
2.5
100
AcDbArc
 50
90.0
 51
180.0
  0
LINE
  5
3B9
330
1F
100
AcDbEntity
  8
KONTUR
100
AcDbLine
 10
898.0056380779
 20
2145.717776123
 30
0.0
 11
907.5056380779
 21
2145.717776123
 31
0.0
  0
ARC
  5
3BA
330
1F
100
AcDbEntity
  8
KONTUR
100
AcDbCircle
 10
907.5056380779
 20
2148.217776123
 30
0.0
 40
2.5
100
AcDbArc
 50
270.0
 51
0.0
  0
LINE
  5
3BB
330
1F
100
AcDbEntity
  8
KONTUR
100
AcDbLine
 10
910.0056380779
 20
2148.217776123
 30
0.0
 11
910.0056380779
 21
2159.217776123
 31
0.0
  0
ARC
  5
3BC
330
1F
100
AcDbEntity
  8
KONTUR
100
AcDbCircle
 10
907.5056380779
 20
2159.217776123
 30
0.0
 40
2.5
100
AcDbArc
 50
0.0
 51
90.0
  0
LINE
  5
3BD
330
1F
100
AcDbEntity
  8
KONTUR
100
AcDbLine
 10
906.5728030356
 20
2161.717776123
 30
0.0
 11
907.5056380779
 21
2161.717776123
 31
0.0
  0
LINE
  5
3BE
330
1F
100
AcDbEntity
  8
KONTUR
100
AcDbLine
 10
898.0056380779
 20
2145.717776123
 30
0.0
 11
906.5728030356
 21
2161.717776123
 31
0.0
  0
ARC
  5
3BF
330
1F
100
AcDbEntity
  8
KONTUR
100
AcDbCircle
 10
900.3824669577
 20
2151.6529896782
 30
0.0
 40
8.447434684620758
100
AcDbArc
 50
25.2894334995
 51
44.5375268657
  0
LINE
  5
3C0
330
1F
100
AcDbEntity
  8
KONTUR
100
AcDbLine
 10
908.0203108869
 20
2155.2616588046
 30
0.0
 11
908.2717918074
 21
2154.7441095595
 31
0.0
  0
LINE
  5
3C1
330
1F
100
AcDbEntity
  8
KONTUR
100
AcDbLine
 10
908.8006964129
 20
2153.5654979069
 30
0.0
 11
908.2717918074
 21
2154.7441095595
 31
0.0
  0
ARC
  5
3C2
330
1F
100
AcDbEntity
  8
KONTUR
100
AcDbCircle
 10
907.3345861677
 20
2152.785062454
 30
0.0
 40
1.660890949858123
100
AcDbArc
 50
317.5639843549
 51
28.0271331601
  0
ARC
  5
3C3
330
1F
100
AcDbEntity
  8
KONTUR
100
AcDbCircle
 10
907.0440459607
 20
2153.0695361123
 30
0.0
 40
2.067318759364931
100
AcDbArc
 50
246.4449274187
 51
317.1786403551
  0
ARC
  5
3C4
330
1F
100
AcDbEntity
  8
KONTUR
100
AcDbCircle
 10
906.9055138405
 20
2152.5497965783
 30
0.0
 40
1.537644077534713
100
AcDbArc
 50
217.1443618544
 51
243.4359534569
  0
ARC
  5
3C5
330
1F
100
AcDbEntity
  8
KONTUR
100
AcDbCircle
 10
907.1733046313
 20
2152.7307960231
 30
0.0
 40
1.86047819394856
100
AcDbArc
 50
188.3759579925
 51
216.607846264
  0
LINE
  5
3C6
330
1F
100
AcDbEntity
  8
KONTUR
100
AcDbLine
 10
905.27410687
 20
2152.8309607289
 30
0.0
 11
905.3326711459
 21
2152.4597840624
 31
0.0
  0
ARC
  5
3C7
330
1F
100
AcDbEntity
  8
KONTUR
100
AcDbCircle
 10
906.4059919086
 20
2152.9814496968
 30
0.0
 40
1.141845291707133
100
AcDbArc
 50
167.6371689875
 51
187.5733038839
  0
ARC
  5
3C8
330
1F
100
AcDbEntity
  8
KONTUR
100
AcDbCircle
 10
905.6624093944
 20
2153.0801784036
 30
0.0
 40
0.4107459470186407
100
AcDbArc
 50
131.8828215908
 51
143.7335999681
  0
LINE
  5
3C9
330
1F
100
AcDbEntity
  8
KONTUR
100
AcDbLine
 10
905.3881915531
 20
2153.3859835842
 30
0.0
 11
905.4213951485
 21
2153.4149426446
 31
0.0
  0
ARC
  5
3CA
330
1F
100
AcDbEntity
  8
KONTUR
100
AcDbCircle
 10
904.9424461345
 20
2154.1320253439
 30
0.0
 40
0.85850673837912
100
AcDbArc
 50
311.1782565251
 51
323.7777755866
  0
LINE
  5
3CB
330
1F
100
AcDbEntity
  8
KONTUR
100
AcDbLine
 10
905.635030273
 20
2153.6247177145
 30
0.0
 11
905.6597112113
 21
2153.6584125091
 31
0.0
  0
LINE
  5
3CC
330
1F
100
AcDbEntity
  8
KONTUR
100
AcDbLine
 10
905.6597112113
 20
2153.6584125091
 30
0.0
 11
905.729824262
 21
2153.7602199058
 31
0.0
  0
LINE
  5
3CD
330
1F
100
AcDbEntity
  8
KONTUR
100
AcDbLine
 10
905.729824262
 20
2153.7602199058
 30
0.0
 11
905.912124262
 21
2154.0269199058
 31
0.0
  0
ARC
  5
3CE
330
1F
100
AcDbEntity
  8
KONTUR
100
AcDbCircle
 10
902.1715401112
 20
2156.3542599755
 30
0.0
 40
4.4055058267526
100
AcDbArc
 50
328.1106935449
 51
16.1250250992
  0
ARC
  5
3CF
330
1F
100
AcDbEntity
  8
KONTUR
100
AcDbCircle
 10
902.2275212543
 20
2149.0717871201
 30
0.0
 40
0.2240998985552871
100
AcDbArc
 50
143.7335999681
 51
170.9285901752
  0
ARC
  5
3D0
330
1F
100
AcDbEntity
  8
KONTUR
100
AcDbCircle
 10
902.3780093771
 20
2148.9613784162
 30
0.0
 40
0.4107459727441249
100
AcDbArc
 50
131.8830821309
 51
143.7335999681
  0
LINE
  5
3D1
330
1F
100
AcDbEntity
  8
KONTUR
100
AcDbLine
 10
902.103790128
 20
2149.267182369
 30
0.0
 11
902.1369951312
 21
2149.2961426573
 31
0.0
  0
LINE
  5
3D2
330
1F
100
AcDbEntity
  8
KONTUR
100
AcDbLine
 10
902.1369951312
 20
2149.2961426573
 30
0.0
 11
902.2232945419
 21
2149.3670610353
 31
0.0
  0
ARC
  5
3D3
330
1F
100
AcDbEntity
  8
KONTUR
100
AcDbCircle
 10
901.6580461172
 20
2150.0132253566
 30
0.0
 40
0.8585069083727243
100
AcDbArc
 50
311.1786244774
 51
323.7777755865
  0
LINE
  5
3D4
330
1F
100
AcDbEntity
  8
KONTUR
100
AcDbLine
 10
902.3506303929
 20
2149.5059176267
 30
0.0
 11
902.3753113312
 21
2149.5396124213
 31
0.0
  0
LINE
  5
3D5
330
1F
100
AcDbEntity
  8
KONTUR
100
AcDbLine
 10
902.3753113312
 20
2149.5396124213
 30
0.0
 11
902.4454243819
 21
2149.641419818
 31
0.0
  0
LINE
  5
3D6
330
1F
100
AcDbEntity
  8
KONTUR
100
AcDbLine
 10
902.4454243819
 20
2149.641419818
 30
0.0
 11
902.6277243819
 21
2149.908119818
 31
0.0
  0
ARC
  5
3D7
330
1F
100
AcDbEntity
  8
KONTUR
100
AcDbCircle
 10
898.887140231
 20
2152.2354598877
 30
0.0
 40
4.405505826752695
100
AcDbArc
 50
328.1106935448
 51
16.1250250992
  0
LINE
  5
3D8
330
1F
100
AcDbEntity
  8
KONTUR
100
AcDbLine
 10
904.7359110067
 20
2151.1428587168
 30
0.0
 11
904.9873919272
 21
2150.6253094717
 31
0.0
  0
LINE
  5
3D9
330
1F
100
AcDbEntity
  8
KONTUR
100
AcDbLine
 10
905.5162965328
 20
2149.4466978191
 30
0.0
 11
904.9873919272
 21
2150.6253094717
 31
0.0
  0
ARC
  5
3DA
330
1F
100
AcDbEntity
  8
KONTUR
100
AcDbCircle
 10
903.759967638
 20
2148.9509535336
 30
0.0
 40
2.067318759364765
100
AcDbArc
 50
246.4449274186
 51
317.1786403553
  0
ARC
  5
3DB
330
1F
100
AcDbEntity
  8
KONTUR
100
AcDbCircle
 10
903.6214355178
 20
2148.4312139995
 30
0.0
 40
1.537644077535285
100
AcDbArc
 50
214.0547091899
 51
243.4359534568
  0
ARC
  5
3DC
330
1F
100
AcDbEntity
  8
KONTUR
100
AcDbCircle
 10
903.8889046313
 20
2148.6119960231
 30
0.0
 40
1.860478193948966
100
AcDbArc
 50
188.3759579916
 51
214.0547091899
  0
LINE
  5
3DD
330
1F
100
AcDbEntity
  8
KONTUR
100
AcDbLine
 10
901.98970687
 20
2148.7121607289
 30
0.0
 11
902.0482711459
 21
2148.3409840624
 31
0.0
  0
ARC
  5
3DE
330
1F
100
AcDbEntity
  8
KONTUR
100
AcDbCircle
 10
903.1215919086
 20
2148.8626496968
 30
0.0
 40
1.141845291707432
100
AcDbArc
 50
167.6372101979
 51
187.5733038837
  0
ARC
  5
3DF
330
1F
100
AcDbEntity
  8
KONTUR
100
AcDbCircle
 10
905.5119212543
 20
2153.1905871202
 30
0.0
 40
0.2240998514033266
100
AcDbArc
 50
143.7335999682
 51
170.9283805441
  0
LINE
  5
3E0
330
1F
100
AcDbEntity
  8
KONTUR
100
AcDbLine
 10
905.4213951485
 20
2153.4149426446
 30
0.0
 11
905.5076902976
 21
2153.4858575206
 31
0.0
  0
ARC
  5
3E1
330
1F
100
AcDbEntity
  8
KONTUR
100
AcDbCircle
 10
897.0980670775
 20
2147.5341895904
 30
0.0
 40
8.447434684620685
100
AcDbArc
 50
25.2894334994
 51
44.5375268657
  0
ARC
  5
3E2
330
1F
100
AcDbEntity
  8
KONTUR
100
AcDbCircle
 10
904.0502314634
 20
2148.6661775058
 30
0.0
 40
1.660890949858093
100
AcDbArc
 50
317.578116098
 51
28.0304495694
  0
ARC
  5
3E3
330
1F
100
AcDbEntity
  8
KONTUR
100
AcDbCircle
 10
1205.4708585773
 20
2240.967776123
 30
0.0
 40
436.9000000000001
100
AcDbArc
 50
180.7246152862
 51
185.7141285894
  0
ARC
  5
3E4
330
1F
100
AcDbEntity
  8
KONTUR
100
AcDbCircle
 10
770.6056380779
 20
2235.467776123
 30
0.0
 40
1.999999999999954
100
AcDbArc
 50
90.0
 51
180.7246152862
  0
LINE
  5
3E5
330
1F
100
AcDbEntity
  8
KONTUR
100
AcDbLine
 10
770.6056380779
 20
2237.467776123
 30
0.0
 11
771.5849749627
 21
2237.467776123
 31
0.0
  0
LINE
  5
3E6
330
1F
100
AcDbEntity
  8
KONTUR
100
AcDbLine
 10
851.6556380779
 20
2186.317776123
 30
0.0
 11
851.6556380779
 21
2147.617776123
 31
0.0
  0
ARC
  5
3E7
330
1F
100
AcDbEntity
  8
KONTUR
100
AcDbCircle
 10
870.0056380779
 20
2174.717776123
 30
0.0
 40
3.0
100
AcDbArc
 50
180.0
 51
270.0
  0
ARC
  5
3E8
330
1F
100
AcDbEntity
  8
KONTUR
100
AcDbCircle
 10
923.0056380779
 20
2174.717776123
 30
0.0
 40
3.0
100
AcDbArc
 50
180.0
 51
270.0
  0
ARC
  5
3E9
330
1F
100
AcDbEntity
  8
KONTUR
100
AcDbCircle
 10
870.0056380779
 20
2159.217776123
 30
0.0
 40
3.0
100
AcDbArc
 50
90.0
 51
180.0
  0
LINE
  5
3EA
330
1F
100
AcDbEntity
  8
KONTUR
100
AcDbLine
 10
910.5056380779
 20
2148.217776123
 30
0.0
 11
910.5056380779
 21
2159.217776123
 31
0.0
  0
ARC
  5
3EB
330
1F
100
AcDbEntity
  8
KONTUR
100
AcDbCircle
 10
923.0056380779
 20
2159.217776123
 30
0.0
 40
3.0
100
AcDbArc
 50
90.0
 51
180.0
  0
ARC
  5
3EC
330
1F
100
AcDbEntity
  8
KONTUR
100
AcDbCircle
 10
907.5056380779
 20
2174.717776123
 30
0.0
 40
3.0
100
AcDbArc
 50
270.0
 51
0.0
  0
ARC
  5
3ED
330
1F
100
AcDbEntity
  8
KONTUR
100
AcDbCircle
 10
849.6556380779
 20
2186.317776123
 30
0.0
 40
2.0
100
AcDbArc
 50
0.0
 51
90.0
  0
LINE
  5
3EE
330
1F
100
AcDbEntity
  8
KONTUR
100
AcDbLine
 10
805.9556380779
 20
2188.317776123
 30
0.0
 11
849.6556380779
 21
2188.317776123
 31
0.0
  0
ARC
  5
3EF
330
1F
100
AcDbEntity
  8
KONTUR
100
AcDbCircle
 10
805.9556380779
 20
2186.317776123
 30
0.0
 40
2.0
100
AcDbArc
 50
90.0
 51
180.0
  0
LINE
  5
3F0
330
1F
100
AcDbEntity
  8
KONTUR
100
AcDbLine
 10
803.9556380779
 20
2147.617776123
 30
0.0
 11
803.9556380779
 21
2186.317776123
 31
0.0
  0
ARC
  5
3F1
330
1F
100
AcDbEntity
  8
KONTUR
100
AcDbCircle
 10
805.9556380779
 20
2147.617776123
 30
0.0
 40
1.999999999999886
100
AcDbArc
 50
180.0
 51
270.0
  0
LINE
  5
3F2
330
1F
100
AcDbEntity
  8
KONTUR
100
AcDbLine
 10
849.6556380779
 20
2145.617776123
 30
0.0
 11
805.9556380779
 21
2145.617776123
 31
0.0
  0
ARC
  5
3F3
330
1F
100
AcDbEntity
  8
KONTUR
100
AcDbCircle
 10
849.6556380779
 20
2147.617776123
 30
0.0
 40
1.999999999999886
100
AcDbArc
 50
270.0
 51
0.0
  0
LINE
  5
3F4
330
1F
100
AcDbEntity
  8
KONTUR
100
AcDbLine
 10
870.0056380779
 20
2171.717776123
 30
0.0
 11
881.0056380779
 21
2171.717776123
 31
0.0
  0
ARC
  5
3F5
330
1F
100
AcDbEntity
  8
KONTUR
100
AcDbCircle
 10
881.0056380779
 20
2174.717776123
 30
0.0
 40
3.0
100
AcDbArc
 50
270.0
 51
0.0
  0
LINE
  5
3F6
330
1F
100
AcDbEntity
  8
KONTUR
100
AcDbLine
 10
884.0056380779
 20
2174.717776123
 30
0.0
 11
884.0056380779
 21
2185.717776123
 31
0.0
  0
ARC
  5
3F7
330
1F
100
AcDbEntity
  8
KONTUR
100
AcDbCircle
 10
881.0056380779
 20
2185.717776123
 30
0.0
 40
3.0
100
AcDbArc
 50
0.0
 51
90.0
  0
LINE
  5
3F8
330
1F
100
AcDbEntity
  8
KONTUR
100
AcDbLine
 10
870.0056380779
 20
2188.717776123
 30
0.0
 11
881.0056380779
 21
2188.717776123
 31
0.0
  0
ARC
  5
3F9
330
1F
100
AcDbEntity
  8
KONTUR
100
AcDbCircle
 10
870.0056380779
 20
2185.717776123
 30
0.0
 40
3.0
100
AcDbArc
 50
90.0
 51
180.0
  0
LINE
  5
3FA
330
1F
100
AcDbEntity
  8
KONTUR
100
AcDbLine
 10
867.0056380779
 20
2174.717776123
 30
0.0
 11
867.0056380779
 21
2185.717776123
 31
0.0
  0
LINE
  5
3FB
330
1F
100
AcDbEntity
  8
KONTUR
100
AcDbLine
 10
923.0056380779
 20
2171.717776123
 30
0.0
 11
934.0056380779
 21
2171.717776123
 31
0.0
  0
ARC
  5
3FC
330
1F
100
AcDbEntity
  8
KONTUR
100
AcDbCircle
 10
934.0056380779
 20
2174.717776123
 30
0.0
 40
3.0
100
AcDbArc
 50
270.0
 51
0.0
  0
LINE
  5
3FD
330
1F
100
AcDbEntity
  8
KONTUR
100
AcDbLine
 10
937.0056380779
 20
2174.717776123
 30
0.0
 11
937.0056380779
 21
2185.717776123
 31
0.0
  0
ARC
  5
3FE
330
1F
100
AcDbEntity
  8
KONTUR
100
AcDbCircle
 10
934.0056380779
 20
2185.717776123
 30
0.0
 40
3.0
100
AcDbArc
 50
0.0
 51
90.0
  0
LINE
  5
3FF
330
1F
100
AcDbEntity
  8
KONTUR
100
AcDbLine
 10
923.0056380779
 20
2188.717776123
 30
0.0
 11
934.0056380779
 21
2188.717776123
 31
0.0
  0
ARC
  5
400
330
1F
100
AcDbEntity
  8
KONTUR
100
AcDbCircle
 10
923.0056380779
 20
2185.717776123
 30
0.0
 40
3.0
100
AcDbArc
 50
90.0
 51
180.0
  0
LINE
  5
401
330
1F
100
AcDbEntity
  8
KONTUR
100
AcDbLine
 10
867.0056380779
 20
2148.217776123
 30
0.0
 11
867.0056380779
 21
2159.217776123
 31
0.0
  0
ARC
  5
402
330
1F
100
AcDbEntity
  8
KONTUR
100
AcDbCircle
 10
870.0056380779
 20
2148.217776123
 30
0.0
 40
3.0
100
AcDbArc
 50
180.0
 51
270.0
  0
ARC
  5
403
330
1F
100
AcDbEntity
  8
KONTUR
100
AcDbCircle
 10
881.0056380779
 20
2148.217776123
 30
0.0
 40
3.0
100
AcDbArc
 50
270.0
 51
0.0
  0
LINE
  5
404
330
1F
100
AcDbEntity
  8
KONTUR
100
AcDbLine
 10
884.0056380779
 20
2148.217776123
 30
0.0
 11
884.0056380779
 21
2159.217776123
 31
0.0
  0
ARC
  5
405
330
1F
100
AcDbEntity
  8
KONTUR
100
AcDbCircle
 10
881.0056380779
 20
2159.217776123
 30
0.0
 40
3.0
100
AcDbArc
 50
0.0
 51
90.0
  0
LINE
  5
406
330
1F
100
AcDbEntity
  8
KONTUR
100
AcDbLine
 10
870.0056380779
 20
2162.217776123
 30
0.0
 11
881.0056380779
 21
2162.217776123
 31
0.0
  0
ARC
  5
407
330
1F
100
AcDbEntity
  8
KONTUR
100
AcDbCircle
 10
907.5056380779
 20
2159.217776123
 30
0.0
 40
3.0
100
AcDbArc
 50
0.0
 51
90.0
  0
LINE
  5
408
330
1F
100
AcDbEntity
  8
KONTUR
100
AcDbLine
 10
896.5056380779
 20
2162.217776123
 30
0.0
 11
907.5056380779
 21
2162.217776123
 31
0.0
  0
LINE
  5
409
330
1F
100
AcDbEntity
  8
KONTUR
100
AcDbLine
 10
893.5056380779
 20
2148.217776123
 30
0.0
 11
893.5056380779
 21
2159.217776123
 31
0.0
  0
ARC
  5
40A
330
1F
100
AcDbEntity
  8
KONTUR
100
AcDbCircle
 10
896.5056380779
 20
2148.217776123
 30
0.0
 40
3.0
100
AcDbArc
 50
180.0
 51
270.0
  0
LINE
  5
40B
330
1F
100
AcDbEntity
  8
KONTUR
100
AcDbLine
 10
896.5056380779
 20
2145.217776123
 30
0.0
 11
907.5056380779
 21
2145.217776123
 31
0.0
  0
ARC
  5
40C
330
1F
100
AcDbEntity
  8
KONTUR
100
AcDbCircle
 10
907.5056380779
 20
2148.217776123
 30
0.0
 40
3.0
100
AcDbArc
 50
270.0
 51
0.0
  0
LINE
  5
40D
330
1F
100
AcDbEntity
  8
KONTUR
100
AcDbLine
 10
920.0056380779
 20
2148.217776123
 30
0.0
 11
920.0056380779
 21
2159.217776123
 31
0.0
  0
ARC
  5
40E
330
1F
100
AcDbEntity
  8
KONTUR
100
AcDbCircle
 10
923.0056380779
 20
2148.217776123
 30
0.0
 40
3.0
100
AcDbArc
 50
180.0
 51
270.0
  0
ARC
  5
40F
330
1F
100
AcDbEntity
  8
KONTUR
100
AcDbCircle
 10
934.0056380779
 20
2148.217776123
 30
0.0
 40
3.0
100
AcDbArc
 50
270.0
 51
0.0
  0
LINE
  5
410
330
1F
100
AcDbEntity
  8
KONTUR
100
AcDbLine
 10
937.0056380779
 20
2148.217776123
 30
0.0
 11
937.0056380779
 21
2159.217776123
 31
0.0
  0
LINE
  5
411
330
1F
100
AcDbEntity
  8
KONTUR
100
AcDbLine
 10
923.0056380779
 20
2162.217776123
 30
0.0
 11
934.0056380779
 21
2162.217776123
 31
0.0
  0
LINE
  5
412
330
1F
100
AcDbEntity
  8
KONTUR
100
AcDbLine
 10
910.5056380779
 20
2174.717776123
 30
0.0
 11
910.5056380779
 21
2185.717776123
 31
0.0
  0
ARC
  5
413
330
1F
100
AcDbEntity
  8
KONTUR
100
AcDbCircle
 10
907.5056380779
 20
2185.717776123
 30
0.0
 40
3.0
100
AcDbArc
 50
0.0
 51
90.0
  0
LINE
  5
414
330
1F
100
AcDbEntity
  8
KONTUR
100
AcDbLine
 10
896.5056380779
 20
2188.717776123
 30
0.0
 11
907.5056380779
 21
2188.717776123
 31
0.0
  0
ARC
  5
415
330
1F
100
AcDbEntity
  8
KONTUR
100
AcDbCircle
 10
896.5056380779
 20
2185.717776123
 30
0.0
 40
3.0
100
AcDbArc
 50
90.0
 51
180.0
  0
LINE
  5
416
330
1F
100
AcDbEntity
  8
KONTUR
100
AcDbLine
 10
893.5056380779
 20
2174.717776123
 30
0.0
 11
893.5056380779
 21
2185.717776123
 31
0.0
  0
ARC
  5
417
330
1F
100
AcDbEntity
  8
KONTUR
100
AcDbCircle
 10
896.5056380779
 20
2174.717776123
 30
0.0
 40
3.0
100
AcDbArc
 50
180.0
 51
270.0
  0
LINE
  5
418
330
1F
100
AcDbEntity
  8
KONTUR
100
AcDbLine
 10
896.5056380779
 20
2171.717776123
 30
0.0
 11
907.5056380779
 21
2171.717776123
 31
0.0
  0
LINE
  5
419
330
1F
100
AcDbEntity
  8
KONTUR
100
AcDbLine
 10
968.6056380779
 20
2197.467776123
 30
0.0
 11
773.7568791882
 21
2197.467776123
 31
0.0
  0
LINE
  5
41A
330
1F
100
AcDbEntity
  8
KONTUR
100
AcDbLine
 10
968.6056380779
 20
2197.467776123
 30
0.0
 11
968.6056380779
 21
2129.467776123
 31
0.0
  0
ARC
  5
41B
330
1F
100
AcDbEntity
  8
KONTUR
100
AcDbCircle
 10
966.6056380779
 20
2129.467776123
 30
0.0
 40
2.000000000000114
100
AcDbArc
 50
270.0
 51
0.0000000001
  0
LINE
  5
41C
330
1F
100
AcDbEntity
  8
KONTUR
100
AcDbLine
 10
966.6056380779
 20
2127.467776123
 30
0.0
 11
786.6785950385
 21
2127.467776123
 31
0.0
  0
LINE
  5
41D
330
1F
100
AcDbEntity
  8
KONTUR
100
AcDbLine
 10
920.0056380779
 20
2174.717776123
 30
0.0
 11
920.0056380779
 21
2185.717776123
 31
0.0
  0
LINE
  5
41E
330
1F
100
AcDbEntity
  8
KONTUR
100
AcDbLine
 10
870.0056380779
 20
2145.217776123
 30
0.0
 11
881.0056380779
 21
2145.217776123
 31
0.0
  0
ARC
  5
41F
330
1F
100
AcDbEntity
  8
KONTUR
100
AcDbCircle
 10
896.5056380779
 20
2159.217776123
 30
0.0
 40
3.0
100
AcDbArc
 50
90.0
 51
180.0
  0
LINE
  5
420
330
1F
100
AcDbEntity
  8
KONTUR
100
AcDbLine
 10
923.0056380779
 20
2145.217776123
 30
0.0
 11
934.0056380779
 21
2145.217776123
 31
0.0
  0
ARC
  5
421
330
1F
100
AcDbEntity
  8
KONTUR
100
AcDbCircle
 10
934.0056380779
 20
2159.217776123
 30
0.0
 40
3.0
100
AcDbArc
 50
0.0
 51
90.0
  0
LINE
  5
422
330
1F
100
AcDbEntity
  8
KONTUR
100
AcDbLine
 10
878.9306380779
 20
2157.292776123
 30
0.0
 11
878.9306380779
 21
2155.442776123
 31
0.0
  0
LINE
  5
423
330
1F
100
AcDbEntity
  8
KONTUR
100
AcDbLine
 10
872.0806380779
 20
2157.292776123
 30
0.0
 11
878.9306380779
 21
2157.292776123
 31
0.0
  0
LINE
  5
424
330
1F
100
AcDbEntity
  8
KONTUR
100
AcDbLine
 10
872.0806380779
 20
2155.442776123
 30
0.0
 11
872.0806380779
 21
2157.292776123
 31
0.0
  0
LINE
  5
425
330
1F
100
AcDbEntity
  8
KONTUR
100
AcDbLine
 10
870.1556380779
 20
2155.442776123
 30
0.0
 11
872.0806380779
 21
2155.442776123
 31
0.0
  0
LINE
  5
426
330
1F
100
AcDbEntity
  8
KONTUR
100
AcDbLine
 10
880.8556380779
 20
2155.442776123
 30
0.0
 11
875.5056380779
 21
2150.142776123
 31
0.0
  0
LINE
  5
427
330
1F
100
AcDbEntity
  8
KONTUR
100
AcDbLine
 10
878.9306380779
 20
2155.442776123
 30
0.0
 11
880.8556380779
 21
2155.442776123
 31
0.0
  0
LINE
  5
428
330
1F
100
AcDbEntity
  8
KONTUR
100
AcDbLine
 10
870.0056380779
 20
2161.717776123
 30
0.0
 11
881.0056380779
 21
2161.717776123
 31
0.0
  0
ARC
  5
429
330
1F
100
AcDbEntity
  8
KONTUR
100
AcDbCircle
 10
881.0056380779
 20
2159.217776123
 30
0.0
 40
2.5
100
AcDbArc
 50
0.0
 51
90.0
  0
LINE
  5
42A
330
1F
100
AcDbEntity
  8
KONTUR
100
AcDbLine
 10
883.5056380779
 20
2148.217776123
 30
0.0
 11
883.5056380779
 21
2159.217776123
 31
0.0
  0
ARC
  5
42B
330
1F
100
AcDbEntity
  8
KONTUR
100
AcDbCircle
 10
881.0056380779
 20
2148.217776123
 30
0.0
 40
2.5
100
AcDbArc
 50
270.0
 51
0.0
  0
LINE
  5
42C
330
1F
100
AcDbEntity
  8
KONTUR
100
AcDbLine
 10
870.0056380779
 20
2145.717776123
 30
0.0
 11
881.0056380779
 21
2145.717776123
 31
0.0
  0
ARC
  5
42D
330
1F
100
AcDbEntity
  8
KONTUR
100
AcDbCircle
 10
870.0056380779
 20
2148.217776123
 30
0.0
 40
2.5
100
AcDbArc
 50
180.0
 51
270.0
  0
LINE
  5
42E
330
1F
100
AcDbEntity
  8
KONTUR
100
AcDbLine
 10
867.5056380779
 20
2148.217776123
 30
0.0
 11
867.5056380779
 21
2159.217776123
 31
0.0
  0
ARC
  5
42F
330
1F
100
AcDbEntity
  8
KONTUR
100
AcDbCircle
 10
870.0056380779
 20
2159.217776123
 30
0.0
 40
2.5
100
AcDbArc
 50
90.0
 51
180.0
  0
LINE
  5
430
330
1F
100
AcDbEntity
  8
KONTUR
100
AcDbLine
 10
875.5056380779
 20
2150.142776123
 30
0.0
 11
870.1556380779
 21
2155.442776123
 31
0.0
  0
LINE
  5
431
330
1F
100
AcDbEntity
  8
KONTUR
100
AcDbLine
 10
898.0084043093
 20
2156.4162240774
 30
0.0
 11
899.9389628177
 21
2152.7076556875
 31
0.0
  0
CIRCLE
  5
432
330
1F
100
AcDbEntity
  8
KONTUR
100
AcDbCircle
 10
897.9238506632
 20
2150.9383933955
 30
0.0
 40
1.200000000000159
  0
LINE
  5
433
330
1F
100
AcDbEntity
  8
KONTUR
100
AcDbLine
 10
898.464939064
 20
2154.3481046596
 30
0.0
 11
898.4238506632
 21
2153.5383933955
 31
0.0
  0
LINE
  5
434
330
1F
100
AcDbEntity
  8
KONTUR
100
AcDbLine
 10
897.0988506632
 20
2159.9430272148
 30
0.0
 11
897.1502009388
 21
2158.9310896414
 31
0.0
  0
LINE
  5
435
330
1F
100
AcDbEntity
  8
KONTUR
100
AcDbLine
 10
896.5056380779
 20
2161.717776123
 30
0.0
 11
906.0056380779
 21
2161.717776123
 31
0.0
  0
LINE
  5
436
330
1F
100
AcDbEntity
  8
KONTUR
100
AcDbLine
 10
897.9238506632
 20
2155.3875258065
 30
0.0
 11
897.3827622625
 21
2154.3481046596
 31
0.0
  0
LINE
  5
437
330
1F
100
AcDbEntity
  8
KONTUR
100
AcDbLine
 10
897.3827622625
 20
2154.3481046596
 30
0.0
 11
897.4238506632
 21
2153.5383933955
 31
0.0
  0
ARC
  5
438
330
1F
100
AcDbEntity
  8
KONTUR
100
AcDbCircle
 10
897.9238506632
 20
2153.5383933955
 30
0.0
 40
0.5
100
AcDbArc
 50
180.0000000002
 51
359.9999999998
  0
LINE
  5
439
330
1F
100
AcDbEntity
  8
KONTUR
100
AcDbLine
 10
897.1502009388
 20
2158.9310896414
 30
0.0
 11
897.9238506632
 21
2157.4449223482
 31
0.0
  0
LINE
  5
43A
330
1F
100
AcDbEntity
  8
KONTUR
100
AcDbLine
 10
897.9238506632
 20
2157.4449223482
 30
0.0
 11
898.6975003877
 21
2158.9310896414
 31
0.0
  0
ARC
  5
43B
330
1F
100
AcDbEntity
  8
KONTUR
100
AcDbCircle
 10
897.9238506632
 20
2159.7383933955
 30
0.0
 40
0.8499999999999223
100
AcDbArc
 50
13.9305545623
 51
166.0694454377
  0
LINE
  5
43C
330
1F
100
AcDbEntity
  8
KONTUR
100
AcDbLine
 10
906.0056380779
 20
2161.717776123
 30
0.0
 11
897.4384731202
 21
2145.717776123
 31
0.0
  0
LINE
  5
43D
330
1F
100
AcDbEntity
  8
KONTUR
100
AcDbLine
 10
896.5056380779
 20
2145.717776123
 30
0.0
 11
897.4384731202
 21
2145.717776123
 31
0.0
  0
ARC
  5
43E
330
1F
100
AcDbEntity
  8
KONTUR
100
AcDbCircle
 10
896.5056380779
 20
2148.217776123
 30
0.0
 40
2.5
100
AcDbArc
 50
180.0
 51
270.0
  0
LINE
  5
43F
330
1F
100
AcDbEntity
  8
KONTUR
100
AcDbLine
 10
894.0056380779
 20
2148.217776123
 30
0.0
 11
894.0056380779
 21
2159.217776123
 31
0.0
  0
ARC
  5
440
330
1F
100
AcDbEntity
  8
KONTUR
100
AcDbCircle
 10
896.5056380779
 20
2159.217776123
 30
0.0
 40
2.5
100
AcDbArc
 50
90.0
 51
180.0
  0
LINE
  5
441
330
1F
100
AcDbEntity
  8
KONTUR
100
AcDbLine
 10
899.8319022882
 20
2159.9191311035
 30
0.0
 11
898.0084043093
 21
2156.4162240774
 31
0.0
  0
LINE
  5
442
330
1F
100
AcDbEntity
  8
KONTUR
100
AcDbLine
 10
899.6988506632
 20
2159.9883933955
 30
0.0
 11
899.8319022882
 21
2159.9191311035
 31
0.0
  0
LINE
  5
443
330
1F
100
AcDbEntity
  8
KONTUR
100
AcDbLine
 10
897.9238506632
 20
2156.5786501201
 30
0.0
 11
899.6988506632
 21
2159.9883933955
 31
0.0
  0
LINE
  5
444
330
1F
100
AcDbEntity
  8
KONTUR
100
AcDbLine
 10
896.1488506632
 20
2159.9883933955
 30
0.0
 11
897.9238506632
 21
2156.5786501201
 31
0.0
  0
LINE
  5
445
330
1F
100
AcDbEntity
  8
KONTUR
100
AcDbLine
 10
896.1488506632
 20
2159.9883933955
 30
0.0
 11
896.0157990383
 21
2159.9191311035
 31
0.0
  0
LINE
  5
446
330
1F
100
AcDbEntity
  8
KONTUR
100
AcDbLine
 10
896.0157990383
 20
2159.9191311035
 30
0.0
 11
897.8392970172
 21
2156.4162240774
 31
0.0
  0
LINE
  5
447
330
1F
100
AcDbEntity
  8
KONTUR
100
AcDbLine
 10
895.9087385087
 20
2152.7076556875
 30
0.0
 11
897.8392970172
 21
2156.4162240774
 31
0.0
  0
LINE
  5
448
330
1F
100
AcDbEntity
  8
KONTUR
100
AcDbLine
 10
896.0417901337
 20
2152.6383933955
 30
0.0
 11
895.9087385087
 21
2152.7076556875
 31
0.0
  0
LINE
  5
449
330
1F
100
AcDbEntity
  8
KONTUR
100
AcDbLine
 10
897.9238506632
 20
2156.2537980346
 30
0.0
 11
896.0417901337
 21
2152.6383933955
 31
0.0
  0
LINE
  5
44A
330
1F
100
AcDbEntity
  8
KONTUR
100
AcDbLine
 10
897.9238506632
 20
2156.2537980346
 30
0.0
 11
899.8059111928
 21
2152.6383933955
 31
0.0
  0
LINE
  5
44B
330
1F
100
AcDbEntity
  8
KONTUR
100
AcDbLine
 10
899.8059111928
 20
2152.6383933955
 30
0.0
 11
899.9389628177
 21
2152.7076556875
 31
0.0
  0
LINE
  5
44C
330
1F
100
AcDbEntity
  8
KONTUR
100
AcDbLine
 10
897.9238506632
 20
2155.3875258065
 30
0.0
 11
898.464939064
 21
2154.3481046596
 31
0.0
  0
LINE
  5
44D
330
1F
100
AcDbEntity
  8
KONTUR
100
AcDbLine
 10
898.7488506632
 20
2159.9430272148
 30
0.0
 11
898.6975003877
 21
2158.9310896414
 31
0.0
  0
LWPOLYLINE
  5
44E
330
1F
100
AcDbEntity
  8
KONTUR
100
AcDbPolyline
 90
        5
 70
   128
 43
0.0
 10
932.8926573087
 20
2180.9870068922
 10
932.47885379
 20
2180.9183568874
 10
932.1188526024
 20
2180.7041640268
 10
931.8577082177
 20
2180.3760944746
 10
931.6594842317
 20
2179.4124876614
  0
ARC
  5
44F
330
1F
100
AcDbEntity
  8
KONTUR
100
AcDbCircle
 10
932.8087725964
 20
2179.6585513807
 30
0.0
 40
1.331101307530594
100
AcDbArc
 50
350.3458158409
 51
86.386881377
  0
LWPOLYLINE
  5
450
330
1F
100
AcDbEntity
  8
KONTUR
100
AcDbPolyline
 90
        5
 70
   128
 43
0.0
 10
932.8926573087
 20
2177.8331607384
 10
933.3097294178
 20
2177.9044554246
 10
933.6695183061
 20
2178.1265095724
 10
933.9285937221
 20
2178.4610255896
 10
934.1210226933
 20
2179.4353241999
  0
ARC
  5
451
330
1F
100
AcDbEntity
  8
KONTUR
100
AcDbCircle
 10
932.9762542312
 20
2179.1695427927
 30
0.0
 40
1.338994189916278
100
AcDbArc
 50
169.5464503679
 51
266.4205461426
  0
LWPOLYLINE
  5
452
330
1F
100
AcDbEntity
  8
KONTUR
100
AcDbPolyline
 90
        3
 70
   128
 43
0.0
 10
904.1594842317
 20
2179.9100838153
 10
904.0611422314
 20
2180.3330595447
 10
903.8770323087
 20
2180.6192184307
  0
LINE
  5
453
330
1F
100
AcDbEntity
  8
KONTUR
100
AcDbLine
 10
901.6979457702
 20
2179.9100838153
 30
0.0
 11
904.1594842317
 21
2179.9100838153
 31
0.0
  0
ARC
  5
454
330
1F
100
AcDbEntity
  8
KONTUR
100
AcDbCircle
 10
902.8643855339
 20
2179.8203742992
 30
0.0
 40
1.169884404323078
100
AcDbArc
 50
85.7270336246
 51
175.6021062038
  0
LWPOLYLINE
  5
455
330
1F
100
AcDbEntity
  8
KONTUR
100
AcDbPolyline
 90
        3
 70
   128
 43
0.0
 10
903.8770323087
 20
2180.6192184307
 10
903.395777869
 20
2180.9211367468
 10
902.9515515394
 20
2180.9870068922
  0
LWPOLYLINE
  5
456
330
1F
100
AcDbEntity
  8
KONTUR
100
AcDbPolyline
 90
        3
 70
   128
 43
0.0
 10
897.9551573087
 20
2180.0807568922
 10
898.2800423902
 20
2179.9835319236
 10
898.5368880779
 20
2179.9124876614
  0
LWPOLYLINE
  5
457
330
1F
100
AcDbEntity
  8
KONTUR
100
AcDbPolyline
 90
        3
 70
   128
 43
0.0
 10
897.7015515394
 20
2180.2562376614
 10
897.832568218
 20
2180.1420523531
 10
897.9551573087
 20
2180.0807568922
  0
LWPOLYLINE
  5
458
330
1F
100
AcDbEntity
  8
KONTUR
100
AcDbPolyline
 90
        5
 70
   128
 43
0.0
 10
898.4635707702
 20
2180.9870068922
 10
897.9275502436
 20
2180.9023654403
 10
897.7126226622
 20
2180.73775363
 10
897.6440050419
 20
2180.6200222557
 10
897.6210226933
 20
2180.4858049691
  0
LWPOLYLINE
  5
459
330
1F
100
AcDbEntity
  8
KONTUR
100
AcDbPolyline
 90
        4
 70
   128
 43
0.0
 10
899.3133303856
 20
2180.3716222768
 10
899.2007071079
 20
2180.6737252112
 10
898.9593911246
 20
2180.8868947342
 10
898.4635707702
 20
2180.9870068922
  0
LINE
  5
45A
330
1F
100
AcDbEntity
  8
KONTUR
100
AcDbLine
 10
900.0825611548
 20
2180.4485453537
 30
0.0
 11
899.3133303856
 21
2180.3716222768
 31
0.0
  0
ARC
  5
45B
330
1F
100
AcDbEntity
  8
KONTUR
100
AcDbCircle
 10
898.6446109052
 20
2180.2468473989
 30
0.0
 40
1.452027198597565
100
AcDbArc
 50
7.9846523145
 51
99.415070113
  0
LWPOLYLINE
  5
45C
330
1F
100
AcDbEntity
  8
KONTUR
100
AcDbPolyline
 90
        3
 70
   128
 43
0.0
 10
897.3337630779
 20
2181.3716222768
 10
897.9123458355
 20
2181.6233154343
 10
898.4070803856
 20
2181.6793145845
  0
LWPOLYLINE
  5
45D
330
1F
100
AcDbEntity
  8
KONTUR
100
AcDbPolyline
 90
        3
 70
   128
 43
0.0
 10
896.8517919241
 20
2180.4076799691
 10
897.0090803848
 20
2181.0065135597
 10
897.3337630779
 20
2181.3716222768
  0
LWPOLYLINE
  5
45E
330
1F
100
AcDbEntity
  8
KONTUR
100
AcDbPolyline
 90
        5
 70
   128
 43
0.0
 10
898.5585226933
 20
2179.0362857384
 10
897.4346039143
 20
2179.4333836805
 10
897.1919484623
 20
2179.6061258139
 10
897.0048715779
 20
2179.8377684297
 10
896.8517919241
 20
2180.4076799691
  0
LWPOLYLINE
  5
45F
330
1F
100
AcDbEntity
  8
KONTUR
100
AcDbPolyline
 90
        3
 70
   128
 43
0.0
 10
899.2808784625
 20
2178.811526123
 10
898.8803819656
 20
2178.9499684035
 10
898.5585226933
 20
2179.0362857384
  0
ARC
  5
460
330
1F
100
AcDbEntity
  8
KONTUR
100
AcDbCircle
 10
899.149904241
 20
2178.4393066357
 30
0.0
 40
0.3945904122440206
100
AcDbArc
 50
2.5640081651
 51
70.6143740728
  0
LWPOLYLINE
  5
461
330
1F
100
AcDbEntity
  8
KONTUR
100
AcDbPolyline
 90
        5
 70
   128
 43
0.0
 10
898.6041957702
 20
2177.8331607384
 10
898.9543761398
 20
2177.8646918497
 10
899.2790531196
 20
2177.9949115529
 10
899.4695879505
 20
2178.1935765777
 10
899.5440996164
 20
2178.4569588153
  0
LWPOLYLINE
  5
462
330
1F
100
AcDbEntity
  8
KONTUR
100
AcDbPolyline
 90
        4
 70
   128
 43
0.0
 10
897.5440996164
 20
2178.6793145845
 10
897.6738725695
 20
2178.279796881
 10
897.9656225478
 20
2177.9808225757
 10
898.6041957702
 20
2177.8331607384
  0
LINE
  5
463
330
1F
100
AcDbEntity
  8
KONTUR
100
AcDbLine
 10
896.7748688471
 20
2178.6023915076
 30
0.0
 11
897.5440996164
 21
2178.6793145845
 31
0.0
  0
ARC
  5
464
330
1F
100
AcDbEntity
  8
KONTUR
100
AcDbCircle
 10
898.4061620714
 20
2178.7697039279
 30
0.0
 40
1.639850916901676
100
AcDbArc
 50
185.8560238298
 51
276.6401142078
  0
LWPOLYLINE
  5
465
330
1F
100
AcDbEntity
  8
KONTUR
100
AcDbPolyline
 90
        4
 70
   128
 43
0.0
 10
900.3133303856
 20
2178.5350838153
 10
900.1306058745
 20
2177.8753401918
 10
899.6410000748
 20
2177.3962176855
 10
898.5957823087
 20
2177.1408530461
  0
LINE
  5
466
330
1F
100
AcDbEntity
  8
KONTUR
100
AcDbLine
 10
904.9251092317
 20
2179.217776123
 30
0.0
 11
901.6979457702
 21
2179.217776123
 31
0.0
  0
LWPOLYLINE
  5
467
330
1F
100
AcDbEntity
  8
KONTUR
100
AcDbPolyline
 90
        3
 70
   128
 43
0.0
 10
904.928715001
 20
2179.4148915076
 10
904.9269836922
 20
2179.304501776
 10
904.9251092317
 20
2179.217776123
  0
ARC
  5
468
330
1F
100
AcDbEntity
  8
KONTUR
100
AcDbCircle
 10
902.914901066
 20
2179.6519907234
 30
0.0
 40
2.027723502553727
100
AcDbArc
 50
353.2851138935
 51
88.8624364507
  0
ARC
  5
469
330
1F
100
AcDbEntity
  8
KONTUR
100
AcDbCircle
 10
902.958884933
 20
2179.6325958956
 30
0.0
 40
2.04672208343773
100
AcDbArc
 50
90.104350885
 51
187.2916957002
  0
ARC
  5
46A
330
1F
100
AcDbEntity
  8
KONTUR
100
AcDbCircle
 10
902.9373992584
 20
2179.1599362576
 30
0.0
 40
2.019934088549156
100
AcDbArc
 50
173.9501612135
 51
271.6630973891
  0
ARC
  5
46B
330
1F
100
AcDbEntity
  8
KONTUR
100
AcDbCircle
 10
903.169505198
 20
2178.9343875606
 30
0.0
 40
1.801905167927127
100
AcDbArc
 50
264.4751611806
 51
344.3579301812
  0
LINE
  5
46C
330
1F
100
AcDbEntity
  8
KONTUR
100
AcDbLine
 10
904.1510707702
 20
2178.5254684307
 30
0.0
 11
904.9046765394
 21
2178.4485453537
 31
0.0
  0
ARC
  5
46D
330
1F
100
AcDbEntity
  8
KONTUR
100
AcDbCircle
 10
903.0884500458
 20
2178.9901515508
 30
0.0
 40
1.159781533793916
100
AcDbArc
 50
266.024471273
 51
336.3802829149
  0
ARC
  5
46E
330
1F
100
AcDbEntity
  8
KONTUR
100
AcDbCircle
 10
903.0097447508
 20
2179.1468733656
 30
0.0
 40
1.313713730830139
100
AcDbArc
 50
176.9061725656
 51
269.9257335806
  0
LINE
  5
46F
330
1F
100
AcDbEntity
  8
KONTUR
100
AcDbLine
 10
894.0056380779
 20
2174.717776123
 30
0.0
 11
894.0056380779
 21
2185.717776123
 31
0.0
  0
ARC
  5
470
330
1F
100
AcDbEntity
  8
KONTUR
100
AcDbCircle
 10
896.5056380779
 20
2185.717776123
 30
0.0
 40
2.5
100
AcDbArc
 50
90.0
 51
180.0
  0
LINE
  5
471
330
1F
100
AcDbEntity
  8
KONTUR
100
AcDbLine
 10
896.5056380779
 20
2188.217776123
 30
0.0
 11
907.5056380779
 21
2188.217776123
 31
0.0
  0
ARC
  5
472
330
1F
100
AcDbEntity
  8
KONTUR
100
AcDbCircle
 10
907.5056380779
 20
2185.717776123
 30
0.0
 40
2.5
100
AcDbArc
 50
0.0
 51
90.0
  0
LINE
  5
473
330
1F
100
AcDbEntity
  8
KONTUR
100
AcDbLine
 10
910.0056380779
 20
2174.717776123
 30
0.0
 11
910.0056380779
 21
2185.717776123
 31
0.0
  0
ARC
  5
474
330
1F
100
AcDbEntity
  8
KONTUR
100
AcDbCircle
 10
907.5056380779
 20
2174.717776123
 30
0.0
 40
2.5
100
AcDbArc
 50
270.0
 51
0.0
  0
LINE
  5
475
330
1F
100
AcDbEntity
  8
KONTUR
100
AcDbLine
 10
896.5056380779
 20
2172.217776123
 30
0.0
 11
907.5056380779
 21
2172.217776123
 31
0.0
  0
ARC
  5
476
330
1F
100
AcDbEntity
  8
KONTUR
100
AcDbCircle
 10
896.5056380779
 20
2174.717776123
 30
0.0
 40
2.5
100
AcDbArc
 50
180.0
 51
270.0
  0
LINE
  5
477
330
1F
100
AcDbEntity
  8
KONTUR
100
AcDbLine
 10
906.6979457702
 20
2180.9100838153
 30
0.0
 11
906.6979457702
 21
2178.4221030461
 31
0.0
  0
LINE
  5
478
330
1F
100
AcDbEntity
  8
KONTUR
100
AcDbLine
 10
907.3902534625
 20
2180.9100838153
 30
0.0
 11
906.6979457702
 21
2180.9100838153
 31
0.0
  0
LINE
  5
479
330
1F
100
AcDbEntity
  8
KONTUR
100
AcDbLine
 10
907.3902534625
 20
2181.6023915076
 30
0.0
 11
907.3902534625
 21
2180.9100838153
 31
0.0
  0
LINE
  5
47A
330
1F
100
AcDbEntity
  8
KONTUR
100
AcDbLine
 10
906.6979457702
 20
2181.6023915076
 30
0.0
 11
907.3902534625
 21
2181.6023915076
 31
0.0
  0
LINE
  5
47B
330
1F
100
AcDbEntity
  8
KONTUR
100
AcDbLine
 10
906.6979457702
 20
2183.1071991999
 30
0.0
 11
906.6979457702
 21
2181.6023915076
 31
0.0
  0
LINE
  5
47C
330
1F
100
AcDbEntity
  8
KONTUR
100
AcDbLine
 10
905.928715001
 20
2182.6696991999
 30
0.0
 11
906.6979457702
 21
2183.1071991999
 31
0.0
  0
LINE
  5
47D
330
1F
100
AcDbEntity
  8
KONTUR
100
AcDbLine
 10
905.928715001
 20
2181.6023915076
 30
0.0
 11
905.928715001
 21
2182.6696991999
 31
0.0
  0
LINE
  5
47E
330
1F
100
AcDbEntity
  8
KONTUR
100
AcDbLine
 10
905.3902534625
 20
2181.6023915076
 30
0.0
 11
905.928715001
 21
2181.6023915076
 31
0.0
  0
LINE
  5
47F
330
1F
100
AcDbEntity
  8
KONTUR
100
AcDbLine
 10
905.3902534625
 20
2180.9100838153
 30
0.0
 11
905.3902534625
 21
2181.6023915076
 31
0.0
  0
LINE
  5
480
330
1F
100
AcDbEntity
  8
KONTUR
100
AcDbLine
 10
905.928715001
 20
2180.9100838153
 30
0.0
 11
905.3902534625
 21
2180.9100838153
 31
0.0
  0
LINE
  5
481
330
1F
100
AcDbEntity
  8
KONTUR
100
AcDbLine
 10
905.928715001
 20
2178.4497472768
 30
0.0
 11
905.928715001
 21
2180.9100838153
 31
0.0
  0
LWPOLYLINE
  5
482
330
1F
100
AcDbEntity
  8
KONTUR
100
AcDbPolyline
 90
        5
 70
   128
 43
0.0
 10
906.9251092317
 20
2177.1408530461
 10
906.5645432284
 20
2177.1752013549
 10
906.2352062891
 20
2177.3210333033
 10
906.0129457967
 20
2177.6026214909
 10
905.928715001
 20
2178.4497472768
  0
LWPOLYLINE
  5
483
330
1F
100
AcDbEntity
  8
KONTUR
100
AcDbPolyline
 90
        3
 70
   128
 43
0.0
 10
907.4671765394
 20
2177.2069588153
 10
907.1652050878
 20
2177.1558363124
 10
906.9251092317
 20
2177.1408530461
  0
LINE
  5
484
330
1F
100
AcDbEntity
  8
KONTUR
100
AcDbLine
 10
907.3902534625
 20
2177.8523915076
 30
0.0
 11
907.4671765394
 21
2177.2069588153
 31
0.0
  0
LWPOLYLINE
  5
485
330
1F
100
AcDbEntity
  8
KONTUR
100
AcDbPolyline
 90
        3
 70
   128
 43
0.0
 10
907.0885707702
 20
2177.8331607384
 10
907.2577300122
 20
2177.8405100961
 10
907.3902534625
 20
2177.8523915076
  0
LWPOLYLINE
  5
486
330
1F
100
AcDbEntity
  8
KONTUR
100
AcDbPolyline
 90
        5
 70
   128
 43
0.0
 10
906.6979457702
 20
2178.4221030461
 10
906.7400658217
 20
2178.0111566957
 10
906.8001439208
 20
2177.9263997639
 10
906.8849686162
 20
2177.8671757463
 10
907.0885707702
 20
2177.8331607384
  0
LWPOLYLINE
  5
487
330
1F
100
AcDbEntity
  8
KONTUR
100
AcDbPolyline
 90
        6
 70
   128
 43
0.0
 10
898.5368880779
 20
2179.9124876614
 10
899.6960601697
 20
2179.5149371599
 10
899.9522557984
 20
2179.3476688041
 10
900.1554211135
 20
2179.1191263601
 10
900.2772326835
 20
2178.8388674805
 10
900.3133303856
 20
2178.5350838153
  0
LWPOLYLINE
  5
488
330
1F
100
AcDbEntity
  8
KONTUR
100
AcDbPolyline
 90
        3
 70
   128
 43
0.0
 10
897.6210226933
 20
2180.4858049691
 10
897.6468823361
 20
2180.3502576451
 10
897.7015515394
 20
2180.2562376614
  0
LINE
  5
489
330
1F
100
AcDbEntity
  8
KONTUR
100
AcDbLine
 10
922.3517919241
 20
2183.217776123
 30
0.0
 11
923.1210226933
 21
2183.217776123
 31
0.0
  0
LINE
  5
48A
330
1F
100
AcDbEntity
  8
KONTUR
100
AcDbLine
 10
922.3517919241
 20
2182.4485453537
 30
0.0
 11
922.3517919241
 21
2183.217776123
 31
0.0
  0
LINE
  5
48B
330
1F
100
AcDbEntity
  8
KONTUR
100
AcDbLine
 10
923.1210226933
 20
2182.4485453537
 30
0.0
 11
922.3517919241
 21
2182.4485453537
 31
0.0
  0
LINE
  5
48C
330
1F
100
AcDbEntity
  8
KONTUR
100
AcDbLine
 10
923.1210226933
 20
2183.217776123
 30
0.0
 11
923.1210226933
 21
2182.4485453537
 31
0.0
  0
LINE
  5
48D
330
1F
100
AcDbEntity
  8
KONTUR
100
AcDbLine
 10
922.3517919241
 20
2181.6023915076
 30
0.0
 11
923.1210226933
 21
2181.6023915076
 31
0.0
  0
LINE
  5
48E
330
1F
100
AcDbEntity
  8
KONTUR
100
AcDbLine
 10
922.3517919241
 20
2177.217776123
 30
0.0
 11
922.3517919241
 21
2181.6023915076
 31
0.0
  0
LINE
  5
48F
330
1F
100
AcDbEntity
  8
KONTUR
100
AcDbLine
 10
923.1210226933
 20
2177.217776123
 30
0.0
 11
922.3517919241
 21
2177.217776123
 31
0.0
  0
LINE
  5
490
330
1F
100
AcDbEntity
  8
KONTUR
100
AcDbLine
 10
923.1210226933
 20
2181.6023915076
 30
0.0
 11
923.1210226933
 21
2177.217776123
 31
0.0
  0
LWPOLYLINE
  5
491
330
1F
100
AcDbEntity
  8
KONTUR
100
AcDbPolyline
 90
        5
 70
   128
 43
0.0
 10
926.0885707702
 20
2180.9870068922
 10
925.7087098402
 20
2180.9294726114
 10
925.3694778004
 20
2180.7499280557
 10
925.1251497042
 20
2180.4563493591
 10
924.9671765394
 20
2179.5687376614
  0
LWPOLYLINE
  5
492
330
1F
100
AcDbEntity
  8
KONTUR
100
AcDbPolyline
 90
        5
 70
   128
 43
0.0
 10
926.9671765394
 20
2179.8355645845
 10
926.9356204322
 20
2180.3005968843
 10
926.7497503252
 20
2180.7215768711
 10
926.4478917187
 20
2180.9244739311
 10
926.0885707702
 20
2180.9870068922
  0
LINE
  5
493
330
1F
100
AcDbEntity
  8
KONTUR
100
AcDbLine
 10
926.9671765394
 20
2177.217776123
 30
0.0
 11
926.9671765394
 21
2179.8355645845
 31
0.0
  0
LINE
  5
494
330
1F
100
AcDbEntity
  8
KONTUR
100
AcDbLine
 10
927.7364073087
 20
2177.217776123
 30
0.0
 11
926.9671765394
 21
2177.217776123
 31
0.0
  0
LINE
  5
495
330
1F
100
AcDbEntity
  8
KONTUR
100
AcDbLine
 10
927.7364073087
 20
2179.9004684307
 30
0.0
 11
927.7364073087
 21
2177.217776123
 31
0.0
  0
LWPOLYLINE
  5
496
330
1F
100
AcDbEntity
  8
KONTUR
100
AcDbPolyline
 90
        3
 70
   128
 43
0.0
 10
927.6967438471
 20
2180.6192184307
 10
927.7313038658
 20
2180.2174987012
 10
927.7364073087
 20
2179.9004684307
  0
ARC
  5
497
330
1F
100
AcDbEntity
  8
KONTUR
100
AcDbCircle
 10
926.4223254075
 20
2180.3900017187
 30
0.0
 40
1.294867815770371
100
AcDbArc
 50
10.1961956483
 51
95.3090934327
  0
ARC
  5
498
330
1F
100
AcDbEntity
  8
KONTUR
100
AcDbCircle
 10
926.2372555138
 20
2180.1669386782
 30
0.0
 40
1.513783152128181
100
AcDbArc
 50
87.5292748861
 51
147.035709381
  0
LINE
  5
499
330
1F
100
AcDbEntity
  8
KONTUR
100
AcDbLine
 10
924.9671765394
 20
2181.6023915076
 30
0.0
 11
924.9671765394
 21
2180.9906126614
 31
0.0
  0
LINE
  5
49A
330
1F
100
AcDbEntity
  8
KONTUR
100
AcDbLine
 10
924.1979457702
 20
2181.6023915076
 30
0.0
 11
924.9671765394
 21
2181.6023915076
 31
0.0
  0
LINE
  5
49B
330
1F
100
AcDbEntity
  8
KONTUR
100
AcDbLine
 10
924.1979457702
 20
2177.217776123
 30
0.0
 11
924.1979457702
 21
2181.6023915076
 31
0.0
  0
LINE
  5
49C
330
1F
100
AcDbEntity
  8
KONTUR
100
AcDbLine
 10
924.9671765394
 20
2177.217776123
 30
0.0
 11
924.1979457702
 21
2177.217776123
 31
0.0
  0
LINE
  5
49D
330
1F
100
AcDbEntity
  8
KONTUR
100
AcDbLine
 10
924.9671765394
 20
2179.5687376614
 30
0.0
 11
924.9671765394
 21
2177.217776123
 31
0.0
  0
LINE
  5
49E
330
1F
100
AcDbEntity
  8
KONTUR
100
AcDbLine
 10
930.5356861548
 20
2180.9100838153
 30
0.0
 11
929.7664553856
 21
2180.9100838153
 31
0.0
  0
LINE
  5
49F
330
1F
100
AcDbEntity
  8
KONTUR
100
AcDbLine
 10
930.5356861548
 20
2181.6023915076
 30
0.0
 11
930.5356861548
 21
2180.9100838153
 31
0.0
  0
LINE
  5
4A0
330
1F
100
AcDbEntity
  8
KONTUR
100
AcDbLine
 10
929.7664553856
 20
2181.6023915076
 30
0.0
 11
930.5356861548
 21
2181.6023915076
 31
0.0
  0
LINE
  5
4A1
330
1F
100
AcDbEntity
  8
KONTUR
100
AcDbLine
 10
929.7664553856
 20
2181.9737857384
 30
0.0
 11
929.7664553856
 21
2181.6023915076
 31
0.0
  0
LWPOLYLINE
  5
4A2
330
1F
100
AcDbEntity
  8
KONTUR
100
AcDbPolyline
 90
        5
 70
   128
 43
0.0
 10
930.3746284625
 20
2182.6023915076
 10
930.0900114964
 20
2182.5684667916
 10
929.8567755897
 20
2182.4111755132
 10
929.7831926912
 20
2182.1987098824
 10
929.7664553856
 20
2181.9737857384
  0
LWPOLYLINE
  5
4A3
330
1F
100
AcDbEntity
  8
KONTUR
100
AcDbPolyline
 90
        3
 70
   128
 43
0.0
 10
930.8049169241
 20
2182.5639299691
 10
930.5647350251
 20
2182.5943229308
 10
930.3746284625
 20
2182.6023915076
  0
LINE
  5
4A4
330
1F
100
AcDbEntity
  8
KONTUR
100
AcDbLine
 10
930.9142919241
 20
2183.2189780461
 30
0.0
 11
930.8049169241
 21
2182.5639299691
 31
0.0
  0
LWPOLYLINE
  5
4A5
330
1F
100
AcDbEntity
  8
KONTUR
100
AcDbPolyline
 90
        3
 70
   128
 43
0.0
 10
930.2328015394
 20
2183.2946991999
 10
930.6163138228
 20
2183.2686639056
 10
930.9142919241
 20
2183.2189780461
  0
ARC
  5
4A6
330
1F
100
AcDbEntity
  8
KONTUR
100
AcDbCircle
 10
930.0821316679
 20
2182.1906349257
 30
0.0
 40
1.114297685406572
100
AcDbArc
 50
82.2289418145
 51
154.1944667228
  0
LWPOLYLINE
  5
4A7
330
1F
100
AcDbEntity
  8
KONTUR
100
AcDbPolyline
 90
        3
 70
   128
 43
0.0
 10
928.9972246164
 20
2182.0483049691
 10
929.0161207798
 20
2182.4036762837
 10
929.0789553856
 20
2182.6757088153
  0
LINE
  5
4A8
330
1F
100
AcDbEntity
  8
KONTUR
100
AcDbLine
 10
928.9972246164
 20
2181.6023915076
 30
0.0
 11
928.9972246164
 21
2182.0483049691
 31
0.0
  0
LINE
  5
4A9
330
1F
100
AcDbEntity
  8
KONTUR
100
AcDbLine
 10
928.381840001
 20
2181.6023915076
 30
0.0
 11
928.9972246164
 21
2181.6023915076
 31
0.0
  0
LINE
  5
4AA
330
1F
100
AcDbEntity
  8
KONTUR
100
AcDbLine
 10
928.381840001
 20
2180.9100838153
 30
0.0
 11
928.381840001
 21
2181.6023915076
 31
0.0
  0
LINE
  5
4AB
330
1F
100
AcDbEntity
  8
KONTUR
100
AcDbLine
 10
928.9972246164
 20
2180.9100838153
 30
0.0
 11
928.381840001
 21
2180.9100838153
 31
0.0
  0
LINE
  5
4AC
330
1F
100
AcDbEntity
  8
KONTUR
100
AcDbLine
 10
928.9972246164
 20
2177.217776123
 30
0.0
 11
928.9972246164
 21
2180.9100838153
 31
0.0
  0
LINE
  5
4AD
330
1F
100
AcDbEntity
  8
KONTUR
100
AcDbLine
 10
929.7664553856
 20
2180.9100838153
 30
0.0
 11
929.7664553856
 21
2177.217776123
 31
0.0
  0
ARC
  5
4AE
330
1F
100
AcDbEntity
  8
KONTUR
100
AcDbCircle
 10
932.8925851728
 20
2179.6716344149
 30
0.0
 40
2.007680170922174
100
AcDbArc
 50
354.2756147784
 51
89.9979413639
  0
LWPOLYLINE
  5
4AF
330
1F
100
AcDbEntity
  8
KONTUR
100
AcDbPolyline
 90
        3
 70
   128
 43
0.0
 10
931.5501092317
 20
2181.1973434307
 10
932.2589147675
 20
2181.5916098812
 10
932.8926573087
 20
2181.6793145845
  0
LWPOLYLINE
  5
4B0
330
1F
100
AcDbEntity
  8
KONTUR
100
AcDbPolyline
 90
        3
 70
   128
 43
0.0
 10
930.8902534625
 20
2179.4100838153
 10
931.0661927582
 20
2180.4904372647
 10
931.5501092317
 20
2181.1973434307
  0
ARC
  5
4B1
330
1F
100
AcDbEntity
  8
KONTUR
100
AcDbCircle
 10
932.8975696617
 20
2179.1632790154
 30
0.0
 40
2.022431935256398
100
AcDbArc
 50
172.9905137342
 51
269.860832215
  0
ARC
  5
4B2
330
1F
100
AcDbEntity
  8
KONTUR
100
AcDbCircle
 10
932.8932115913
 20
2179.1617550071
 30
0.0
 40
2.02090203704133
100
AcDbArc
 50
269.9842852072
 51
8.8131255027
  0
LINE
  5
4B3
330
1F
100
AcDbEntity
  8
KONTUR
100
AcDbLine
 10
923.0056380779
 20
2188.217776123
 30
0.0
 11
934.0056380779
 21
2188.217776123
 31
0.0
  0
ARC
  5
4B4
330
1F
100
AcDbEntity
  8
KONTUR
100
AcDbCircle
 10
934.0056380779
 20
2185.717776123
 30
0.0
 40
2.5
100
AcDbArc
 50
0.0
 51
90.0
  0
LINE
  5
4B5
330
1F
100
AcDbEntity
  8
KONTUR
100
AcDbLine
 10
936.5056380779
 20
2174.717776123
 30
0.0
 11
936.5056380779
 21
2185.717776123
 31
0.0
  0
ARC
  5
4B6
330
1F
100
AcDbEntity
  8
KONTUR
100
AcDbCircle
 10
934.0056380779
 20
2174.717776123
 30
0.0
 40
2.5
100
AcDbArc
 50
270.0
 51
0.0
  0
LINE
  5
4B7
330
1F
100
AcDbEntity
  8
KONTUR
100
AcDbLine
 10
923.0056380779
 20
2172.217776123
 30
0.0
 11
934.0056380779
 21
2172.217776123
 31
0.0
  0
ARC
  5
4B8
330
1F
100
AcDbEntity
  8
KONTUR
100
AcDbCircle
 10
923.0056380779
 20
2174.717776123
 30
0.0
 40
2.5
100
AcDbArc
 50
180.0
 51
270.0
  0
LINE
  5
4B9
330
1F
100
AcDbEntity
  8
KONTUR
100
AcDbLine
 10
920.5056380779
 20
2174.717776123
 30
0.0
 11
920.5056380779
 21
2185.717776123
 31
0.0
  0
ARC
  5
4BA
330
1F
100
AcDbEntity
  8
KONTUR
100
AcDbCircle
 10
923.0056380779
 20
2185.717776123
 30
0.0
 40
2.5
100
AcDbArc
 50
90.0
 51
180.0
  0
LINE
  5
4BB
330
1F
100
AcDbEntity
  8
KONTUR
100
AcDbLine
 10
929.7664553856
 20
2177.217776123
 30
0.0
 11
928.9972246164
 21
2177.217776123
 31
0.0
  0
LINE
  5
4BC
330
1F
100
AcDbEntity
  8
KONTUR
100
AcDbLine
 10
904.9914497382
 20
2197.467776123
 30
0.0
 11
901.9539801132
 21
2197.467776123
 31
0.0
  0
LINE
  5
4BD
330
1F
100
AcDbEntity
  8
KONTUR
100
AcDbLine
 10
890.7367764402
 20
2237.467776123
 30
0.0
 11
893.7742460652
 21
2237.467776123
 31
0.0
  0
LWPOLYLINE
  5
4BE
330
1F
100
AcDbEntity
  8
KONTUR
100
AcDbPolyline
 90
        4
 70
   128
 43
0.0
 10
897.5440996164
 20
2178.6793145845
 10
897.6738725695
 20
2178.279796881
 10
897.9656225478
 20
2177.9808225757
 10
898.6041957702
 20
2177.8331607384
  0
LWPOLYLINE
  5
4BF
330
1F
100
AcDbEntity
  8
KONTUR
100
AcDbPolyline
 90
        5
 70
   128
 43
0.0
 10
898.6041957702
 20
2177.8331607384
 10
898.9543761398
 20
2177.8646918497
 10
899.2790531196
 20
2177.9949115529
 10
899.4695879505
 20
2178.1935765777
 10
899.5440996164
 20
2178.4569588153
  0
LWPOLYLINE
  5
4C0
330
1F
100
AcDbEntity
  8
KONTUR
100
AcDbPolyline
 90
        3
 70
   128
 43
0.0
 10
899.2808784625
 20
2178.811526123
 10
898.8803819656
 20
2178.9499684035
 10
898.5585226933
 20
2179.0362857384
  0
LWPOLYLINE
  5
4C1
330
1F
100
AcDbEntity
  8
KONTUR
100
AcDbPolyline
 90
        5
 70
   128
 43
0.0
 10
898.5585226933
 20
2179.0362857384
 10
897.4346039143
 20
2179.4333836805
 10
897.1919484623
 20
2179.6061258139
 10
897.0048715779
 20
2179.8377684297
 10
896.8517919241
 20
2180.4076799691
  0
LWPOLYLINE
  5
4C2
330
1F
100
AcDbEntity
  8
KONTUR
100
AcDbPolyline
 90
        3
 70
   128
 43
0.0
 10
896.8517919241
 20
2180.4076799691
 10
897.0090803848
 20
2181.0065135597
 10
897.3337630779
 20
2181.3716222768
  0
LWPOLYLINE
  5
4C3
330
1F
100
AcDbEntity
  8
KONTUR
100
AcDbPolyline
 90
        3
 70
   128
 43
0.0
 10
897.3337630779
 20
2181.3716222768
 10
897.9123458355
 20
2181.6233154343
 10
898.4070803856
 20
2181.6793145845
  0
LWPOLYLINE
  5
4C4
330
1F
100
AcDbEntity
  8
KONTUR
100
AcDbPolyline
 90
        4
 70
   128
 43
0.0
 10
899.3133303856
 20
2180.3716222768
 10
899.2007071079
 20
2180.6737252112
 10
898.9593911246
 20
2180.8868947342
 10
898.4635707702
 20
2180.9870068922
  0
LWPOLYLINE
  5
4C5
330
1F
100
AcDbEntity
  8
KONTUR
100
AcDbPolyline
 90
        5
 70
   128
 43
0.0
 10
898.4635707702
 20
2180.9870068922
 10
897.9275502436
 20
2180.9023654403
 10
897.7126226622
 20
2180.73775363
 10
897.6440050419
 20
2180.6200222557
 10
897.6210226933
 20
2180.4858049691
  0
LWPOLYLINE
  5
4C6
330
1F
100
AcDbEntity
  8
KONTUR
100
AcDbPolyline
 90
        3
 70
   128
 43
0.0
 10
897.6210226933
 20
2180.4858049691
 10
897.6468823361
 20
2180.3502576451
 10
897.7015515394
 20
2180.2562376614
  0
LWPOLYLINE
  5
4C7
330
1F
100
AcDbEntity
  8
KONTUR
100
AcDbPolyline
 90
        3
 70
   128
 43
0.0
 10
897.7015515394
 20
2180.2562376614
 10
897.832568218
 20
2180.1420523531
 10
897.9551573087
 20
2180.0807568922
  0
LWPOLYLINE
  5
4C8
330
1F
100
AcDbEntity
  8
KONTUR
100
AcDbPolyline
 90
        3
 70
   128
 43
0.0
 10
897.9551573087
 20
2180.0807568922
 10
898.2800423902
 20
2179.9835319236
 10
898.5368880779
 20
2179.9124876614
  0
LWPOLYLINE
  5
4C9
330
1F
100
AcDbEntity
  8
KONTUR
100
AcDbPolyline
 90
        6
 70
   128
 43
0.0
 10
898.5368880779
 20
2179.9124876614
 10
899.6960601697
 20
2179.5149371599
 10
899.9522557984
 20
2179.3476688041
 10
900.1554211135
 20
2179.1191263601
 10
900.2772326835
 20
2178.8388674805
 10
900.3133303856
 20
2178.5350838153
  0
LWPOLYLINE
  5
4CA
330
1F
100
AcDbEntity
  8
KONTUR
100
AcDbPolyline
 90
        4
 70
   128
 43
0.0
 10
900.3133303856
 20
2178.5350838153
 10
900.1306058745
 20
2177.8753401918
 10
899.6410000748
 20
2177.3962176855
 10
898.5957823087
 20
2177.1408530461
  0
LWPOLYLINE
  5
4CB
330
1F
100
AcDbEntity
  8
KONTUR
100
AcDbPolyline
 90
        3
 70
   128
 43
0.0
 10
904.928715001
 20
2179.4148915076
 10
904.9269836922
 20
2179.304501776
 10
904.9251092317
 20
2179.217776123
  0
LWPOLYLINE
  5
4CC
330
1F
100
AcDbEntity
  8
KONTUR
100
AcDbPolyline
 90
        3
 70
   128
 43
0.0
 10
904.1594842317
 20
2179.9100838153
 10
904.0611422314
 20
2180.3330595447
 10
903.8770323087
 20
2180.6192184307
  0
LWPOLYLINE
  5
4CD
330
1F
100
AcDbEntity
  8
KONTUR
100
AcDbPolyline
 90
        3
 70
   128
 43
0.0
 10
903.8770323087
 20
2180.6192184307
 10
903.395777869
 20
2180.9211367468
 10
902.9515515394
 20
2180.9870068922
  0
LWPOLYLINE
  5
4CE
330
1F
100
AcDbEntity
  8
KONTUR
100
AcDbPolyline
 90
        3
 70
   128
 43
0.0
 10
907.4671765394
 20
2177.2069588153
 10
907.1652050878
 20
2177.1558363124
 10
906.9251092317
 20
2177.1408530461
  0
LWPOLYLINE
  5
4CF
330
1F
100
AcDbEntity
  8
KONTUR
100
AcDbPolyline
 90
        5
 70
   128
 43
0.0
 10
906.9251092317
 20
2177.1408530461
 10
906.5645432284
 20
2177.1752013549
 10
906.2352062891
 20
2177.3210333033
 10
906.0129457967
 20
2177.6026214909
 10
905.928715001
 20
2178.4497472768
  0
LWPOLYLINE
  5
4D0
330
1F
100
AcDbEntity
  8
KONTUR
100
AcDbPolyline
 90
        5
 70
   128
 43
0.0
 10
906.6979457702
 20
2178.4221030461
 10
906.7400658217
 20
2178.0111566957
 10
906.8001439208
 20
2177.9263997639
 10
906.8849686162
 20
2177.8671757463
 10
907.0885707702
 20
2177.8331607384
  0
LWPOLYLINE
  5
4D1
330
1F
100
AcDbEntity
  8
KONTUR
100
AcDbPolyline
 90
        3
 70
   128
 43
0.0
 10
907.0885707702
 20
2177.8331607384
 10
907.2577300122
 20
2177.8405100961
 10
907.3902534625
 20
2177.8523915076
  0
LWPOLYLINE
  5
4D2
330
1F
100
AcDbEntity
  8
KONTUR
100
AcDbPolyline
 90
        3
 70
   128
 43
0.0
 10
927.6967438471
 20
2180.6192184307
 10
927.7313038658
 20
2180.2174987012
 10
927.7364073087
 20
2179.9004684307
  0
LWPOLYLINE
  5
4D3
330
1F
100
AcDbEntity
  8
KONTUR
100
AcDbPolyline
 90
        5
 70
   128
 43
0.0
 10
926.9671765394
 20
2179.8355645845
 10
926.9356204322
 20
2180.3005968843
 10
926.7497503252
 20
2180.7215768711
 10
926.4478917187
 20
2180.9244739311
 10
926.0885707702
 20
2180.9870068922
  0
LWPOLYLINE
  5
4D4
330
1F
100
AcDbEntity
  8
KONTUR
100
AcDbPolyline
 90
        5
 70
   128
 43
0.0
 10
926.0885707702
 20
2180.9870068922
 10
925.7087098402
 20
2180.9294726114
 10
925.3694778004
 20
2180.7499280557
 10
925.1251497042
 20
2180.4563493591
 10
924.9671765394
 20
2179.5687376614
  0
LWPOLYLINE
  5
4D5
330
1F
100
AcDbEntity
  8
KONTUR
100
AcDbPolyline
 90
        3
 70
   128
 43
0.0
 10
928.9972246164
 20
2182.0483049691
 10
929.0161207798
 20
2182.4036762837
 10
929.0789553856
 20
2182.6757088153
  0
LWPOLYLINE
  5
4D6
330
1F
100
AcDbEntity
  8
KONTUR
100
AcDbPolyline
 90
        3
 70
   128
 43
0.0
 10
930.2328015394
 20
2183.2946991999
 10
930.6163138228
 20
2183.2686639056
 10
930.9142919241
 20
2183.2189780461
  0
LWPOLYLINE
  5
4D7
330
1F
100
AcDbEntity
  8
KONTUR
100
AcDbPolyline
 90
        3
 70
   128
 43
0.0
 10
930.8049169241
 20
2182.5639299691
 10
930.5647350251
 20
2182.5943229308
 10
930.3746284625
 20
2182.6023915076
  0
LWPOLYLINE
  5
4D8
330
1F
100
AcDbEntity
  8
KONTUR
100
AcDbPolyline
 90
        5
 70
   128
 43
0.0
 10
930.3746284625
 20
2182.6023915076
 10
930.0900114964
 20
2182.5684667916
 10
929.8567755897
 20
2182.4111755132
 10
929.7831926912
 20
2182.1987098824
 10
929.7664553856
 20
2181.9737857384
  0
LWPOLYLINE
  5
4D9
330
1F
100
AcDbEntity
  8
KONTUR
100
AcDbPolyline
 90
        3
 70
   128
 43
0.0
 10
931.5501092317
 20
2181.1973434307
 10
932.2589147675
 20
2181.5916098812
 10
932.8926573087
 20
2181.6793145845
  0
LWPOLYLINE
  5
4DA
330
1F
100
AcDbEntity
  8
KONTUR
100
AcDbPolyline
 90
        5
 70
   128
 43
0.0
 10
932.8926573087
 20
2180.9870068922
 10
932.47885379
 20
2180.9183568874
 10
932.1188526024
 20
2180.7041640268
 10
931.8577082177
 20
2180.3760944746
 10
931.6594842317
 20
2179.4124876614
  0
LWPOLYLINE
  5
4DB
330
1F
100
AcDbEntity
  8
KONTUR
100
AcDbPolyline
 90
        3
 70
   128
 43
0.0
 10
930.8902534625
 20
2179.4100838153
 10
931.0661927582
 20
2180.4904372647
 10
931.5501092317
 20
2181.1973434307
  0
LWPOLYLINE
  5
4DC
330
1F
100
AcDbEntity
  8
KONTUR
100
AcDbPolyline
 90
        5
 70
   128
 43
0.0
 10
932.8926573087
 20
2177.8331607384
 10
933.3097294178
 20
2177.9044554246
 10
933.6695183061
 20
2178.1265095724
 10
933.9285937221
 20
2178.4610255896
 10
934.1210226933
 20
2179.4353241999
  0
LINE
  5
4DD
330
1F
100
AcDbEntity
  8
KONTUR
100
AcDbLine
 10
751.5556380779
 20
2097.667905663
 30
0.0
 11
751.5556380779
 21
2093.667905663
 31
0.0
  0
ARC
  5
4DE
330
1F
100
AcDbEntity
  8
KONTUR
100
AcDbCircle
 10
750.5556380779
 20
2093.667905663
 30
0.0
 40
1.0
100
AcDbArc
 50
270.0
 51
0.0
  0
ARC
  5
4DF
330
1F
100
AcDbEntity
  8
KONTUR
100
AcDbCircle
 10
738.5556380779
 20
2093.667905663
 30
0.0
 40
1.0
100
AcDbArc
 50
180.0
 51
270.0
  0
LINE
  5
4E0
330
1F
100
AcDbEntity
  8
KONTUR
100
AcDbLine
 10
750.5556380779
 20
2092.667905663
 30
0.0
 11
738.5556380779
 21
2092.667905663
 31
0.0
  0
LINE
  5
4E1
330
1F
100
AcDbEntity
  8
KONTUR
100
AcDbLine
 10
737.5556380779
 20
2093.667905663
 30
0.0
 11
737.5556380779
 21
2097.667905663
 31
0.0
  0
LINE
  5
4E2
330
1F
100
AcDbEntity
  8
KONTUR
100
AcDbLine
 10
740.5556380779
 20
2084.467905663
 30
0.0
 11
740.5556380779
 21
2092.667905663
 31
0.0
  0
LINE
  5
4E3
330
1F
100
AcDbEntity
  8
KONTUR
100
AcDbLine
 10
748.5556380779
 20
2084.467905663
 30
0.0
 11
748.5556380779
 21
2092.667905663
 31
0.0
  0
LINE
  5
4E4
330
1F
100
AcDbEntity
  8
KONTUR
100
AcDbLine
 10
725.5556380779
 20
2092.667905663
 30
0.0
 11
713.5556380779
 21
2092.667905663
 31
0.0
  0
ARC
  5
4E5
330
1F
100
AcDbEntity
  8
KONTUR
100
AcDbCircle
 10
725.5556380779
 20
2093.667905663
 30
0.0
 40
1.0
100
AcDbArc
 50
270.0
 51
0.0
  0
LINE
  5
4E6
330
1F
100
AcDbEntity
  8
KONTUR
100
AcDbLine
 10
712.5556380779
 20
2093.667905663
 30
0.0
 11
712.5556380779
 21
2097.667905663
 31
0.0
  0
LINE
  5
4E7
330
1F
100
AcDbEntity
  8
KONTUR
100
AcDbLine
 10
726.5556380779
 20
2097.667905663
 30
0.0
 11
726.5556380779
 21
2093.667905663
 31
0.0
  0
ARC
  5
4E8
330
1F
100
AcDbEntity
  8
KONTUR
100
AcDbCircle
 10
713.5556380779
 20
2093.667905663
 30
0.0
 40
1.0
100
AcDbArc
 50
180.0
 51
270.0
  0
LINE
  5
4E9
330
1F
100
AcDbEntity
  8
KONTUR
100
AcDbLine
 10
715.5556380779
 20
2083.167905663
 30
0.0
 11
715.5556380779
 21
2092.667905663
 31
0.0
  0
LINE
  5
4EA
330
1F
100
AcDbEntity
  8
KONTUR
100
AcDbLine
 10
723.5556380779
 20
2083.167905663
 30
0.0
 11
723.5556380779
 21
2092.667905663
 31
0.0
  0
LINE
  5
4EB
330
1F
100
AcDbEntity
  8
KONTUR
100
AcDbLine
 10
560.5556380779
 20
2095.667905663
 30
0.0
 11
589.7056380779
 21
2095.667905663
 31
0.0
  0
LINE
  5
4EC
330
1F
100
AcDbEntity
  8
KONTUR
100
AcDbLine
 10
531.4056380779
 20
2095.667905663
 30
0.0
 11
560.5556380779
 21
2095.667905663
 31
0.0
  0
LINE
  5
4ED
330
1F
100
AcDbEntity
  8
KONTUR
100
AcDbLine
 10
996.5585818031
 20
2454.567905663
 30
0.0
 11
997.4071099405
 21
2454.567905663
 31
0.0
  0
LINE
  5
4EE
330
1F
100
AcDbEntity
  8
KONTUR
100
AcDbLine
 10
997.4071099405
 20
2098.867905663
 30
0.0
 11
996.5585818031
 21
2098.867905663
 31
0.0
  0
LINE
  5
4EF
330
1F
100
AcDbEntity
  8
KONTUR
100
AcDbLine
 10
322.95939198
 20
2098.867905663
 30
0.0
 11
322.5526943527
 21
2098.867905663
 31
0.0
  0
LINE
  5
4F0
330
1F
100
AcDbEntity
  8
KONTUR
100
AcDbLine
 10
322.5526943527
 20
2454.567905663
 30
0.0
 11
322.95939198
 21
2454.567905663
 31
0.0
  0
LINE
  5
4F1
330
1F
100
AcDbEntity
  8
KONTUR
100
AcDbLine
 10
996.1518841758
 20
2454.567905663
 30
0.0
 11
996.5585818031
 21
2454.567905663
 31
0.0
  0
LINE
  5
4F2
330
1F
100
AcDbEntity
  8
KONTUR
100
AcDbLine
 10
996.5585818031
 20
2098.867905663
 30
0.0
 11
996.1518841758
 21
2098.867905663
 31
0.0
  0
ARC
  5
4F3
330
1F
100
AcDbEntity
  8
KONTUR
100
AcDbCircle
 10
992.5842025133
 20
2098.9322840968
 30
0.0
 40
3.568262466178663
100
AcDbArc
 50
339.2469947157
 51
358.966215986
  0
LINE
  5
4F4
330
1F
100
AcDbEntity
  8
KONTUR
100
AcDbLine
 10
995.9209440681
 20
2097.667905663
 30
0.0
 11
323.1903320877
 21
2097.667905663
 31
0.0
  0
ARC
  5
4F5
330
1F
100
AcDbEntity
  8
KONTUR
100
AcDbCircle
 10
326.5270736425
 20
2098.9322840968
 30
0.0
 40
3.568262466172352
100
AcDbArc
 50
181.033784014
 51
200.7530052843
  0
ARC
  5
4F6
330
1F
100
AcDbEntity
  8
KONTUR
100
AcDbCircle
 10
326.5270736425
 20
2454.5035272291
 30
0.0
 40
3.568262466175629
100
AcDbArc
 50
159.2469947157
 51
178.966215986
  0
LINE
  5
4F7
330
1F
100
AcDbEntity
  8
KONTUR
100
AcDbLine
 10
995.9209440681
 20
2455.767905663
 30
0.0
 11
323.1903320877
 21
2455.767905663
 31
0.0
  0
ARC
  5
4F8
330
1F
100
AcDbEntity
  8
KONTUR
100
AcDbCircle
 10
992.5842025133
 20
2454.5035272291
 30
0.0
 40
3.568262466167014
100
AcDbArc
 50
1.033784014
 51
20.7530052843
  0
LINE
  5
4F9
330
1F
100
AcDbEntity
  8
KONTUR
100
AcDbLine
 10
321.7041662153
 20
2454.567905663
 30
0.0
 11
322.5526943527
 21
2454.567905663
 31
0.0
  0
LINE
  5
4FA
330
1F
100
AcDbEntity
  8
KONTUR
100
AcDbLine
 10
322.5526943527
 20
2098.867905663
 30
0.0
 11
321.7041662153
 21
2098.867905663
 31
0.0
  0
LINE
  5
4FB
330
1F
100
AcDbEntity
  8
KONTUR
100
AcDbLine
 10
1013.970256527
 20
2454.567905663
 30
0.0
 11
1014.2041662153
 21
2454.567905663
 31
0.0
  0
LINE
  5
4FC
330
1F
100
AcDbEntity
  8
KONTUR
100
AcDbLine
 10
1014.2041662153
 20
2098.867905663
 30
0.0
 11
1013.9563084099
 21
2098.867905663
 31
0.0
  0
LINE
  5
4FD
330
1F
100
AcDbEntity
  8
KONTUR
100
AcDbLine
 10
997.4071099405
 20
2454.567905663
 30
0.0
 11
997.6591271461
 21
2454.567905663
 31
0.0
  0
LINE
  5
4FE
330
1F
100
AcDbEntity
  8
KONTUR
100
AcDbLine
 10
997.6591271461
 20
2098.867905663
 30
0.0
 11
997.4071099405
 21
2098.867905663
 31
0.0
  0
LINE
  5
4FF
330
1F
100
AcDbEntity
  8
KONTUR
100
AcDbLine
 10
305.1549677459
 20
2098.867905663
 30
0.0
 11
304.9071099405
 21
2098.867905663
 31
0.0
  0
LINE
  5
500
330
1F
100
AcDbEntity
  8
KONTUR
100
AcDbLine
 10
304.9071099405
 20
2454.567905663
 30
0.0
 11
305.1410196288
 21
2454.567905663
 31
0.0
  0
LINE
  5
501
330
1F
100
AcDbEntity
  8
KONTUR
100
AcDbLine
 10
321.4521490097
 20
2454.567905663
 30
0.0
 11
321.7041662153
 21
2454.567905663
 31
0.0
  0
LINE
  5
502
330
1F
100
AcDbEntity
  8
KONTUR
100
AcDbLine
 10
321.7041662153
 20
2098.867905663
 30
0.0
 11
321.4521490097
 21
2098.867905663
 31
0.0
  0
LWPOLYLINE
  5
503
330
1F
100
AcDbEntity
  8
KONTUR
100
AcDbPolyline
 90
        5
 70
   128
 43
0.0
 10
997.6591271461
 20
2454.567905663
 10
997.6134836567
 20
2455.0271257818
 10
997.4484927469
 20
2455.4164338004
 10
997.1921572761
 20
2455.676561102
 10
996.8863864851
 20
2455.767905663
  0
LWPOLYLINE
  5
504
330
1F
100
AcDbEntity
  8
KONTUR
100
AcDbPolyline
 90
        5
 70
   128
 43
0.0
 10
997.0934417211
 20
2454.567905663
 10
997.0908584707
 20
2454.7209790359
 10
997.0484927469
 20
2454.8507483754
 10
996.975678836
 20
2454.937457476
 10
996.8863864851
 20
2454.967905663
  0
LINE
  5
505
330
1F
100
AcDbEntity
  8
KONTUR
100
AcDbLine
 10
996.8863864851
 20
2454.967905663
 30
0.0
 11
996.8863864851
 21
2455.767905663
 31
0.0
  0
LINE
  5
506
330
1F
100
AcDbEntity
  8
KONTUR
100
AcDbLine
 10
1013.0187820613
 20
2455.767905663
 30
0.0
 11
996.8863864851
 21
2455.767905663
 31
0.0
  0
ARC
  5
507
330
1F
100
AcDbEntity
  8
KONTUR
100
AcDbCircle
 10
1012.8324013518
 20
2454.6429154001
 30
0.0
 40
1.140324892486996
100
AcDbArc
 50
356.2284023061
 51
80.5930710838
  0
LWPOLYLINE
  5
508
330
1F
100
AcDbEntity
  8
KONTUR
100
AcDbPolyline
 90
        5
 70
   128
 43
0.0
 10
321.4521490097
 20
2098.867905663
 10
321.4977924991
 20
2098.4086855441
 10
321.6627834089
 20
2098.0193775255
 10
321.9191188797
 20
2097.759250224
 10
322.2248896707
 20
2097.667905663
  0
LWPOLYLINE
  5
509
330
1F
100
AcDbEntity
  8
KONTUR
100
AcDbPolyline
 90
        5
 70
   128
 43
0.0
 10
322.0178344346
 20
2098.867905663
 10
322.020417685
 20
2098.71483229
 10
322.0627834089
 20
2098.5850629505
 10
322.1355973198
 20
2098.49835385
 10
322.2248896707
 20
2098.467905663
  0
LINE
  5
50A
330
1F
100
AcDbEntity
  8
KONTUR
100
AcDbLine
 10
322.2248896707
 20
2098.467905663
 30
0.0
 11
322.2248896707
 21
2097.667905663
 31
0.0
  0
LINE
  5
50B
330
1F
100
AcDbEntity
  8
KONTUR
100
AcDbLine
 10
322.2248896707
 20
2097.667905663
 30
0.0
 11
305.9826624656
 21
2097.667905663
 31
0.0
  0
ARC
  5
50C
330
1F
100
AcDbEntity
  8
KONTUR
100
AcDbCircle
 10
306.2005397459
 20
2098.7036349538
 30
0.0
 40
1.058397691346437
100
AcDbArc
 50
171.0711993976
 51
258.1203999343
  0
ARC
  5
50D
330
1F
100
AcDbEntity
  8
KONTUR
100
AcDbCircle
 10
306.278874804
 20
2454.6429154001
 30
0.0
 40
1.140324892486374
100
AcDbArc
 50
99.4069289162
 51
183.771597694
  0
LINE
  5
50E
330
1F
100
AcDbEntity
  8
KONTUR
100
AcDbLine
 10
306.0924940945
 20
2455.767905663
 30
0.0
 11
322.2248896707
 21
2455.767905663
 31
0.0
  0
LWPOLYLINE
  5
50F
330
1F
100
AcDbEntity
  8
KONTUR
100
AcDbPolyline
 90
        5
 70
   128
 43
0.0
 10
322.2248896707
 20
2455.767905663
 10
321.9191188797
 20
2455.676561102
 10
321.6627834089
 20
2455.4164338004
 10
321.4977924991
 20
2455.0271257818
 10
321.4521490097
 20
2454.567905663
  0
ARC
  5
510
330
1F
100
AcDbEntity
  8
KONTUR
100
AcDbCircle
 10
1012.9107364099
 20
2098.7036349538
 30
0.0
 40
1.058397691346606
100
AcDbArc
 50
281.8796000657
 51
8.9288006024
  0
LINE
  5
511
330
1F
100
AcDbEntity
  8
KONTUR
100
AcDbLine
 10
1013.1286136902
 20
2097.667905663
 30
0.0
 11
996.8863864851
 21
2097.667905663
 31
0.0
  0
LWPOLYLINE
  5
512
330
1F
100
AcDbEntity
  8
KONTUR
100
AcDbPolyline
 90
        5
 70
   128
 43
0.0
 10
996.8863864851
 20
2097.667905663
 10
997.1921572761
 20
2097.759250224
 10
997.4484927469
 20
2098.0193775255
 10
997.6134836567
 20
2098.4086855441
 10
997.6591271461
 20
2098.867905663
  0
LINE
  5
513
330
1F
100
AcDbEntity
  8
KONTUR
100
AcDbLine
 10
322.2248896707
 20
2454.967905663
 30
0.0
 11
322.2248896707
 21
2455.767905663
 31
0.0
  0
LWPOLYLINE
  5
514
330
1F
100
AcDbEntity
  8
KONTUR
100
AcDbPolyline
 90
        5
 70
   128
 43
0.0
 10
322.2248896707
 20
2454.967905663
 10
322.1355973198
 20
2454.937457476
 10
322.0627834089
 20
2454.8507483754
 10
322.0204176851
 20
2454.7209790359
 10
322.0178344346
 20
2454.567905663
  0
LINE
  5
515
330
1F
100
AcDbEntity
  8
KONTUR
100
AcDbLine
 10
996.8863864851
 20
2098.467905663
 30
0.0
 11
996.8863864851
 21
2097.667905663
 31
0.0
  0
LWPOLYLINE
  5
516
330
1F
100
AcDbEntity
  8
KONTUR
100
AcDbPolyline
 90
        5
 70
   128
 43
0.0
 10
996.8863864851
 20
2098.467905663
 10
996.975678836
 20
2098.49835385
 10
997.0484927469
 20
2098.5850629505
 10
997.0908584707
 20
2098.71483229
 10
997.0934417211
 20
2098.867905663
  0
LINE
  5
517
330
1F
100
AcDbEntity
  8
KONTUR
100
AcDbLine
 10
996.1015945438
 20
2454.967905663
 30
0.0
 11
996.8863864851
 21
2454.967905663
 31
0.0
  0
LINE
  5
518
330
1F
100
AcDbEntity
  8
KONTUR
100
AcDbLine
 10
995.9209440681
 20
2455.767905663
 30
0.0
 11
996.8863864851
 21
2455.767905663
 31
0.0
  0
LINE
  5
519
330
1F
100
AcDbEntity
  8
KONTUR
100
AcDbLine
 10
996.1015945438
 20
2098.467905663
 30
0.0
 11
996.8863864851
 21
2098.467905663
 31
0.0
  0
LINE
  5
51A
330
1F
100
AcDbEntity
  8
KONTUR
100
AcDbLine
 10
995.9209440681
 20
2097.667905663
 30
0.0
 11
996.8863864851
 21
2097.667905663
 31
0.0
  0
LINE
  5
51B
330
1F
100
AcDbEntity
  8
KONTUR
100
AcDbLine
 10
323.009681612
 20
2098.467905663
 30
0.0
 11
322.2248896707
 21
2098.467905663
 31
0.0
  0
LINE
  5
51C
330
1F
100
AcDbEntity
  8
KONTUR
100
AcDbLine
 10
323.1903320877
 20
2097.667905663
 30
0.0
 11
322.2248896707
 21
2097.667905663
 31
0.0
  0
LINE
  5
51D
330
1F
100
AcDbEntity
  8
KONTUR
100
AcDbLine
 10
322.2248896707
 20
2454.967905663
 30
0.0
 11
323.009681612
 21
2454.967905663
 31
0.0
  0
LINE
  5
51E
330
1F
100
AcDbEntity
  8
KONTUR
100
AcDbLine
 10
322.2248896707
 20
2455.767905663
 30
0.0
 11
323.1903320877
 21
2455.767905663
 31
0.0
  0
LINE
  5
51F
330
1F
100
AcDbEntity
  8
KONTUR
100
AcDbLine
 10
1014.5556380779
 20
2098.867905663
 30
0.0
 11
1014.5556380779
 21
2454.567905663
 31
0.0
  0
LINE
  5
520
330
1F
100
AcDbEntity
  8
KONTUR
100
AcDbLine
 10
1014.2041662153
 20
2454.567905663
 30
0.0
 11
1014.5556380779
 21
2454.567905663
 31
0.0
  0
LINE
  5
521
330
1F
100
AcDbEntity
  8
KONTUR
100
AcDbLine
 10
1014.5556380779
 20
2098.867905663
 30
0.0
 11
1014.2041662153
 21
2098.867905663
 31
0.0
  0
LINE
  5
522
330
1F
100
AcDbEntity
  8
KONTUR
100
AcDbLine
 10
304.5556380779
 20
2098.867905663
 30
0.0
 11
304.5556380779
 21
2454.567905663
 31
0.0
  0
LINE
  5
523
330
1F
100
AcDbEntity
  8
KONTUR
100
AcDbLine
 10
304.5556380779
 20
2454.567905663
 30
0.0
 11
304.9071099405
 21
2454.567905663
 31
0.0
  0
LINE
  5
524
330
1F
100
AcDbEntity
  8
KONTUR
100
AcDbLine
 10
304.9071099405
 20
2098.867905663
 30
0.0
 11
304.5556380779
 21
2098.867905663
 31
0.0
  0
LINE
  5
525
330
1F
100
AcDbEntity
  8
KONTUR
100
AcDbLine
 10
1013.3556380779
 20
2455.6801054276
 30
0.0
 11
1013.3556380779
 21
2455.767905663
 31
0.0
  0
ARC
  5
526
330
1F
100
AcDbEntity
  8
KONTUR
100
AcDbCircle
 10
1013.3556380779
 20
2454.567905663
 30
0.0
 40
1.199999999999704
100
AcDbArc
 50
360.0
 51
90.0
  0
LINE
  5
527
330
1F
100
AcDbEntity
  8
KONTUR
100
AcDbLine
 10
305.7556380779
 20
2455.6801054276
 30
0.0
 11
305.7556380779
 21
2455.767905663
 31
0.0
  0
ARC
  5
528
330
1F
100
AcDbEntity
  8
KONTUR
100
AcDbCircle
 10
305.7556380779
 20
2454.567905663
 30
0.0
 40
1.200000000000045
100
AcDbArc
 50
90.0
 51
180.0
  0
LINE
  5
529
330
1F
100
AcDbEntity
  8
KONTUR
100
AcDbLine
 10
1013.3556380779
 20
2097.7328096976
 30
0.0
 11
1013.3556380779
 21
2097.667905663
 31
0.0
  0
ARC
  5
52A
330
1F
100
AcDbEntity
  8
KONTUR
100
AcDbCircle
 10
1013.3556380779
 20
2098.867905663
 30
0.0
 40
1.199999999999818
100
AcDbArc
 50
270.0
 51
0.0
  0
ARC
  5
52B
330
1F
100
AcDbEntity
  8
KONTUR
100
AcDbCircle
 10
305.7556380779
 20
2098.867905663
 30
0.0
 40
1.199999999999818
100
AcDbArc
 50
180.0
 51
270.0
  0
LINE
  5
52C
330
1F
100
AcDbEntity
  8
KONTUR
100
AcDbLine
 10
305.7556380779
 20
2097.7328096976
 30
0.0
 11
305.7556380779
 21
2097.667905663
 31
0.0
  0
LINE
  5
52D
330
1F
100
AcDbEntity
  8
KONTUR
100
AcDbLine
 10
305.7556380779
 20
2455.767905663
 30
0.0
 11
306.0924940945
 21
2455.767905663
 31
0.0
  0
LINE
  5
52E
330
1F
100
AcDbEntity
  8
KONTUR
100
AcDbLine
 10
1013.0187820613
 20
2455.767905663
 30
0.0
 11
1013.3556380779
 21
2455.767905663
 31
0.0
  0
LINE
  5
52F
330
1F
100
AcDbEntity
  8
KONTUR
100
AcDbLine
 10
1013.1286136902
 20
2097.667905663
 30
0.0
 11
1013.3556380779
 21
2097.667905663
 31
0.0
  0
LINE
  5
530
330
1F
100
AcDbEntity
  8
KONTUR
100
AcDbLine
 10
305.9826624656
 20
2097.667905663
 30
0.0
 11
305.7556380779
 21
2097.667905663
 31
0.0
  0
LINE
  5
531
330
1F
100
AcDbEntity
  8
KONTUR
100
AcDbLine
 10
1018.8556380779
 20
2119.967905663
 30
0.0
 11
1020.0556380779
 21
2119.967905663
 31
0.0
  0
LINE
  5
532
330
1F
100
AcDbEntity
  8
KONTUR
100
AcDbLine
 10
1020.0556380779
 20
2454.567905663
 30
0.0
 11
1018.8556380779
 21
2454.567905663
 31
0.0
  0
LINE
  5
533
330
1F
100
AcDbEntity
  8
KONTUR
100
AcDbLine
 10
1020.0556380779
 20
2119.967905663
 30
0.0
 11
1020.0556380779
 21
2454.567905663
 31
0.0
  0
ARC
  5
534
330
1F
100
AcDbEntity
  8
KONTUR
100
AcDbCircle
 10
1015.8373802071
 20
2120.0459825322
 30
0.0
 40
3.019267555528601
100
AcDbArc
 50
334.9564556518
 51
358.5181923316
  0
LINE
  5
535
330
1F
100
AcDbEntity
  8
KONTUR
100
AcDbLine
 10
1018.5727953654
 20
2455.767905663
 30
0.0
 11
1013.3556380779
 21
2455.767905663
 31
0.0
  0
ARC
  5
536
330
1F
100
AcDbEntity
  8
KONTUR
100
AcDbCircle
 10
1015.8373802071
 20
2454.4898287937
 30
0.0
 40
3.019267555539693
100
AcDbArc
 50
1.4818076685
 51
25.0435443481
  0
ARC
  5
537
330
1F
100
AcDbEntity
  8
KONTUR
100
AcDbCircle
 10
1018.8556380779
 20
2454.567905663
 30
0.0
 40
1.200000000001182
100
AcDbArc
 50
0.0
 51
90.0
  0
ARC
  5
538
330
1F
100
AcDbEntity
  8
KONTUR
100
AcDbCircle
 10
1018.8556380779
 20
2454.567905663
 30
0.0
 40
0.4000000000000909
100
AcDbArc
 50
0.0
 51
90.0
  0
LINE
  5
539
330
1F
100
AcDbEntity
  8
KONTUR
100
AcDbLine
 10
1018.8556380779
 20
2455.767905663
 30
0.0
 11
1018.8556380779
 21
2454.967905663
 31
0.0
  0
LINE
  5
53A
330
1F
100
AcDbEntity
  8
KONTUR
100
AcDbLine
 10
1018.8556380779
 20
2118.767905663
 30
0.0
 11
1018.8556380779
 21
2119.567905663
 31
0.0
  0
ARC
  5
53B
330
1F
100
AcDbEntity
  8
KONTUR
100
AcDbCircle
 10
1018.8556380779
 20
2119.967905663
 30
0.0
 40
0.3999999999994088
100
AcDbArc
 50
269.9999999999
 51
0.0000000001
  0
ARC
  5
53C
330
1F
100
AcDbEntity
  8
KONTUR
100
AcDbCircle
 10
1018.8556380779
 20
2119.967905663
 30
0.0
 40
1.199999999999477
100
AcDbArc
 50
270.0
 51
0.0
  0
LINE
  5
53D
330
1F
100
AcDbEntity
  8
KONTUR
100
AcDbLine
 10
1018.8556380779
 20
2455.767905663
 30
0.0
 11
1018.5727953654
 21
2455.767905663
 31
0.0
  0
LINE
  5
53E
330
1F
100
AcDbEntity
  8
KONTUR
100
AcDbLine
 10
299.0556380779
 20
2119.967905663
 30
0.0
 11
300.2556380779
 21
2119.967905663
 31
0.0
  0
LINE
  5
53F
330
1F
100
AcDbEntity
  8
KONTUR
100
AcDbLine
 10
299.0556380779
 20
2119.967905663
 30
0.0
 11
299.0556380779
 21
2454.567905663
 31
0.0
  0
LINE
  5
540
330
1F
100
AcDbEntity
  8
KONTUR
100
AcDbLine
 10
300.2556380779
 20
2454.567905663
 30
0.0
 11
299.0556380779
 21
2454.567905663
 31
0.0
  0
ARC
  5
541
330
1F
100
AcDbEntity
  8
KONTUR
100
AcDbCircle
 10
303.2738959487
 20
2120.0459825322
 30
0.0
 40
3.019267555531558
100
AcDbArc
 50
181.4818076684
 51
205.0435443482
  0
ARC
  5
542
330
1F
100
AcDbEntity
  8
KONTUR
100
AcDbCircle
 10
303.2738959486
 20
2454.4898287937
 30
0.0
 40
3.019267555526487
100
AcDbArc
 50
154.9564556518
 51
178.5181923316
  0
LINE
  5
543
330
1F
100
AcDbEntity
  8
KONTUR
100
AcDbLine
 10
305.7556380779
 20
2455.767905663
 30
0.0
 11
300.5384807904
 21
2455.767905663
 31
0.0
  0
LINE
  5
544
330
1F
100
AcDbEntity
  8
KONTUR
100
AcDbLine
 10
300.2556380779
 20
2455.767905663
 30
0.0
 11
300.2556380779
 21
2454.967905663
 31
0.0
  0
ARC
  5
545
330
1F
100
AcDbEntity
  8
KONTUR
100
AcDbCircle
 10
300.2556380779
 20
2454.567905663
 30
0.0
 40
0.4000000000000909
100
AcDbArc
 50
90.0
 51
180.0
  0
ARC
  5
546
330
1F
100
AcDbEntity
  8
KONTUR
100
AcDbCircle
 10
300.2556380779
 20
2454.567905663
 30
0.0
 40
1.199999999999534
100
AcDbArc
 50
90.0
 51
180.0
  0
ARC
  5
547
330
1F
100
AcDbEntity
  8
KONTUR
100
AcDbCircle
 10
300.2556380779
 20
2119.967905663
 30
0.0
 40
1.199999999999704
100
AcDbArc
 50
180.0
 51
270.0
  0
ARC
  5
548
330
1F
100
AcDbEntity
  8
KONTUR
100
AcDbCircle
 10
300.2556380779
 20
2119.967905663
 30
0.0
 40
0.4000000000005457
100
AcDbArc
 50
180.0000000001
 51
269.9999999999
  0
LINE
  5
549
330
1F
100
AcDbEntity
  8
KONTUR
100
AcDbLine
 10
300.2556380779
 20
2118.767905663
 30
0.0
 11
300.2556380779
 21
2119.567905663
 31
0.0
  0
LINE
  5
54A
330
1F
100
AcDbEntity
  8
KONTUR
100
AcDbLine
 10
300.5384807904
 20
2455.767905663
 30
0.0
 11
300.2556380779
 21
2455.767905663
 31
0.0
  0
LINE
  5
54B
330
1F
100
AcDbEntity
  8
KONTUR
100
AcDbLine
 10
978.0164849017
 20
595.3355149636
 30
0.0
 11
978.0935098398
 21
595.3355149636
 31
0.0
  0
ARC
  5
54C
330
1F
100
AcDbEntity
  8
KONTUR
100
AcDbCircle
 10
977.3458551823
 20
600.4124396457
 30
0.0
 40
5.130113025403379
100
AcDbArc
 50
278.2576854618
 51
289.9608251616
  0
ARC
  5
54D
330
1F
100
AcDbEntity
  8
KONTUR
100
AcDbCircle
 10
978.7798280089
 20
598.915574071
 30
0.0
 40
3.34017057969585
100
AcDbArc
 50
264.548396319
 51
275.451603681
  0
ARC
  5
54E
330
1F
100
AcDbEntity
  8
KONTUR
100
AcDbCircle
 10
976.7111898245
 20
600.4124396456
 30
0.0
 40
5.130113025391569
100
AcDbArc
 50
278.2576854618
 51
289.9608251616
  0
LINE
  5
54F
330
1F
100
AcDbEntity
  8
KONTUR
100
AcDbLine
 10
977.4480042018
 20
595.3355149636
 30
0.0
 11
976.9060248108
 21
595.3355149636
 31
0.0
  0
ARC
  5
550
330
1F
100
AcDbEntity
  8
KONTUR
100
AcDbCircle
 10
977.5178816731
 20
598.6026094599
 30
0.0
 40
3.323894593294734
100
AcDbArc
 50
244.9847564198
 51
259.3926000357
  0
ARC
  5
551
330
1F
100
AcDbEntity
  8
KONTUR
100
AcDbCircle
 10
975.7067249192
 20
601.0280213065
 30
0.0
 40
5.45261728005323
100
AcDbArc
 50
265.7338620799
 51
274.2661379201
  0
ARC
  5
552
330
1F
100
AcDbEntity
  8
KONTUR
100
AcDbCircle
 10
976.7066481164
 20
598.6026094599
 30
0.0
 40
3.323894593289976
100
AcDbArc
 50
244.9847564198
 51
259.3926000357
  0
LINE
  5
553
330
1F
100
AcDbEntity
  8
KONTUR
100
AcDbLine
 10
976.094791254
 20
595.3355149636
 30
0.0
 11
976.017766316
 21
595.3355149636
 31
0.0
  0
ARC
  5
554
330
1F
100
AcDbEntity
  8
KONTUR
100
AcDbCircle
 10
977.3887765505
 20
600.3562305718
 30
0.0
 40
5.072863307602871
100
AcDbArc
 50
254.7638477879
 51
261.7775476323
  0
LINE
  5
555
330
1F
100
AcDbEntity
  8
KONTUR
100
AcDbLine
 10
976.663271954
 20
595.3355149636
 30
0.0
 11
976.9060248108
 21
595.3355149636
 31
0.0
  0
LINE
  5
556
330
1F
100
AcDbEntity
  8
KONTUR
100
AcDbLine
 10
988.5556380779
 20
603.9679056629
 30
0.0
 11
912.5556380779
 21
603.9679056629
 31
0.0
  0
LINE
  5
557
330
1F
100
AcDbEntity
  8
KONTUR
100
AcDbLine
 10
988.5556380779
 20
598.9679056629
 30
0.0
 11
912.5556380779
 21
598.9679056629
 31
0.0
  0
LINE
  5
558
330
1F
100
AcDbEntity
  8
KONTUR
100
AcDbLine
 10
993.5556380779
 20
603.9679056629
 30
0.0
 11
993.5556380779
 21
598.9679056629
 31
0.0
  0
LINE
  5
559
330
1F
100
AcDbEntity
  8
KONTUR
100
AcDbLine
 10
988.5556380779
 20
603.9679056629
 30
0.0
 11
993.5556380779
 21
603.9679056629
 31
0.0
  0
LINE
  5
55A
330
1F
100
AcDbEntity
  8
KONTUR
100
AcDbLine
 10
993.5556380779
 20
598.9679056629
 30
0.0
 11
988.5556380779
 21
598.9679056629
 31
0.0
  0
LINE
  5
55B
330
1F
100
AcDbEntity
  8
KONTUR
100
AcDbLine
 10
907.5556380779
 20
598.9679056629
 30
0.0
 11
907.5556380779
 21
603.9679056629
 31
0.0
  0
LINE
  5
55C
330
1F
100
AcDbEntity
  8
KONTUR
100
AcDbLine
 10
907.5556380779
 20
603.9679056629
 30
0.0
 11
912.5556380779
 21
603.9679056629
 31
0.0
  0
LINE
  5
55D
330
1F
100
AcDbEntity
  8
KONTUR
100
AcDbLine
 10
912.5556380779
 20
598.9679056629
 30
0.0
 11
907.5556380779
 21
598.9679056629
 31
0.0
  0
LINE
  5
55E
330
1F
100
AcDbEntity
  8
KONTUR
100
AcDbLine
 10
993.5556380779
 20
598.9679056629
 30
0.0
 11
993.5556380779
 21
593.9679056629
 31
0.0
  0
LINE
  5
55F
330
1F
100
AcDbEntity
  8
KONTUR
100
AcDbLine
 10
907.5556380779
 20
598.9679056629
 30
0.0
 11
907.5556380779
 21
593.9679056629
 31
0.0
  0
LINE
  5
560
330
1F
100
AcDbEntity
  8
KONTUR
100
AcDbLine
 10
993.5556380779
 20
593.9679056629
 30
0.0
 11
993.5556380779
 21
569.4679056629
 31
0.0
  0
LINE
  5
561
330
1F
100
AcDbEntity
  8
KONTUR
100
AcDbLine
 10
907.5556380779
 20
593.9679056629
 30
0.0
 11
907.5556380779
 21
569.4679056629
 31
0.0
  0
ARC
  5
562
330
1F
100
AcDbEntity
  8
KONTUR
100
AcDbCircle
 10
912.5556380779
 20
569.4679056629
 30
0.0
 40
5.0
100
AcDbArc
 50
180.0
 51
270.0
  0
ARC
  5
563
330
1F
100
AcDbEntity
  8
KONTUR
100
AcDbCircle
 10
988.5556380779
 20
569.4679056629
 30
0.0
 40
5.0
100
AcDbArc
 50
270.0
 51
0.0
  0
LINE
  5
564
330
1F
100
AcDbEntity
  8
KONTUR
100
AcDbLine
 10
988.5556380779
 20
564.4679056629
 30
0.0
 11
912.5556380779
 21
564.4679056629
 31
0.0
  0
LINE
  5
565
330
1F
100
AcDbEntity
  8
KONTUR
100
AcDbLine
 10
912.5556380779
 20
2090.567905663
 30
0.0
 11
988.5556380779
 21
2090.567905663
 31
0.0
  0
LINE
  5
566
330
1F
100
AcDbEntity
  8
KONTUR
100
AcDbLine
 10
912.5556380779
 20
2095.567905663
 30
0.0
 11
988.5556380779
 21
2095.567905663
 31
0.0
  0
LINE
  5
567
330
1F
100
AcDbEntity
  8
KONTUR
100
AcDbLine
 10
912.5556380779
 20
2090.567905663
 30
0.0
 11
907.5556380779
 21
2090.567905663
 31
0.0
  0
LINE
  5
568
330
1F
100
AcDbEntity
  8
KONTUR
100
AcDbLine
 10
907.5556380779
 20
2090.567905663
 30
0.0
 11
907.5556380779
 21
2095.567905663
 31
0.0
  0
LINE
  5
569
330
1F
100
AcDbEntity
  8
KONTUR
100
AcDbLine
 10
907.5556380779
 20
2095.567905663
 30
0.0
 11
912.5556380779
 21
2095.567905663
 31
0.0
  0
LINE
  5
56A
330
1F
100
AcDbEntity
  8
KONTUR
100
AcDbLine
 10
993.5556380779
 20
2095.567905663
 30
0.0
 11
993.5556380779
 21
2090.567905663
 31
0.0
  0
LINE
  5
56B
330
1F
100
AcDbEntity
  8
KONTUR
100
AcDbLine
 10
993.5556380779
 20
2090.567905663
 30
0.0
 11
988.5556380779
 21
2090.567905663
 31
0.0
  0
LINE
  5
56C
330
1F
100
AcDbEntity
  8
KONTUR
100
AcDbLine
 10
988.5556380779
 20
2095.567905663
 30
0.0
 11
993.5556380779
 21
2095.567905663
 31
0.0
  0
LINE
  5
56D
330
1F
100
AcDbEntity
  8
KONTUR
100
AcDbLine
 10
993.5556380779
 20
2095.567905663
 30
0.0
 11
993.5556380779
 21
2097.667905663
 31
0.0
  0
LINE
  5
56E
330
1F
100
AcDbEntity
  8
KONTUR
100
AcDbLine
 10
907.5556380779
 20
2095.567905663
 30
0.0
 11
907.5556380779
 21
2097.667905663
 31
0.0
  0
LINE
  5
56F
330
1F
100
AcDbEntity
  8
KONTUR
100
AcDbLine
 10
322.3599147192
 20
611.967905663
 30
0.0
 11
322.3056380779
 21
611.967905663
 31
0.0
  0
LINE
  5
570
330
1F
100
AcDbEntity
  8
KONTUR
100
AcDbLine
 10
322.3599147192
 20
1338.767905663
 30
0.0
 11
322.3056380779
 21
1338.767905663
 31
0.0
  0
LINE
  5
571
330
1F
100
AcDbEntity
  8
KONTUR
100
AcDbLine
 10
322.3599147192
 20
1337.867905663
 30
0.0
 11
322.3599147192
 21
1338.767905663
 31
0.0
  0
LINE
  5
572
330
1F
100
AcDbEntity
  8
KONTUR
100
AcDbLine
 10
322.3599147192
 20
1337.867905663
 30
0.0
 11
323.2056380779
 21
1337.867905663
 31
0.0
  0
LINE
  5
573
330
1F
100
AcDbEntity
  8
KONTUR
100
AcDbLine
 10
323.2056380779
 20
612.867905663
 30
0.0
 11
322.3599147192
 21
612.867905663
 31
0.0
  0
LINE
  5
574
330
1F
100
AcDbEntity
  8
KONTUR
100
AcDbLine
 10
322.3599147192
 20
612.867905663
 30
0.0
 11
322.3599147192
 21
611.967905663
 31
0.0
  0
LINE
  5
575
330
1F
100
AcDbEntity
  8
KONTUR
100
AcDbLine
 10
323.3120558552
 20
1338.767905663
 30
0.0
 11
996.0995720607
 21
1338.767905663
 31
0.0
  0
ARC
  5
576
330
1F
100
AcDbEntity
  8
KONTUR
100
AcDbCircle
 10
992.861655878
 20
1338.9947243146
 30
0.0
 40
3.245850875632281
100
AcDbArc
 50
339.6864998016
 51
355.9929300599
  0
ARC
  5
577
330
1F
100
AcDbEntity
  8
KONTUR
100
AcDbCircle
 10
327.3647724355
 20
1337.8324129274
 30
0.0
 40
4.159285796763694
100
AcDbArc
 50
167.002021544
 51
179.5110678302
  0
ARC
  5
578
330
1F
100
AcDbEntity
  8
KONTUR
100
AcDbCircle
 10
992.2161786229
 20
611.6019981503
 30
0.0
 40
3.900593916409691
100
AcDbArc
 50
5.3827256875
 51
18.937844451
  0
LINE
  5
579
330
1F
100
AcDbEntity
  8
KONTUR
100
AcDbLine
 10
323.3120558552
 20
611.967905663
 30
0.0
 11
996.0995720607
 21
611.967905663
 31
0.0
  0
ARC
  5
57A
330
1F
100
AcDbEntity
  8
KONTUR
100
AcDbCircle
 10
327.3647724355
 20
612.9033983985
 30
0.0
 40
4.159285796741968
100
AcDbArc
 50
180.4889321698
 51
192.9979784561
  0
ARC
  5
57B
330
1F
100
AcDbEntity
  8
KONTUR
100
AcDbCircle
 10
970.3578993089
 20
1458.6139953696
 30
0.0
 40
123.4192251460751
100
AcDbArc
 50
281.9465828836
 51
282.3739872549
  0
LINE
  5
57C
330
1F
100
AcDbEntity
  8
KONTUR
100
AcDbLine
 10
996.8056380779
 20
612.6739716801
 30
0.0
 11
996.8056380779
 21
1338.0618396458
 31
0.0
  0
ARC
  5
57D
330
1F
100
AcDbEntity
  8
KONTUR
100
AcDbCircle
 10
997.0324567256
 20
615.9118878443
 30
0.0
 40
3.245850856903156
100
AcDbArc
 50
249.6864997542
 51
265.9929301073
  0
ARC
  5
57E
330
1F
100
AcDbEntity
  8
KONTUR
100
AcDbCircle
 10
996.3322486719
 20
613.1988326228
 30
0.0
 40
0.5399159672019094
100
AcDbArc
 50
217.8011624195
 51
256.4378159604
  0
ARC
  5
57F
330
1F
100
AcDbEntity
  8
KONTUR
100
AcDbCircle
 10
995.4694301367
 20
612.3732365355
 30
0.0
 40
0.6595262796740486
100
AcDbArc
 50
17.1674365799
 51
48.5935850402
  0
LWPOLYLINE
  5
580
330
1F
100
AcDbEntity
  8
KONTUR
100
AcDbPolyline
 90
        7
 70
   128
 43
0.0
 10
996.2056380779
 20
1338.0618396458
 10
996.2001999807
 20
1338.0558413293
 10
996.1839020331
 20
1338.0446306038
 10
996.1570806297
 20
1338.0282074694
 10
996.120494731
 20
1338.006571926
 10
996.0231250291
 20
1337.9476636124
 10
995.9056380779
 20
1337.867905663
  0
LINE
  5
581
330
1F
100
AcDbEntity
  8
KONTUR
100
AcDbLine
 10
996.8056380779
 20
1338.0618396458
 30
0.0
 11
996.2056380779
 21
1338.0618396458
 31
0.0
  0
ARC
  5
582
330
1F
100
AcDbEntity
  8
KONTUR
100
AcDbCircle
 10
995.5010998528
 20
1338.3502208992
 30
0.0
 40
0.6295070791151443
100
AcDbArc
 50
309.9879859077
 51
342.5961961543
  0
LINE
  5
583
330
1F
100
AcDbEntity
  8
KONTUR
100
AcDbLine
 10
322.9237302917
 20
612.867905663
 30
0.0
 11
322.9237302917
 21
611.967905663
 31
0.0
  0
LINE
  5
584
330
1F
100
AcDbEntity
  8
KONTUR
100
AcDbLine
 10
322.3599147192
 20
611.967905663
 30
0.0
 11
322.9237302917
 21
611.967905663
 31
0.0
  0
LINE
  5
585
330
1F
100
AcDbEntity
  8
KONTUR
100
AcDbLine
 10
322.9237302917
 20
1337.867905663
 30
0.0
 11
322.9237302917
 21
1338.767905663
 31
0.0
  0
LINE
  5
586
330
1F
100
AcDbEntity
  8
KONTUR
100
AcDbLine
 10
322.9237302917
 20
1338.767905663
 30
0.0
 11
322.3599147192
 21
1338.767905663
 31
0.0
  0
LINE
  5
587
330
1F
100
AcDbEntity
  8
KONTUR
100
AcDbLine
 10
322.9237302917
 20
1338.767905663
 30
0.0
 11
323.3120558552
 21
1338.767905663
 31
0.0
  0
LINE
  5
588
330
1F
100
AcDbEntity
  8
KONTUR
100
AcDbLine
 10
322.9237302917
 20
611.967905663
 30
0.0
 11
323.3120558552
 21
611.967905663
 31
0.0
  0
LINE
  5
589
330
1F
100
AcDbEntity
  8
KONTUR
100
AcDbLine
 10
323.2056380779
 20
612.567905663
 30
0.0
 11
322.9237302917
 21
612.567905663
 31
0.0
  0
LINE
  5
58A
330
1F
100
AcDbEntity
  8
KONTUR
100
AcDbLine
 10
322.9237302917
 20
1338.167905663
 30
0.0
 11
323.2056380779
 21
1338.167905663
 31
0.0
  0
LINE
  5
58B
330
1F
100
AcDbEntity
  8
KONTUR
100
AcDbLine
 10
996.2056380779
 20
1338.167905663
 30
0.0
 11
996.2056380779
 21
1338.0618396458
 31
0.0
  0
LINE
  5
58C
330
1F
100
AcDbEntity
  8
KONTUR
100
AcDbLine
 10
996.2056380779
 20
612.6707191788
 30
0.0
 11
996.2056380779
 21
612.567905663
 31
0.0
  0
LINE
  5
58D
330
1F
100
AcDbEntity
  8
KONTUR
100
AcDbLine
 10
996.0749486873
 20
1338.167905663
 30
0.0
 11
996.2056380779
 21
1338.167905663
 31
0.0
  0
LINE
  5
58E
330
1F
100
AcDbEntity
  8
KONTUR
100
AcDbLine
 10
996.2056380779
 20
612.567905663
 30
0.0
 11
996.0749464285
 21
612.567905663
 31
0.0
  0
ARC
  5
58F
330
1F
100
AcDbEntity
  8
KONTUR
100
AcDbCircle
 10
425.5556380779
 20
1437.767905663
 30
0.0
 40
2.75000000000012
100
AcDbArc
 50
208.2114758412
 51
331.7885241588
  0
LINE
  5
590
330
1F
100
AcDbEntity
  8
KONTUR
100
AcDbLine
 10
427.9789622411
 20
1436.467905663
 30
0.0
 11
429.3556380779
 21
1436.467905663
 31
0.0
  0
LINE
  5
591
330
1F
100
AcDbEntity
  8
KONTUR
100
AcDbLine
 10
429.3556380779
 20
1436.467905663
 30
0.0
 11
429.3556380779
 21
1439.067905663
 31
0.0
  0
LINE
  5
592
330
1F
100
AcDbEntity
  8
KONTUR
100
AcDbLine
 10
427.9789622411
 20
1439.067905663
 30
0.0
 11
429.3556380779
 21
1439.067905663
 31
0.0
  0
LINE
  5
593
330
1F
100
AcDbEntity
  8
KONTUR
100
AcDbLine
 10
420.3556380779
 20
1439.067905663
 30
0.0
 11
423.1323139147
 21
1439.067905663
 31
0.0
  0
LINE
  5
594
330
1F
100
AcDbEntity
  8
KONTUR
100
AcDbLine
 10
420.3556380779
 20
1436.467905663
 30
0.0
 11
423.1323139147
 21
1436.467905663
 31
0.0
  0
CIRCLE
  5
595
330
1F
100
AcDbEntity
  8
KONTUR
100
AcDbCircle
 10
425.5556380779
 20
1437.767905663
 30
0.0
 40
7.699999999999818
  0
LINE
  5
596
330
1F
100
AcDbEntity
  8
KONTUR
100
AcDbLine
 10
420.3556380779
 20
1436.467905663
 30
0.0
 11
420.3556380779
 21
1439.067905663
 31
0.0
  0
ARC
  5
597
330
1F
100
AcDbEntity
  8
KONTUR
100
AcDbCircle
 10
425.5556380779
 20
1437.767905663
 30
0.0
 40
2.750000000000013
100
AcDbArc
 50
28.2114758412
 51
151.7885241588
  0
LINE
  5
598
330
1F
100
AcDbEntity
  8
KONTUR
100
AcDbLine
 10
429.3556380779
 20
1255.467905663
 30
0.0
 11
429.3556380779
 21
1258.067905663
 31
0.0
  0
LINE
  5
599
330
1F
100
AcDbEntity
  8
KONTUR
100
AcDbLine
 10
427.9789622411
 20
1258.067905663
 30
0.0
 11
429.3556380779
 21
1258.067905663
 31
0.0
  0
ARC
  5
59A
330
1F
100
AcDbEntity
  8
KONTUR
100
AcDbCircle
 10
425.5556380779
 20
1256.767905663
 30
0.0
 40
2.750000000000228
100
AcDbArc
 50
28.2114758412
 51
151.7885241588
  0
LINE
  5
59B
330
1F
100
AcDbEntity
  8
KONTUR
100
AcDbLine
 10
420.3556380779
 20
1255.467905663
 30
0.0
 11
420.3556380779
 21
1258.067905663
 31
0.0
  0
ARC
  5
59C
330
1F
100
AcDbEntity
  8
KONTUR
100
AcDbCircle
 10
425.5556380779
 20
1256.767905663
 30
0.0
 40
2.75000000000002
100
AcDbArc
 50
208.2114758412
 51
331.7885241588
  0
LINE
  5
59D
330
1F
100
AcDbEntity
  8
KONTUR
100
AcDbLine
 10
420.3556380779
 20
1255.467905663
 30
0.0
 11
423.1323139147
 21
1255.467905663
 31
0.0
  0
CIRCLE
  5
59E
330
1F
100
AcDbEntity
  8
KONTUR
100
AcDbCircle
 10
425.5556380779
 20
1256.767905663
 30
0.0
 40
7.700000000000045
  0
LINE
  5
59F
330
1F
100
AcDbEntity
  8
KONTUR
100
AcDbLine
 10
420.3556380779
 20
1258.067905663
 30
0.0
 11
423.1323139147
 21
1258.067905663
 31
0.0
  0
LINE
  5
5A0
330
1F
100
AcDbEntity
  8
KONTUR
100
AcDbLine
 10
427.9789622411
 20
1255.467905663
 30
0.0
 11
429.3556380779
 21
1255.467905663
 31
0.0
  0
CIRCLE
  5
5A1
330
1F
100
AcDbEntity
  8
KONTUR
100
AcDbCircle
 10
425.5556380779
 20
1437.767905663
 30
0.0
 40
11.25000000000023
  0
CIRCLE
  5
5A2
330
1F
100
AcDbEntity
  8
KONTUR
100
AcDbCircle
 10
425.5556380779
 20
1437.767905663
 30
0.0
 40
8.0
  0
CIRCLE
  5
5A3
330
1F
100
AcDbEntity
  8
KONTUR
100
AcDbCircle
 10
425.5556380779
 20
1437.767905663
 30
0.0
 40
15.0
  0
CIRCLE
  5
5A4
330
1F
100
AcDbEntity
  8
KONTUR
100
AcDbCircle
 10
425.5556380779
 20
1256.767905663
 30
0.0
 40
15.0
  0
CIRCLE
  5
5A5
330
1F
100
AcDbEntity
  8
KONTUR
100
AcDbCircle
 10
425.5556380779
 20
1256.767905663
 30
0.0
 40
11.25
  0
CIRCLE
  5
5A6
330
1F
100
AcDbEntity
  8
KONTUR
100
AcDbCircle
 10
425.5556380779
 20
1256.767905663
 30
0.0
 40
8.0
  0
LINE
  5
5A7
330
1F
100
AcDbEntity
  8
KONTUR
100
AcDbLine
 10
646.7056380779
 20
2083.067905663
 30
0.0
 11
672.4056380779
 21
2083.067905663
 31
0.0
  0
LINE
  5
5A8
330
1F
100
AcDbEntity
  8
KONTUR
100
AcDbLine
 10
659.5556380779
 20
611.467905663
 30
0.0
 11
646.7056380779
 21
611.467905663
 31
0.0
  0
LINE
  5
5A9
330
1F
100
AcDbEntity
  8
KONTUR
100
AcDbLine
 10
672.4056380779
 20
611.467905663
 30
0.0
 11
659.5556380779
 21
611.467905663
 31
0.0
  0
LINE
  5
5AA
330
1F
100
AcDbEntity
  8
KONTUR
100
AcDbLine
 10
990.0556380779
 20
2086.567905663
 30
0.0
 11
991.0556380779
 21
2086.567905663
 31
0.0
  0
LINE
  5
5AB
330
1F
100
AcDbEntity
  8
KONTUR
100
AcDbLine
 10
991.0556380779
 20
2086.567905663
 30
0.0
 11
991.0556380779
 21
2082.567905663
 31
0.0
  0
LINE
  5
5AC
330
1F
100
AcDbEntity
  8
KONTUR
100
AcDbLine
 10
918.0556380779
 20
2086.567905663
 30
0.0
 11
990.0556380779
 21
2086.567905663
 31
0.0
  0
LINE
  5
5AD
330
1F
100
AcDbEntity
  8
KONTUR
100
AcDbLine
 10
917.0556380779
 20
2086.567905663
 30
0.0
 11
917.0556380779
 21
2082.567905663
 31
0.0
  0
LINE
  5
5AE
330
1F
100
AcDbEntity
  8
KONTUR
100
AcDbLine
 10
917.0556380779
 20
2086.567905663
 30
0.0
 11
918.0556380779
 21
2086.567905663
 31
0.0
  0
LINE
  5
5AF
330
1F
100
AcDbEntity
  8
KONTUR
100
AcDbLine
 10
918.0556380779
 20
607.967905663
 30
0.0
 11
917.0556380779
 21
607.967905663
 31
0.0
  0
LINE
  5
5B0
330
1F
100
AcDbEntity
  8
KONTUR
100
AcDbLine
 10
917.0556380779
 20
607.967905663
 30
0.0
 11
917.0556380779
 21
611.967905663
 31
0.0
  0
LINE
  5
5B1
330
1F
100
AcDbEntity
  8
KONTUR
100
AcDbLine
 10
990.0556380779
 20
607.967905663
 30
0.0
 11
918.0556380779
 21
607.967905663
 31
0.0
  0
LINE
  5
5B2
330
1F
100
AcDbEntity
  8
KONTUR
100
AcDbLine
 10
991.0556380779
 20
607.967905663
 30
0.0
 11
991.0556380779
 21
611.967905663
 31
0.0
  0
LINE
  5
5B3
330
1F
100
AcDbEntity
  8
KONTUR
100
AcDbLine
 10
991.0556380779
 20
607.967905663
 30
0.0
 11
990.0556380779
 21
607.967905663
 31
0.0
  0
LINE
  5
5B4
330
1F
100
AcDbEntity
  8
KONTUR
100
AcDbLine
 10
966.5441675681
 20
1353.267905663
 30
0.0
 11
964.608628779
 21
1353.267905663
 31
0.0
  0
ARC
  5
5B5
330
1F
100
AcDbEntity
  8
KONTUR
100
AcDbCircle
 10
964.608628779
 20
1354.267905663
 30
0.0
 40
1.000000000000073
100
AcDbArc
 50
181.9999999996
 51
270.0
  0
LINE
  5
5B6
330
1F
100
AcDbEntity
  8
KONTUR
100
AcDbLine
 10
989.5026473824
 20
1353.267905663
 30
0.0
 11
987.5671085933
 21
1353.267905663
 31
0.0
  0
ARC
  5
5B7
330
1F
100
AcDbEntity
  8
KONTUR
100
AcDbCircle
 10
989.5026473824
 20
1354.267905663
 30
0.0
 40
1.000000000000065
100
AcDbArc
 50
270.0
 51
358.0000000004
  0
LINE
  5
5B8
330
1F
100
AcDbEntity
  8
KONTUR
100
AcDbLine
 10
990.5556380779
 20
1355.767905663
 30
0.0
 11
990.5020382095
 21
1354.2330061663
 31
0.0
  0
LINE
  5
5B9
330
1F
100
AcDbEntity
  8
KONTUR
100
AcDbLine
 10
963.609237952
 20
1354.2330061663
 30
0.0
 11
963.5556380779
 21
1355.767905663
 31
0.0
  0
LINE
  5
5BA
330
1F
100
AcDbEntity
  8
KONTUR
100
AcDbLine
 10
987.5671085933
 20
1353.267905663
 30
0.0
 11
966.5441675681
 21
1353.267905663
 31
0.0
  0
ARC
  5
5BB
330
1F
100
AcDbEntity
  8
KONTUR
100
AcDbCircle
 10
964.608628779
 20
1340.267905663
 30
0.0
 40
0.9999999999999516
100
AcDbArc
 50
90.0
 51
178.0000000004
  0
LINE
  5
5BC
330
1F
100
AcDbEntity
  8
KONTUR
100
AcDbLine
 10
964.608628779
 20
1341.267905663
 30
0.0
 11
966.5441675681
 21
1341.267905663
 31
0.0
  0
LINE
  5
5BD
330
1F
100
AcDbEntity
  8
KONTUR
100
AcDbLine
 10
987.5671085933
 20
1341.267905663
 30
0.0
 11
989.5026473824
 21
1341.267905663
 31
0.0
  0
ARC
  5
5BE
330
1F
100
AcDbEntity
  8
KONTUR
100
AcDbCircle
 10
989.5026473824
 20
1340.267905663
 30
0.0
 40
1.000000000000065
100
AcDbArc
 50
1.9999999996
 51
90.0
  0
LINE
  5
5BF
330
1F
100
AcDbEntity
  8
KONTUR
100
AcDbLine
 10
963.5556380779
 20
1338.767905663
 30
0.0
 11
963.609237952
 21
1340.3028051597
 31
0.0
  0
LINE
  5
5C0
330
1F
100
AcDbEntity
  8
KONTUR
100
AcDbLine
 10
990.5020382095
 20
1340.3028051597
 30
0.0
 11
990.5556380779
 21
1338.767905663
 31
0.0
  0
LINE
  5
5C1
330
1F
100
AcDbEntity
  8
KONTUR
100
AcDbLine
 10
966.5441675681
 20
1341.267905663
 30
0.0
 11
987.5671085933
 21
1341.267905663
 31
0.0
  0
LINE
  5
5C2
330
1F
100
AcDbEntity
  8
KONTUR
100
AcDbLine
 10
927.1121050457
 20
1342.1851311659
 30
0.0
 11
926.1237316317
 21
1342.1851311659
 31
0.0
  0
LWPOLYLINE
  5
5C3
330
1F
100
AcDbEntity
  8
KONTUR
100
AcDbPolyline
 90
        3
 70
   128
 43
0.0
 10
926.8936773138
 20
1342.267905663
 10
926.9736222857
 20
1342.2570481229
 10
927.1121050457
 20
1342.1851311659
  0
LINE
  5
5C4
330
1F
100
AcDbEntity
  8
KONTUR
100
AcDbLine
 10
926.8936773138
 20
1342.267905663
 30
0.0
 11
927.8550213093
 21
1342.267905663
 31
0.0
  0
LINE
  5
5C5
330
1F
100
AcDbEntity
  8
KONTUR
100
AcDbLine
 10
923.4013082654
 20
1342.1851311659
 30
0.0
 11
923.1114496886
 21
1342.1851311659
 31
0.0
  0
LWPOLYLINE
  5
5C6
330
1F
100
AcDbEntity
  8
KONTUR
100
AcDbPolyline
 90
        3
 70
   128
 43
0.0
 10
924.1461134233
 20
1342.267905663
 10
923.8735132966
 20
1342.2570481229
 10
923.4013082654
 20
1342.1851311659
  0
LINE
  5
5C7
330
1F
100
AcDbEntity
  8
KONTUR
100
AcDbLine
 10
924.1461134233
 20
1342.267905663
 30
0.0
 11
925.9053038998
 21
1342.267905663
 31
0.0
  0
LWPOLYLINE
  5
5C8
330
1F
100
AcDbEntity
  8
KONTUR
100
AcDbPolyline
 90
        3
 70
   128
 43
0.0
 10
925.9053038998
 20
1342.267905663
 10
925.9852488717
 20
1342.2570481229
 10
926.1237316317
 20
1342.1851311659
  0
LINE
  5
5C9
330
1F
100
AcDbEntity
  8
KONTUR
100
AcDbLine
 10
927.2275415361
 20
1340.767905663
 30
0.0
 11
930.7306380779
 21
1340.767905663
 31
0.0
  0
LINE
  5
5CA
330
1F
100
AcDbEntity
  8
KONTUR
100
AcDbLine
 10
920.9806380779
 20
1340.767905663
 30
0.0
 11
927.2275415361
 21
1340.767905663
 31
0.0
  0
LINE
  5
5CB
330
1F
100
AcDbEntity
  8
KONTUR
100
AcDbLine
 10
926.5404779059
 20
1342.267905663
 30
0.0
 11
926.8936773138
 21
1342.267905663
 31
0.0
  0
LINE
  5
5CC
330
1F
100
AcDbEntity
  8
KONTUR
100
AcDbLine
 10
924.1461134233
 20
1342.267905663
 30
0.0
 11
923.8562548465
 21
1342.267905663
 31
0.0
  0
LINE
  5
5CD
330
1F
100
AcDbEntity
  8
KONTUR
100
AcDbLine
 10
926.5404779059
 20
1342.267905663
 30
0.0
 11
926.3608067725
 21
1342.267905663
 31
0.0
  0
LINE
  5
5CE
330
1F
100
AcDbEntity
  8
KONTUR
100
AcDbLine
 10
926.1591716639
 20
1342.267905663
 30
0.0
 11
926.3608067725
 21
1342.267905663
 31
0.0
  0
LINE
  5
5CF
330
1F
100
AcDbEntity
  8
KONTUR
100
AcDbLine
 10
930.7306380779
 20
1353.767905663
 30
0.0
 11
920.9806380779
 21
1353.767905663
 31
0.0
  0
LINE
  5
5D0
330
1F
100
AcDbEntity
  8
KONTUR
100
AcDbLine
 10
927.8556380779
 20
1352.267905663
 30
0.0
 11
926.927568515
 21
1352.267905663
 31
0.0
  0
LINE
  5
5D1
330
1F
100
AcDbEntity
  8
KONTUR
100
AcDbLine
 10
927.1608084708
 20
1352.35068016
 30
0.0
 11
926.927568515
 21
1352.267905663
 31
0.0
  0
LINE
  5
5D2
330
1F
100
AcDbEntity
  8
KONTUR
100
AcDbLine
 10
926.1784131183
 20
1352.35068016
 30
0.0
 11
927.1608084708
 21
1352.35068016
 31
0.0
  0
LINE
  5
5D3
330
1F
100
AcDbEntity
  8
KONTUR
100
AcDbLine
 10
926.1784131183
 20
1352.35068016
 30
0.0
 11
925.9451731625
 21
1352.267905663
 31
0.0
  0
LINE
  5
5D4
330
1F
100
AcDbEntity
  8
KONTUR
100
AcDbLine
 10
925.9451731625
 20
1352.267905663
 30
0.0
 11
924.1671579513
 21
1352.267905663
 31
0.0
  0
LWPOLYLINE
  5
5D5
330
1F
100
AcDbEntity
  8
KONTUR
100
AcDbPolyline
 90
        3
 70
   128
 43
0.0
 10
924.1671579513
 20
1352.267905663
 10
923.8962066147
 20
1352.278763203
 10
923.4268576606
 20
1352.35068016
  0
LINE
  5
5D6
330
1F
100
AcDbEntity
  8
KONTUR
100
AcDbLine
 10
923.1173429252
 20
1352.35068016
 30
0.0
 11
923.4268576606
 21
1352.35068016
 31
0.0
  0
LINE
  5
5D7
330
1F
100
AcDbEntity
  8
KONTUR
100
AcDbLine
 10
923.8576432159
 20
1352.267905663
 30
0.0
 11
923.8556380779
 21
1352.267905663
 31
0.0
  0
LINE
  5
5D8
330
1F
100
AcDbEntity
  8
KONTUR
100
AcDbLine
 10
926.927568515
 20
1352.267905663
 30
0.0
 11
926.5504176214
 21
1352.267905663
 31
0.0
  0
LINE
  5
5D9
330
1F
100
AcDbEntity
  8
KONTUR
100
AcDbLine
 10
924.1671579513
 20
1352.267905663
 30
0.0
 11
923.8576432159
 21
1352.267905663
 31
0.0
  0
LINE
  5
5DA
330
1F
100
AcDbEntity
  8
KONTUR
100
AcDbLine
 10
926.5504176214
 20
1352.267905663
 30
0.0
 11
926.3470466512
 21
1352.267905663
 31
0.0
  0
LINE
  5
5DB
330
1F
100
AcDbEntity
  8
KONTUR
100
AcDbLine
 10
926.3470466512
 20
1352.267905663
 30
0.0
 11
926.1432538869
 21
1352.267905663
 31
0.0
  0
LINE
  5
5DC
330
1F
100
AcDbEntity
  8
KONTUR
100
AcDbLine
 10
926.1432538869
 20
1352.267905663
 30
0.0
 11
925.9451731625
 21
1352.267905663
 31
0.0
  0
LINE
  5
5DD
330
1F
100
AcDbEntity
  8
KONTUR
100
AcDbLine
 10
949.4562699374
 20
1342.267905663
 30
0.0
 11
950.4170825894
 21
1342.267905663
 31
0.0
  0
LINE
  5
5DE
330
1F
100
AcDbEntity
  8
KONTUR
100
AcDbLine
 10
950.198429926
 20
1342.1851311659
 30
0.0
 11
950.4170825894
 21
1342.267905663
 31
0.0
  0
LINE
  5
5DF
330
1F
100
AcDbEntity
  8
KONTUR
100
AcDbLine
 10
951.1867157536
 20
1342.1851311659
 30
0.0
 11
950.198429926
 21
1342.1851311659
 31
0.0
  0
LINE
  5
5E0
330
1F
100
AcDbEntity
  8
KONTUR
100
AcDbLine
 10
951.1867157536
 20
1342.1851311659
 30
0.0
 11
951.405368417
 21
1342.267905663
 31
0.0
  0
LINE
  5
5E1
330
1F
100
AcDbEntity
  8
KONTUR
100
AcDbLine
 10
951.405368417
 20
1342.267905663
 30
0.0
 11
953.1648491524
 21
1342.267905663
 31
0.0
  0
LWPOLYLINE
  5
5E2
330
1F
100
AcDbEntity
  8
KONTUR
100
AcDbPolyline
 90
        3
 70
   128
 43
0.0
 10
953.1648491524
 20
1342.267905663
 10
953.4374251222
 20
1342.2570481229
 10
953.9095883082
 20
1342.1851311659
  0
LINE
  5
5E3
330
1F
100
AcDbEntity
  8
KONTUR
100
AcDbLine
 10
954.1997453742
 20
1342.1851311659
 30
0.0
 11
953.9095883082
 21
1342.1851311659
 31
0.0
  0
LINE
  5
5E4
330
1F
100
AcDbEntity
  8
KONTUR
100
AcDbLine
 10
946.5806380779
 20
1340.767905663
 30
0.0
 11
956.3306380779
 21
1340.767905663
 31
0.0
  0
LINE
  5
5E5
330
1F
100
AcDbEntity
  8
KONTUR
100
AcDbLine
 10
950.4170825894
 20
1342.267905663
 30
0.0
 11
950.7706457132
 21
1342.267905663
 31
0.0
  0
LINE
  5
5E6
330
1F
100
AcDbEntity
  8
KONTUR
100
AcDbLine
 10
953.1648491524
 20
1342.267905663
 30
0.0
 11
953.4550062184
 21
1342.267905663
 31
0.0
  0
LINE
  5
5E7
330
1F
100
AcDbEntity
  8
KONTUR
100
AcDbLine
 10
950.7706457132
 20
1342.267905663
 30
0.0
 11
950.9506762375
 21
1342.267905663
 31
0.0
  0
LINE
  5
5E8
330
1F
100
AcDbEntity
  8
KONTUR
100
AcDbLine
 10
950.9506762375
 20
1342.267905663
 30
0.0
 11
951.152344615
 21
1342.267905663
 31
0.0
  0
LINE
  5
5E9
330
1F
100
AcDbEntity
  8
KONTUR
100
AcDbLine
 10
949.8459682977
 20
1352.35068016
 30
0.0
 11
950.7798224211
 21
1352.35068016
 31
0.0
  0
LWPOLYLINE
  5
5EA
330
1F
100
AcDbEntity
  8
KONTUR
100
AcDbPolyline
 90
        3
 70
   128
 43
0.0
 10
950.1734157117
 20
1352.267905663
 10
950.0535693256
 20
1352.278763203
 10
949.8459682977
 20
1352.35068016
  0
LINE
  5
5EB
330
1F
100
AcDbEntity
  8
KONTUR
100
AcDbLine
 10
950.1734157117
 20
1352.267905663
 30
0.0
 11
949.4556380779
 21
1352.267905663
 31
0.0
  0
LINE
  5
5EC
330
1F
100
AcDbEntity
  8
KONTUR
100
AcDbLine
 10
953.4556380779
 20
1352.267905663
 30
0.0
 11
953.4250642805
 21
1352.267905663
 31
0.0
  0
LWPOLYLINE
  5
5ED
330
1F
100
AcDbEntity
  8
KONTUR
100
AcDbPolyline
 90
        3
 70
   128
 43
0.0
 10
953.4250642805
 20
1352.267905663
 10
953.6826276151
 20
1352.278763203
 10
954.1287855239
 20
1352.35068016
  0
LINE
  5
5EE
330
1F
100
AcDbEntity
  8
KONTUR
100
AcDbLine
 10
953.694255345
 20
1352.35068016
 30
0.0
 11
954.1287855239
 21
1352.35068016
 31
0.0
  0
LWPOLYLINE
  5
5EF
330
1F
100
AcDbEntity
  8
KONTUR
100
AcDbPolyline
 90
        3
 70
   128
 43
0.0
 10
952.9905341016
 20
1352.267905663
 10
953.2480974363
 20
1352.278763203
 10
953.694255345
 20
1352.35068016
  0
LINE
  5
5F0
330
1F
100
AcDbEntity
  8
KONTUR
100
AcDbLine
 10
952.9905341016
 20
1352.267905663
 30
0.0
 11
951.1072698351
 21
1352.267905663
 31
0.0
  0
LWPOLYLINE
  5
5F1
330
1F
100
AcDbEntity
  8
KONTUR
100
AcDbPolyline
 90
        3
 70
   128
 43
0.0
 10
951.1072698351
 20
1352.267905663
 10
950.9874234489
 20
1352.278763203
 10
950.7798224211
 20
1352.35068016
  0
LINE
  5
5F2
330
1F
100
AcDbEntity
  8
KONTUR
100
AcDbLine
 10
949.3990025227
 20
1353.767905663
 30
0.0
 11
946.5806380779
 21
1353.767905663
 31
0.0
  0
LINE
  5
5F3
330
1F
100
AcDbEntity
  8
KONTUR
100
AcDbLine
 10
956.3306380779
 20
1353.767905663
 30
0.0
 11
949.3990025227
 21
1353.767905663
 31
0.0
  0
LINE
  5
5F4
330
1F
100
AcDbEntity
  8
KONTUR
100
AcDbLine
 10
950.7029008267
 20
1352.267905663
 30
0.0
 11
950.1734157117
 21
1352.267905663
 31
0.0
  0
LINE
  5
5F5
330
1F
100
AcDbEntity
  8
KONTUR
100
AcDbLine
 10
952.9905341016
 20
1352.267905663
 30
0.0
 11
953.4250642805
 21
1352.267905663
 31
0.0
  0
LINE
  5
5F6
330
1F
100
AcDbEntity
  8
KONTUR
100
AcDbLine
 10
950.7029008267
 20
1352.267905663
 30
0.0
 11
951.0586649924
 21
1352.267905663
 31
0.0
  0
LINE
  5
5F7
330
1F
100
AcDbEntity
  8
KONTUR
100
AcDbLine
 10
322.3599147192
 20
1355.767905663
 30
0.0
 11
322.3056380779
 21
1355.767905663
 31
0.0
  0
LINE
  5
5F8
330
1F
100
AcDbEntity
  8
KONTUR
100
AcDbLine
 10
322.3599147192
 20
2082.567905663
 30
0.0
 11
322.3056380779
 21
2082.567905663
 31
0.0
  0
LINE
  5
5F9
330
1F
100
AcDbEntity
  8
KONTUR
100
AcDbLine
 10
322.3599147192
 20
2081.667905663
 30
0.0
 11
322.3599147192
 21
2082.567905663
 31
0.0
  0
LINE
  5
5FA
330
1F
100
AcDbEntity
  8
KONTUR
100
AcDbLine
 10
322.3599147192
 20
2081.667905663
 30
0.0
 11
323.2056380779
 21
2081.667905663
 31
0.0
  0
LINE
  5
5FB
330
1F
100
AcDbEntity
  8
KONTUR
100
AcDbLine
 10
323.2056380779
 20
1356.667905663
 30
0.0
 11
322.3599147192
 21
1356.667905663
 31
0.0
  0
LINE
  5
5FC
330
1F
100
AcDbEntity
  8
KONTUR
100
AcDbLine
 10
322.3599147192
 20
1356.667905663
 30
0.0
 11
322.3599147192
 21
1355.767905663
 31
0.0
  0
LINE
  5
5FD
330
1F
100
AcDbEntity
  8
KONTUR
100
AcDbLine
 10
323.3120558552
 20
2082.567905663
 30
0.0
 11
996.0995720607
 21
2082.567905663
 31
0.0
  0
ARC
  5
5FE
330
1F
100
AcDbEntity
  8
KONTUR
100
AcDbCircle
 10
992.8616558781
 20
2082.7947243146
 30
0.0
 40
3.245850875612595
100
AcDbArc
 50
339.6864998015
 51
355.99293006
  0
ARC
  5
5FF
330
1F
100
AcDbEntity
  8
KONTUR
100
AcDbCircle
 10
327.3647724356
 20
2081.6324129275
 30
0.0
 40
4.159285796769484
100
AcDbArc
 50
167.002021544
 51
179.5110678302
  0
ARC
  5
600
330
1F
100
AcDbEntity
  8
KONTUR
100
AcDbCircle
 10
992.2161786229
 20
1355.4019981503
 30
0.0
 40
3.900593916429346
100
AcDbArc
 50
5.3827256876
 51
18.937844451
  0
LINE
  5
601
330
1F
100
AcDbEntity
  8
KONTUR
100
AcDbLine
 10
323.3120558552
 20
1355.767905663
 30
0.0
 11
996.0995720607
 21
1355.767905663
 31
0.0
  0
ARC
  5
602
330
1F
100
AcDbEntity
  8
KONTUR
100
AcDbCircle
 10
327.3647724355
 20
1356.7033983985
 30
0.0
 40
4.159285796749254
100
AcDbArc
 50
180.4889321698
 51
192.9979784561
  0
ARC
  5
603
330
1F
100
AcDbEntity
  8
KONTUR
100
AcDbCircle
 10
995.4694301367
 20
1356.1732365356
 30
0.0
 40
0.6595262796781163
100
AcDbArc
 50
17.1674365801
 51
48.5935850402
  0
ARC
  5
604
330
1F
100
AcDbEntity
  8
KONTUR
100
AcDbCircle
 10
997.0324567256
 20
1359.7118878444
 30
0.0
 40
3.245850856944664
100
AcDbArc
 50
249.6864997543
 51
265.9929301072
  0
LINE
  5
605
330
1F
100
AcDbEntity
  8
KONTUR
100
AcDbLine
 10
996.1996651385
 20
1356.471755345
 30
0.0
 11
996.2056380779
 21
1356.4739716802
 31
0.0
  0
ARC
  5
606
330
1F
100
AcDbEntity
  8
KONTUR
100
AcDbCircle
 10
970.3578992707
 20
2202.4139955467
 30
0.0
 40
123.4192253272246
100
AcDbArc
 50
281.946582884
 51
282.3739872546
  0
LINE
  5
607
330
1F
100
AcDbEntity
  8
KONTUR
100
AcDbLine
 10
996.8056380779
 20
1356.4739716801
 30
0.0
 11
996.8056380779
 21
2081.8618396458
 31
0.0
  0
LWPOLYLINE
  5
608
330
1F
100
AcDbEntity
  8
KONTUR
100
AcDbPolyline
 90
        7
 70
   128
 43
0.0
 10
996.2056380779
 20
2081.8618396458
 10
996.2001999807
 20
2081.8558413293
 10
996.1839020331
 20
2081.8446306038
 10
996.1570806297
 20
2081.8282074694
 10
996.120494731
 20
2081.806571926
 10
996.0231250291
 20
2081.7476636124
 10
995.9056380779
 20
2081.667905663
  0
LINE
  5
609
330
1F
100
AcDbEntity
  8
KONTUR
100
AcDbLine
 10
996.8056380779
 20
2081.8618396458
 30
0.0
 11
996.2056380779
 21
2081.8618396458
 31
0.0
  0
ARC
  5
60A
330
1F
100
AcDbEntity
  8
KONTUR
100
AcDbCircle
 10
995.5010998529
 20
2082.1502208992
 30
0.0
 40
0.6295070791035194
100
AcDbArc
 50
309.9879859074
 51
342.5961961545
  0
LINE
  5
60B
330
1F
100
AcDbEntity
  8
KONTUR
100
AcDbLine
 10
322.9237302917
 20
1356.667905663
 30
0.0
 11
322.9237302917
 21
1355.767905663
 31
0.0
  0
LINE
  5
60C
330
1F
100
AcDbEntity
  8
KONTUR
100
AcDbLine
 10
322.3599147192
 20
1355.767905663
 30
0.0
 11
322.9237302917
 21
1355.767905663
 31
0.0
  0
LINE
  5
60D
330
1F
100
AcDbEntity
  8
KONTUR
100
AcDbLine
 10
322.9237302917
 20
2081.667905663
 30
0.0
 11
322.9237302917
 21
2082.567905663
 31
0.0
  0
LINE
  5
60E
330
1F
100
AcDbEntity
  8
KONTUR
100
AcDbLine
 10
322.9237302917
 20
2082.567905663
 30
0.0
 11
322.3599147192
 21
2082.567905663
 31
0.0
  0
LINE
  5
60F
330
1F
100
AcDbEntity
  8
KONTUR
100
AcDbLine
 10
322.9237302917
 20
2082.567905663
 30
0.0
 11
323.3120558552
 21
2082.567905663
 31
0.0
  0
LINE
  5
610
330
1F
100
AcDbEntity
  8
KONTUR
100
AcDbLine
 10
322.9237302917
 20
1355.767905663
 30
0.0
 11
323.3120558552
 21
1355.767905663
 31
0.0
  0
LINE
  5
611
330
1F
100
AcDbEntity
  8
KONTUR
100
AcDbLine
 10
323.2056380779
 20
1356.367905663
 30
0.0
 11
322.9237302917
 21
1356.367905663
 31
0.0
  0
LINE
  5
612
330
1F
100
AcDbEntity
  8
KONTUR
100
AcDbLine
 10
322.9237302917
 20
2081.967905663
 30
0.0
 11
323.2056380779
 21
2081.967905663
 31
0.0
  0
LINE
  5
613
330
1F
100
AcDbEntity
  8
KONTUR
100
AcDbLine
 10
996.2056380779
 20
2081.967905663
 30
0.0
 11
996.2056380779
 21
2081.8618396458
 31
0.0
  0
LINE
  5
614
330
1F
100
AcDbEntity
  8
KONTUR
100
AcDbLine
 10
996.2056380779
 20
1356.4707191788
 30
0.0
 11
996.2056380779
 21
1356.367905663
 31
0.0
  0
LINE
  5
615
330
1F
100
AcDbEntity
  8
KONTUR
100
AcDbLine
 10
996.2056380779
 20
1356.367905663
 30
0.0
 11
996.0749464285
 21
1356.367905663
 31
0.0
  0
LINE
  5
616
330
1F
100
AcDbEntity
  8
KONTUR
100
AcDbLine
 10
996.0749486873
 20
2081.967905663
 30
0.0
 11
996.2056380779
 21
2081.967905663
 31
0.0
  0
ARC
  5
617
330
1F
100
AcDbEntity
  8
KONTUR
100
AcDbCircle
 10
1003.0556380779
 20
1367.767905663
 30
0.0
 40
5.500000000000083
100
AcDbArc
 50
270.4507138861
 51
72.6698437521
  0
LINE
  5
618
330
1F
100
AcDbEntity
  8
KONTUR
100
AcDbLine
 10
1003.0989030588
 20
1362.2680758346
 30
0.0
 11
1004.6939634926
 21
1373.0182284945
 31
0.0
  0
ARC
  5
619
330
1F
100
AcDbEntity
  8
KONTUR
100
AcDbCircle
 10
1003.0556380779
 20
1367.767905663
 30
0.0
 40
5.499999999999869
100
AcDbArc
 50
90.450713886
 51
252.6698437521
  0
LINE
  5
61A
330
1F
100
AcDbEntity
  8
KONTUR
100
AcDbLine
 10
1001.4173126632
 20
1362.5175828314
 30
0.0
 11
1003.012373097
 21
1373.2677354914
 31
0.0
  0
ARC
  5
61B
330
1F
100
AcDbEntity
  8
KONTUR
100
AcDbCircle
 10
1003.0556380779
 20
1367.767905663
 30
0.0
 40
4.900000000000012
100
AcDbArc
 50
71.5706805888
 51
91.5498770493
  0
ARC
  5
61C
330
1F
100
AcDbEntity
  8
KONTUR
100
AcDbCircle
 10
1003.0556380779
 20
1367.767905663
 30
0.0
 40
4.900000000000119
100
AcDbArc
 50
251.5706805888
 51
271.5498770493
  0
ARC
  5
61D
330
1F
100
AcDbEntity
  8
KONTUR
100
AcDbCircle
 10
1003.0556380779
 20
1327.767905663
 30
0.0
 40
5.499999999999963
100
AcDbArc
 50
146.9198589399
 51
309.1389888059
  0
LINE
  5
61E
330
1F
100
AcDbEntity
  8
KONTUR
100
AcDbLine
 10
998.4471443674
 20
1330.7698693071
 30
0.0
 11
1006.5272586907
 21
1323.5020118152
 31
0.0
  0
ARC
  5
61F
330
1F
100
AcDbEntity
  8
KONTUR
100
AcDbCircle
 10
1003.0556380779
 20
1327.767905663
 30
0.0
 40
5.500000000000203
100
AcDbArc
 50
326.9198589399
 51
129.1389888059
  0
LINE
  5
620
330
1F
100
AcDbEntity
  8
KONTUR
100
AcDbLine
 10
999.5840174651
 20
1332.0337995107
 30
0.0
 11
1007.6641317884
 21
1324.7659420189
 31
0.0
  0
ARC
  5
621
330
1F
100
AcDbEntity
  8
KONTUR
100
AcDbCircle
 10
1003.0556380779
 20
1327.767905663
 30
0.0
 40
4.900000000000049
100
AcDbArc
 50
308.0398256426
 51
328.0190221032
  0
ARC
  5
622
330
1F
100
AcDbEntity
  8
KONTUR
100
AcDbCircle
 10
1003.0556380779
 20
1327.767905663
 30
0.0
 40
4.900000000000095
100
AcDbArc
 50
128.0398256426
 51
148.0190221032
  0
CIRCLE
  5
623
330
1F
100
AcDbEntity
  8
KONTUR
100
AcDbCircle
 10
1003.0556380779
 20
1367.767905663
 30
0.0
 40
6.199999999999932
  0
CIRCLE
  5
624
330
1F
100
AcDbEntity
  8
KONTUR
100
AcDbCircle
 10
1003.0556380779
 20
1327.767905663
 30
0.0
 40
6.199999999999932
  0
LINE
  5
625
330
1F
100
AcDbEntity
  8
KONTUR
100
AcDbLine
 10
1015.0556380779
 20
1377.767905663
 30
0.0
 11
996.8056380779
 21
1377.767905663
 31
0.0
  0
ARC
  5
626
330
1F
100
AcDbEntity
  8
KONTUR
100
AcDbCircle
 10
1015.0556380779
 20
1374.767905663
 30
0.0
 40
3.0
100
AcDbArc
 50
0.0
 51
90.0
  0
LINE
  5
627
330
1F
100
AcDbEntity
  8
KONTUR
100
AcDbLine
 10
1018.0556380779
 20
1320.767905663
 30
0.0
 11
1018.0556380779
 21
1345.267905663
 31
0.0
  0
LINE
  5
628
330
1F
100
AcDbEntity
  8
KONTUR
100
AcDbLine
 10
1018.0556380779
 20
1350.267905663
 30
0.0
 11
1018.0556380779
 21
1374.767905663
 31
0.0
  0
LINE
  5
629
330
1F
100
AcDbEntity
  8
KONTUR
100
AcDbLine
 10
996.8056380779
 20
1317.767905663
 30
0.0
 11
1015.0556380779
 21
1317.767905663
 31
0.0
  0
LINE
  5
62A
330
1F
100
AcDbEntity
  8
KONTUR
100
AcDbLine
 10
1013.0556380779
 20
1350.317905663
 30
0.0
 11
993.0556380779
 21
1350.317905663
 31
0.0
  0
ARC
  5
62B
330
1F
100
AcDbEntity
  8
KONTUR
100
AcDbCircle
 10
1015.0556380779
 20
1320.767905663
 30
0.0
 40
2.999999999999886
100
AcDbArc
 50
270.0
 51
0.0
  0
LINE
  5
62C
330
1F
100
AcDbEntity
  8
KONTUR
100
AcDbLine
 10
993.0556380779
 20
1350.317905663
 30
0.0
 11
993.0556380779
 21
1350.267905663
 31
0.0
  0
LINE
  5
62D
330
1F
100
AcDbEntity
  8
KONTUR
100
AcDbLine
 10
993.0556380779
 20
1345.267905663
 30
0.0
 11
993.0556380779
 21
1345.217905663
 31
0.0
  0
LINE
  5
62E
330
1F
100
AcDbEntity
  8
KONTUR
100
AcDbLine
 10
1013.0556380779
 20
1345.217905663
 30
0.0
 11
1013.0556380779
 21
1345.267905663
 31
0.0
  0
LINE
  5
62F
330
1F
100
AcDbEntity
  8
KONTUR
100
AcDbLine
 10
1013.0556380779
 20
1350.267905663
 30
0.0
 11
1013.0556380779
 21
1350.317905663
 31
0.0
  0
LINE
  5
630
330
1F
100
AcDbEntity
  8
KONTUR
100
AcDbLine
 10
988.0556380779
 20
1353.267905663
 30
0.0
 11
988.0556380779
 21
1350.267905663
 31
0.0
  0
LINE
  5
631
330
1F
100
AcDbEntity
  8
KONTUR
100
AcDbLine
 10
988.0556380779
 20
1345.267905663
 30
0.0
 11
988.0556380779
 21
1341.267905663
 31
0.0
  0
LINE
  5
632
330
1F
100
AcDbEntity
  8
KONTUR
100
AcDbLine
 10
993.0556380779
 20
1345.217905663
 30
0.0
 11
1013.0556380779
 21
1345.217905663
 31
0.0
  0
LINE
  5
633
330
1F
100
AcDbEntity
  8
KONTUR
100
AcDbLine
 10
966.5556380779
 20
1350.267905663
 30
0.0
 11
994.4655737378
 21
1350.267905663
 31
0.0
  0
LINE
  5
634
330
1F
100
AcDbEntity
  8
KONTUR
100
AcDbLine
 10
966.5556380779
 20
1345.267905663
 30
0.0
 11
994.4655737378
 21
1345.267905663
 31
0.0
  0
LINE
  5
635
330
1F
100
AcDbEntity
  8
KONTUR
100
AcDbLine
 10
994.4655737378
 20
1350.267905663
 30
0.0
 11
997.9523684702
 21
1350.267905663
 31
0.0
  0
LINE
  5
636
330
1F
100
AcDbEntity
  8
KONTUR
100
AcDbLine
 10
994.4655737378
 20
1345.267905663
 30
0.0
 11
997.9523684702
 21
1345.267905663
 31
0.0
  0
LINE
  5
637
330
1F
100
AcDbEntity
  8
KONTUR
100
AcDbLine
 10
962.5556380779
 20
1350.267905663
 30
0.0
 11
962.5556380779
 21
1345.267905663
 31
0.0
  0
LINE
  5
638
330
1F
100
AcDbEntity
  8
KONTUR
100
AcDbLine
 10
962.5556380779
 20
1350.267905663
 30
0.0
 11
966.5556380779
 21
1350.267905663
 31
0.0
  0
LINE
  5
639
330
1F
100
AcDbEntity
  8
KONTUR
100
AcDbLine
 10
962.5556380779
 20
1345.267905663
 30
0.0
 11
966.5556380779
 21
1345.267905663
 31
0.0
  0
LINE
  5
63A
330
1F
100
AcDbEntity
  8
KONTUR
100
AcDbLine
 10
997.9523684702
 20
1345.267905663
 30
0.0
 11
1017.5424328103
 21
1345.267905663
 31
0.0
  0
LINE
  5
63B
330
1F
100
AcDbEntity
  8
KONTUR
100
AcDbLine
 10
997.9523684702
 20
1350.267905663
 30
0.0
 11
1017.5424328103
 21
1350.267905663
 31
0.0
  0
LINE
  5
63C
330
1F
100
AcDbEntity
  8
KONTUR
100
AcDbLine
 10
1018.0556380779
 20
1350.267905663
 30
0.0
 11
1018.0556380779
 21
1345.267905663
 31
0.0
  0
LINE
  5
63D
330
1F
100
AcDbEntity
  8
KONTUR
100
AcDbLine
 10
1017.5424328103
 20
1345.267905663
 30
0.0
 11
1018.0556380779
 21
1345.267905663
 31
0.0
  0
LINE
  5
63E
330
1F
100
AcDbEntity
  8
KONTUR
100
AcDbLine
 10
1017.5424328103
 20
1350.267905663
 30
0.0
 11
1018.0556380779
 21
1350.267905663
 31
0.0
  0
LINE
  5
63F
330
1F
100
AcDbEntity
  8
KONTUR
100
AcDbLine
 10
406.1556380779
 20
1338.767905663
 30
0.0
 11
406.1556380779
 21
1355.767905663
 31
0.0
  0
LINE
  5
640
330
1F
100
AcDbEntity
  8
KONTUR
100
AcDbLine
 10
912.9556380779
 20
1338.767905663
 30
0.0
 11
912.9556380779
 21
1355.767905663
 31
0.0
  0
LINE
  5
641
330
1F
100
AcDbEntity
  8
KONTUR
100
AcDbLine
 10
929.6822849031
 20
1352.7814845346
 30
0.0
 11
929.6822849031
 21
1341.7543267913
 31
0.0
  0
LINE
  5
642
330
1F
100
AcDbEntity
  8
KONTUR
100
AcDbLine
 10
389.4289912527
 20
1338.767905663
 30
0.0
 11
389.4289912527
 21
1355.767905663
 31
0.0
  0
LINE
  5
643
330
1F
100
AcDbEntity
  8
KONTUR
100
AcDbLine
 10
951.3128060833
 20
585.7794121298
 30
0.0
 11
951.3752733067
 21
587.5330553348
 31
0.0
  0
ARC
  5
644
330
1F
100
AcDbEntity
  8
KONTUR
100
AcDbCircle
 10
949.8778491613
 20
565.4403282471
 30
0.0
 40
22.14341593439734
100
AcDbArc
 50
86.1224767824
 51
89.7973368125
  0
LINE
  5
645
330
1F
100
AcDbEntity
  8
KONTUR
100
AcDbLine
 10
949.9561733579
 20
587.5836056595
 30
0.0
 11
949.8937061346
 21
585.8299624545
 31
0.0
  0
ARC
  5
646
330
1F
100
AcDbEntity
  8
KONTUR
100
AcDbCircle
 10
950.5556380779
 20
584.4679056629
 30
0.0
 40
1.514381920477406
100
AcDbArc
 50
115.918810764
 51
150.001002831
  0
LINE
  5
647
330
1F
100
AcDbEntity
  8
KONTUR
100
AcDbLine
 10
949.244131611
 20
585.2250736684
 30
0.0
 11
947.490488406
 21
585.2875408917
 31
0.0
  0
ARC
  5
648
330
1F
100
AcDbEntity
  8
KONTUR
100
AcDbCircle
 10
969.5832154939
 20
583.7901167463
 30
0.0
 40
22.14341593449943
100
AcDbArc
 50
176.1224767825
 51
179.7973368125
  0
LINE
  5
649
330
1F
100
AcDbEntity
  8
KONTUR
100
AcDbLine
 10
947.4399380813
 20
583.8684409429
 30
0.0
 11
949.1935812863
 21
583.8059737196
 31
0.0
  0
ARC
  5
64A
330
1F
100
AcDbEntity
  8
KONTUR
100
AcDbCircle
 10
950.5556380779
 20
584.4679056629
 30
0.0
 40
1.514381920477396
100
AcDbArc
 50
205.9188107639
 51
240.001002831
  0
LINE
  5
64B
330
1F
100
AcDbEntity
  8
KONTUR
100
AcDbLine
 10
949.7984700725
 20
583.1563991961
 30
0.0
 11
949.7360028491
 21
581.402755991
 31
0.0
  0
ARC
  5
64C
330
1F
100
AcDbEntity
  8
KONTUR
100
AcDbCircle
 10
951.2334269945
 20
603.495483079
 30
0.0
 40
22.14341593463689
100
AcDbArc
 50
266.1224767825
 51
269.7973368125
  0
LINE
  5
64D
330
1F
100
AcDbEntity
  8
KONTUR
100
AcDbLine
 10
951.1551027979
 20
581.3522056663
 30
0.0
 11
951.2175700212
 21
583.1058488713
 31
0.0
  0
ARC
  5
64E
330
1F
100
AcDbEntity
  8
KONTUR
100
AcDbCircle
 10
950.5556380779
 20
584.4679056629
 30
0.0
 40
1.514381920477446
100
AcDbArc
 50
295.918810764
 51
330.001002831
  0
LINE
  5
64F
330
1F
100
AcDbEntity
  8
KONTUR
100
AcDbLine
 10
951.8671445448
 20
583.7107376575
 30
0.0
 11
953.6207877498
 21
583.6482704341
 31
0.0
  0
ARC
  5
650
330
1F
100
AcDbEntity
  8
KONTUR
100
AcDbCircle
 10
931.5280606617
 20
585.1456945795
 30
0.0
 40
22.14341593479494
100
AcDbArc
 50
356.1224767825
 51
359.7973368124
  0
LINE
  5
651
330
1F
100
AcDbEntity
  8
KONTUR
100
AcDbLine
 10
953.6713380745
 20
585.0673703829
 30
0.0
 11
951.9176948695
 21
585.1298376063
 31
0.0
  0
ARC
  5
652
330
1F
100
AcDbEntity
  8
KONTUR
100
AcDbCircle
 10
950.5556380779
 20
584.4679056629
 30
0.0
 40
1.514381920477448
100
AcDbArc
 50
25.918810764
 51
60.001002831
  0
ARC
  5
653
330
1F
100
AcDbEntity
  8
KONTUR
100
AcDbCircle
 10
950.5556380779
 20
584.4679056629
 30
0.0
 40
1.28050000000007
100
AcDbArc
 50
121.6341868907
 51
144.2856267042
  0
ARC
  5
654
330
1F
100
AcDbEntity
  8
KONTUR
100
AcDbCircle
 10
950.5556380779
 20
584.4679056629
 30
0.0
 40
1.280499999999896
100
AcDbArc
 50
211.6341868907
 51
234.2856267042
  0
ARC
  5
655
330
1F
100
AcDbEntity
  8
KONTUR
100
AcDbCircle
 10
950.5556380779
 20
584.4679056629
 30
0.0
 40
1.280499999999989
100
AcDbArc
 50
301.6341868907
 51
324.2856267043
  0
ARC
  5
656
330
1F
100
AcDbEntity
  8
KONTUR
100
AcDbCircle
 10
950.5556380779
 20
584.4679056629
 30
0.0
 40
1.28050000000013
100
AcDbArc
 50
31.6341868907
 51
54.2856267042
  0
LINE
  5
657
330
1F
100
AcDbEntity
  8
KONTUR
100
AcDbLine
 10
948.9570354743
 20
585.2353004342
 30
0.0
 11
948.9064851496
 21
583.8162004854
 31
0.0
  0
LINE
  5
658
330
1F
100
AcDbEntity
  8
KONTUR
100
AcDbLine
 10
951.3230328492
 20
586.0665082665
 30
0.0
 11
949.9039329004
 21
586.1170585913
 31
0.0
  0
LINE
  5
659
330
1F
100
AcDbEntity
  8
KONTUR
100
AcDbLine
 10
949.7882433066
 20
582.8693030593
 30
0.0
 11
951.2073432554
 21
582.8187527346
 31
0.0
  0
LINE
  5
65A
330
1F
100
AcDbEntity
  8
KONTUR
100
AcDbLine
 10
952.1542406815
 20
583.7005108916
 30
0.0
 11
952.2047910062
 21
585.1196108404
 31
0.0
  0
CIRCLE
  5
65B
330
1F
100
AcDbEntity
  8
KONTUR
100
AcDbCircle
 10
950.5556380779
 20
584.4679056629
 30
0.0
 40
6.000000000000112
  0
ARC
  5
65C
330
1F
100
AcDbEntity
  8
KONTUR
100
AcDbCircle
 10
950.5556380779
 20
584.4679056629
 30
0.0
 40
1.280500000000055
100
AcDbArc
 50
144.2856267042
 51
211.6341868907
  0
ARC
  5
65D
330
1F
100
AcDbEntity
  8
KONTUR
100
AcDbCircle
 10
950.5556380779
 20
584.4679056629
 30
0.0
 40
1.28050000000007
100
AcDbArc
 50
54.2856267042
 51
121.6341868907
  0
ARC
  5
65E
330
1F
100
AcDbEntity
  8
KONTUR
100
AcDbCircle
 10
950.5556380779
 20
584.4679056629
 30
0.0
 40
1.280499999999974
100
AcDbArc
 50
234.2856267042
 51
301.6341868907
  0
ARC
  5
65F
330
1F
100
AcDbEntity
  8
KONTUR
100
AcDbCircle
 10
950.5556380779
 20
584.4679056629
 30
0.0
 40
1.28050000000013
100
AcDbArc
 50
324.2856267043
 51
31.6341868907
  0
LINE
  5
660
330
1F
100
AcDbEntity
  8
KONTUR
100
AcDbLine
 10
914.0556788966
 20
572.2593989351
 30
0.0
 11
912.6337652034
 21
571.2311343323
 31
0.0
  0
ARC
  5
661
330
1F
100
AcDbEntity
  8
KONTUR
100
AcDbCircle
 10
930.9838465068
 20
583.6248983045
 30
0.0
 40
22.14341593441045
100
AcDbArc
 50
214.0353470159
 51
217.710207046
  0
LINE
  5
662
330
1F
100
AcDbEntity
  8
KONTUR
100
AcDbLine
 10
913.4658673328
 20
570.0804797159
 30
0.0
 11
914.8877810261
 21
571.1087443188
 31
0.0
  0
ARC
  5
663
330
1F
100
AcDbEntity
  8
KONTUR
100
AcDbCircle
 10
915.5556380779
 20
572.4679056629
 30
0.0
 40
1.514381920477604
100
AcDbArc
 50
243.8316809974
 51
277.9138730645
  0
LINE
  5
664
330
1F
100
AcDbEntity
  8
KONTUR
100
AcDbLine
 10
915.7641448057
 20
570.9679464816
 30
0.0
 11
916.7924094085
 21
569.5460327884
 31
0.0
  0
ARC
  5
665
330
1F
100
AcDbEntity
  8
KONTUR
100
AcDbCircle
 10
904.3986454363
 20
587.8961140919
 30
0.0
 40
22.14341593441296
100
AcDbArc
 50
304.0353470159
 51
307.710207046
  0
LINE
  5
666
330
1F
100
AcDbEntity
  8
KONTUR
100
AcDbLine
 10
917.9430640249
 20
570.3781349178
 30
0.0
 11
916.914799422
 21
571.8000486111
 31
0.0
  0
ARC
  5
667
330
1F
100
AcDbEntity
  8
KONTUR
100
AcDbCircle
 10
915.5556380779
 20
572.4679056629
 30
0.0
 40
1.514381920477363
100
AcDbArc
 50
333.8316809974
 51
7.9138730645
  0
LINE
  5
668
330
1F
100
AcDbEntity
  8
KONTUR
100
AcDbLine
 10
917.0555972592
 20
572.6764123907
 30
0.0
 11
918.4775109524
 21
573.7046769935
 31
0.0
  0
ARC
  5
669
330
1F
100
AcDbEntity
  8
KONTUR
100
AcDbCircle
 10
900.127429649
 20
561.3109130213
 30
0.0
 40
22.14341593433463
100
AcDbArc
 50
34.0353470159
 51
37.710207046
  0
LINE
  5
66A
330
1F
100
AcDbEntity
  8
KONTUR
100
AcDbLine
 10
917.645408823
 20
574.8553316099
 30
0.0
 11
916.2234951297
 21
573.827067007
 31
0.0
  0
ARC
  5
66B
330
1F
100
AcDbEntity
  8
KONTUR
100
AcDbCircle
 10
915.5556380779
 20
572.4679056629
 30
0.0
 40
1.514381920477251
100
AcDbArc
 50
63.8316809974
 51
97.9138730645
  0
LINE
  5
66C
330
1F
100
AcDbEntity
  8
KONTUR
100
AcDbLine
 10
915.3471313501
 20
573.9678648442
 30
0.0
 11
914.3188667473
 21
575.3897785374
 31
0.0
  0
ARC
  5
66D
330
1F
100
AcDbEntity
  8
KONTUR
100
AcDbCircle
 10
926.7126307196
 20
557.0396972338
 30
0.0
 40
22.14341593454883
100
AcDbArc
 50
124.0353470159
 51
127.710207046
  0
LINE
  5
66E
330
1F
100
AcDbEntity
  8
KONTUR
100
AcDbLine
 10
913.1682121309
 20
574.557676408
 30
0.0
 11
914.1964767338
 21
573.1357627147
 31
0.0
  0
ARC
  5
66F
330
1F
100
AcDbEntity
  8
KONTUR
100
AcDbCircle
 10
915.5556380779
 20
572.4679056629
 30
0.0
 40
1.514381920477492
100
AcDbArc
 50
153.8316809974
 51
187.9138730645
  0
ARC
  5
670
330
1F
100
AcDbEntity
  8
KONTUR
100
AcDbCircle
 10
915.5556380779
 20
572.4679056629
 30
0.0
 40
1.280500000000014
100
AcDbArc
 50
339.5470571242
 51
2.1984969377
  0
ARC
  5
671
330
1F
100
AcDbEntity
  8
KONTUR
100
AcDbCircle
 10
915.5556380779
 20
572.4679056629
 30
0.0
 40
1.280500000000051
100
AcDbArc
 50
249.5470571242
 51
272.1984969377
  0
ARC
  5
672
330
1F
100
AcDbEntity
  8
KONTUR
100
AcDbCircle
 10
915.5556380779
 20
572.4679056629
 30
0.0
 40
1.280500000000165
100
AcDbArc
 50
159.5470571242
 51
182.1984969377
  0
ARC
  5
673
330
1F
100
AcDbEntity
  8
KONTUR
100
AcDbCircle
 10
915.5556380779
 20
572.4679056629
 30
0.0
 40
1.280500000000014
100
AcDbArc
 50
69.5470571242
 51
92.1984969377
  0
LINE
  5
674
330
1F
100
AcDbEntity
  8
KONTUR
100
AcDbLine
 10
915.1787899257
 20
574.2006521792
 30
0.0
 11
914.0281353093
 21
573.3685500497
 31
0.0
  0
LINE
  5
675
330
1F
100
AcDbEntity
  8
KONTUR
100
AcDbLine
 10
913.8228915616
 20
572.0910575107
 30
0.0
 11
914.6549936911
 21
570.9404028943
 31
0.0
  0
LINE
  5
676
330
1F
100
AcDbEntity
  8
KONTUR
100
AcDbLine
 10
915.9324862301
 20
570.7351591467
 30
0.0
 11
917.0831408465
 21
571.5672612761
 31
0.0
  0
LINE
  5
677
330
1F
100
AcDbEntity
  8
KONTUR
100
AcDbLine
 10
917.2883845942
 20
572.8447538151
 30
0.0
 11
916.4562824647
 21
573.9954084315
 31
0.0
  0
CIRCLE
  5
678
330
1F
100
AcDbEntity
  8
KONTUR
100
AcDbCircle
 10
915.5556380779
 20
572.4679056629
 30
0.0
 40
6.00000000000013
  0
ARC
  5
679
330
1F
100
AcDbEntity
  8
KONTUR
100
AcDbCircle
 10
915.5556380779
 20
572.4679056629
 30
0.0
 40
1.280500000000014
100
AcDbArc
 50
92.1984969377
 51
159.5470571242
  0
ARC
  5
67A
330
1F
100
AcDbEntity
  8
KONTUR
100
AcDbCircle
 10
915.5556380779
 20
572.4679056629
 30
0.0
 40
1.280500000000014
100
AcDbArc
 50
2.1984969377
 51
69.5470571242
  0
ARC
  5
67B
330
1F
100
AcDbEntity
  8
KONTUR
100
AcDbCircle
 10
915.5556380779
 20
572.4679056629
 30
0.0
 40
1.280500000000165
100
AcDbArc
 50
182.1984969377
 51
249.5470571242
  0
ARC
  5
67C
330
1F
100
AcDbEntity
  8
KONTUR
100
AcDbCircle
 10
915.5556380779
 20
572.4679056629
 30
0.0
 40
1.280500000000051
100
AcDbArc
 50
272.1984969377
 51
339.5470571242
  0
LINE
  5
67D
330
1F
100
AcDbEntity
  8
KONTUR
100
AcDbLine
 10
986.9880881288
 20
572.9592705504
 30
0.0
 11
988.1872429777
 21
574.2403616061
 31
0.0
  0
ARC
  5
67E
330
1F
100
AcDbEntity
  8
KONTUR
100
AcDbCircle
 10
972.544432802
 20
558.5676669096
 30
0.0
 40
22.14341593441321
100
AcDbArc
 50
45.0546775918
 51
48.7295376218
  0
LINE
  5
67F
330
1F
100
AcDbEntity
  8
KONTUR
100
AcDbLine
 10
987.1505462048
 20
575.2107531771
 30
0.0
 11
985.9513913559
 21
573.9296621214
 31
0.0
  0
ARC
  5
680
330
1F
100
AcDbEntity
  8
KONTUR
100
AcDbCircle
 10
985.5556380779
 20
572.4679056629
 30
0.0
 40
1.514381920477379
100
AcDbArc
 50
74.8510115733
 51
108.9332036403
  0
LINE
  5
681
330
1F
100
AcDbEntity
  8
KONTUR
100
AcDbLine
 10
985.0642731904
 20
573.9003557138
 30
0.0
 11
983.7831821347
 21
575.0995105627
 31
0.0
  0
ARC
  5
682
330
1F
100
AcDbEntity
  8
KONTUR
100
AcDbCircle
 10
999.4558768313
 20
559.4567003869
 30
0.0
 40
22.14341593450261
100
AcDbArc
 50
135.0546775918
 51
138.7295376218
  0
LINE
  5
683
330
1F
100
AcDbEntity
  8
KONTUR
100
AcDbLine
 10
982.8127905637
 20
574.0628137898
 30
0.0
 11
984.0938816194
 21
572.8636589409
 31
0.0
  0
ARC
  5
684
330
1F
100
AcDbEntity
  8
KONTUR
100
AcDbCircle
 10
985.5556380779
 20
572.4679056629
 30
0.0
 40
1.514381920477305
100
AcDbArc
 50
164.8510115733
 51
198.9332036403
  0
LINE
  5
685
330
1F
100
AcDbEntity
  8
KONTUR
100
AcDbLine
 10
984.123188027
 20
571.9765407754
 30
0.0
 11
982.9240331781
 21
570.6954497198
 31
0.0
  0
ARC
  5
686
330
1F
100
AcDbEntity
  8
KONTUR
100
AcDbCircle
 10
998.566843354
 20
586.3681444164
 30
0.0
 40
22.14341593465278
100
AcDbArc
 50
225.0546775918
 51
228.7295376218
  0
LINE
  5
687
330
1F
100
AcDbEntity
  8
KONTUR
100
AcDbLine
 10
983.960729951
 20
569.7250581488
 30
0.0
 11
985.1598847999
 21
571.0061492044
 31
0.0
  0
ARC
  5
688
330
1F
100
AcDbEntity
  8
KONTUR
100
AcDbCircle
 10
985.5556380779
 20
572.4679056629
 30
0.0
 40
1.514381920477486
100
AcDbArc
 50
254.8510115733
 51
288.9332036403
  0
LINE
  5
689
330
1F
100
AcDbEntity
  8
KONTUR
100
AcDbLine
 10
986.0470029654
 20
571.035455612
 30
0.0
 11
987.3280940211
 21
569.8363007631
 31
0.0
  0
ARC
  5
68A
330
1F
100
AcDbEntity
  8
KONTUR
100
AcDbCircle
 10
971.6553993245
 20
585.4791109389
 30
0.0
 40
22.14341593449385
100
AcDbArc
 50
315.0546775918
 51
318.7295376218
  0
LINE
  5
68B
330
1F
100
AcDbEntity
  8
KONTUR
100
AcDbLine
 10
988.2984855921
 20
570.872997536
 30
0.0
 11
987.0173945364
 21
572.0721523849
 31
0.0
  0
ARC
  5
68C
330
1F
100
AcDbEntity
  8
KONTUR
100
AcDbCircle
 10
985.5556380779
 20
572.4679056629
 30
0.0
 40
1.514381920477342
100
AcDbArc
 50
344.8510115733
 51
18.9332036403
  0
ARC
  5
68D
330
1F
100
AcDbEntity
  8
KONTUR
100
AcDbCircle
 10
985.5556380779
 20
572.4679056629
 30
0.0
 40
1.280499999999952
100
AcDbArc
 50
260.5663877
 51
283.2178275136
  0
ARC
  5
68E
330
1F
100
AcDbEntity
  8
KONTUR
100
AcDbCircle
 10
985.5556380779
 20
572.4679056629
 30
0.0
 40
1.280500000000075
100
AcDbArc
 50
350.5663877
 51
13.2178275136
  0
ARC
  5
68F
330
1F
100
AcDbEntity
  8
KONTUR
100
AcDbCircle
 10
985.5556380779
 20
572.4679056629
 30
0.0
 40
1.280499999999963
100
AcDbArc
 50
170.5663877
 51
193.2178275136
  0
ARC
  5
690
330
1F
100
AcDbEntity
  8
KONTUR
100
AcDbCircle
 10
985.5556380779
 20
572.4679056629
 30
0.0
 40
1.280499999999963
100
AcDbArc
 50
80.5663877
 51
103.2178275136
  0
LINE
  5
691
330
1F
100
AcDbEntity
  8
KONTUR
100
AcDbLine
 10
984.8545405082
 20
574.0966742828
 30
0.0
 11
983.8841489372
 21
573.0599775099
 31
0.0
  0
LINE
  5
692
330
1F
100
AcDbEntity
  8
KONTUR
100
AcDbLine
 10
987.1844066978
 20
573.1690032326
 30
0.0
 11
986.1477099249
 21
574.1393948036
 31
0.0
  0
LINE
  5
693
330
1F
100
AcDbEntity
  8
KONTUR
100
AcDbLine
 10
983.926869458
 20
571.7668080932
 30
0.0
 11
984.9635662309
 21
570.7964165222
 31
0.0
  0
LINE
  5
694
330
1F
100
AcDbEntity
  8
KONTUR
100
AcDbLine
 10
986.2567356476
 20
570.839137043
 30
0.0
 11
987.2271272186
 21
571.8758338159
 31
0.0
  0
CIRCLE
  5
695
330
1F
100
AcDbEntity
  8
KONTUR
100
AcDbCircle
 10
985.5556380779
 20
572.4679056629
 30
0.0
 40
6.000000000000054
  0
ARC
  5
696
330
1F
100
AcDbEntity
  8
KONTUR
100
AcDbCircle
 10
985.5556380779
 20
572.4679056629
 30
0.0
 40
1.280499999999945
100
AcDbArc
 50
193.2178275136
 51
260.5663877
  0
ARC
  5
697
330
1F
100
AcDbEntity
  8
KONTUR
100
AcDbCircle
 10
985.5556380779
 20
572.4679056629
 30
0.0
 40
1.280500000000037
100
AcDbArc
 50
13.2178275136
 51
80.5663877
  0
ARC
  5
698
330
1F
100
AcDbEntity
  8
KONTUR
100
AcDbCircle
 10
985.5556380779
 20
572.4679056629
 30
0.0
 40
1.280499999999963
100
AcDbArc
 50
103.2178275136
 51
170.5663877
  0
ARC
  5
699
330
1F
100
AcDbEntity
  8
KONTUR
100
AcDbCircle
 10
985.5556380779
 20
572.4679056629
 30
0.0
 40
1.280500000000075
100
AcDbArc
 50
283.2178275136
 51
350.5663877
  0
ARC
  5
69A
330
1F
100
AcDbEntity
  8
KONTUR
100
AcDbCircle
 10
415.0039452552
 20
553.7607268356
 30
0.0
 40
4.479207582198676
100
AcDbArc
 50
282.2338640877
 51
297.4162333992
  0
ARC
  5
69B
330
1F
100
AcDbEntity
  8
KONTUR
100
AcDbCircle
 10
416.517596987
 20
556.3684626291
 30
0.0
 40
6.606694559582729
100
AcDbArc
 50
265.2350604509
 51
274.7649395491
  0
ARC
  5
69C
330
1F
100
AcDbEntity
  8
KONTUR
100
AcDbCircle
 10
413.9063347411
 20
553.7607268356
 30
0.0
 40
4.479207582198597
100
AcDbArc
 50
282.2338640877
 51
297.4162333992
  0
LINE
  5
69D
330
1F
100
AcDbEntity
  8
KONTUR
100
AcDbLine
 10
414.8554898074
 20
549.3832383747
 30
0.0
 11
413.9721555342
 21
549.3832383747
 31
0.0
  0
ARC
  5
69E
330
1F
100
AcDbEntity
  8
KONTUR
100
AcDbCircle
 10
415.0616699177
 20
555.5576650479
 30
0.0
 40
6.269815494377516
100
AcDbArc
 50
247.0390383821
 51
259.9928330471
  0
ARC
  5
69F
330
1F
100
AcDbEntity
  8
KONTUR
100
AcDbCircle
 10
412.1653323112
 20
554.2163381494
 30
0.0
 40
4.454570850294776
100
AcDbArc
 50
264.1961733506
 51
275.8038266494
  0
ARC
  5
6A0
330
1F
100
AcDbEntity
  8
KONTUR
100
AcDbCircle
 10
414.1607530739
 20
555.5576650479
 30
0.0
 40
6.269815494374485
100
AcDbArc
 50
247.0390383821
 51
259.9928330471
  0
LINE
  5
6A1
330
1F
100
AcDbEntity
  8
KONTUR
100
AcDbLine
 10
413.0712386905
 20
549.3832383747
 30
0.0
 11
413.0412561574
 21
549.3832383747
 31
0.0
  0
LINE
  5
6A2
330
1F
100
AcDbEntity
  8
KONTUR
100
AcDbLine
 10
414.8554898074
 20
549.3832383747
 30
0.0
 11
415.1391206216
 21
549.3832383747
 31
0.0
  0
ARC
  5
6A3
330
1F
100
AcDbEntity
  8
KONTUR
100
AcDbCircle
 10
414.0720444087
 20
555.4629826355
 30
0.0
 40
6.172677046530239
100
AcDbArc
 50
279.9547811699
 51
287.0605927546
  0
LINE
  5
6A4
330
1F
100
AcDbEntity
  8
KONTUR
100
AcDbLine
 10
416.0700199984
 20
549.3832383747
 30
0.0
 11
415.9531003215
 21
549.3832383747
 31
0.0
  0
LWPOLYLINE
  5
6A5
330
1F
100
AcDbEntity
  8
KONTUR
100
AcDbPolyline
 90
        3
 70
   128
 43
0.0
 10
415.9253815794
 20
549.9293692022
 10
415.9341050628
 20
549.7604776116
 10
415.9531003215
 20
549.3832383747
  0
LINE
  5
6A6
330
1F
100
AcDbEntity
  8
KONTUR
100
AcDbLine
 10
957.6480229859
 20
549.7846016195
 30
0.0
 11
957.6594065665
 21
549.7617696883
 31
0.0
  0
ARC
  5
6A7
330
1F
100
AcDbEntity
  8
KONTUR
100
AcDbCircle
 10
954.5556380779
 20
559.267905663
 30
0.0
 40
9.974763155082925
100
AcDbArc
 50
277.7066600754
 51
288.0604891642
  0
LINE
  5
6A8
330
1F
100
AcDbEntity
  8
KONTUR
100
AcDbLine
 10
955.8932675487
 20
549.3832383747
 30
0.0
 11
955.2656380779
 21
549.3832383747
 31
0.0
  0
LINE
  5
6A9
330
1F
100
AcDbEntity
  8
KONTUR
100
AcDbLine
 10
955.2656380779
 20
549.3832383747
 30
0.0
 11
955.2656380779
 21
549.7846016195
 31
0.0
  0
ARC
  5
6AA
330
1F
100
AcDbEntity
  8
KONTUR
100
AcDbCircle
 10
954.5556380779
 20
560.8120765489
 30
0.0
 40
11.05030783813704
100
AcDbArc
 50
266.3161166332
 51
273.6838833668
  0
LINE
  5
6AB
330
1F
100
AcDbEntity
  8
KONTUR
100
AcDbLine
 10
953.8456380779
 20
549.7846016195
 30
0.0
 11
953.8456380779
 21
549.3832383747
 31
0.0
  0
LINE
  5
6AC
330
1F
100
AcDbEntity
  8
KONTUR
100
AcDbLine
 10
953.8456380779
 20
549.3832383747
 30
0.0
 11
953.2180086071
 21
549.3832383747
 31
0.0
  0
ARC
  5
6AD
330
1F
100
AcDbEntity
  8
KONTUR
100
AcDbCircle
 10
954.5556380779
 20
559.267905663
 30
0.0
 40
9.974763155082854
100
AcDbArc
 50
251.9395108358
 51
262.2933399246
  0
LINE
  5
6AE
330
1F
100
AcDbEntity
  8
KONTUR
100
AcDbLine
 10
951.4518695893
 20
549.7617696883
 30
0.0
 11
951.4632531699
 21
549.7846016195
 31
0.0
  0
LINE
  5
6AF
330
1F
100
AcDbEntity
  8
KONTUR
100
AcDbLine
 10
415.8932675487
 20
549.3832383747
 30
0.0
 11
415.2656380779
 21
549.3832383747
 31
0.0
  0
LINE
  5
6B0
330
1F
100
AcDbEntity
  8
KONTUR
100
AcDbLine
 10
413.8456380779
 20
549.3832383747
 30
0.0
 11
413.2180086071
 21
549.3832383747
 31
0.0
  0
LINE
  5
6B1
330
1F
100
AcDbEntity
  8
KONTUR
100
AcDbLine
 10
367.6480229859
 20
549.7846016195
 30
0.0
 11
367.6594065665
 21
549.7617696883
 31
0.0
  0
ARC
  5
6B2
330
1F
100
AcDbEntity
  8
KONTUR
100
AcDbCircle
 10
364.5556380779
 20
559.267905663
 30
0.0
 40
9.97476315508289
100
AcDbArc
 50
277.7066600754
 51
288.0604891642
  0
LINE
  5
6B3
330
1F
100
AcDbEntity
  8
KONTUR
100
AcDbLine
 10
365.8932675487
 20
549.3832383747
 30
0.0
 11
365.2656380779
 21
549.3832383747
 31
0.0
  0
LINE
  5
6B4
330
1F
100
AcDbEntity
  8
KONTUR
100
AcDbLine
 10
365.2656380779
 20
549.3832383747
 30
0.0
 11
365.2656380779
 21
549.7846016195
 31
0.0
  0
ARC
  5
6B5
330
1F
100
AcDbEntity
  8
KONTUR
100
AcDbCircle
 10
364.5556380779
 20
560.8120765489
 30
0.0
 40
11.05030783813817
100
AcDbArc
 50
266.3161166332
 51
273.6838833668
  0
LINE
  5
6B6
330
1F
100
AcDbEntity
  8
KONTUR
100
AcDbLine
 10
363.8456380779
 20
549.7846016195
 30
0.0
 11
363.8456380779
 21
549.3832383747
 31
0.0
  0
LINE
  5
6B7
330
1F
100
AcDbEntity
  8
KONTUR
100
AcDbLine
 10
363.8456380779
 20
549.3832383747
 30
0.0
 11
363.2180086071
 21
549.3832383747
 31
0.0
  0
ARC
  5
6B8
330
1F
100
AcDbEntity
  8
KONTUR
100
AcDbCircle
 10
364.5556380779
 20
559.267905663
 30
0.0
 40
9.97476315508289
100
AcDbArc
 50
251.9395108358
 51
262.2933399246
  0
LINE
  5
6B9
330
1F
100
AcDbEntity
  8
KONTUR
100
AcDbLine
 10
361.4518695893
 20
549.7617696883
 30
0.0
 11
361.4632531699
 21
549.7846016195
 31
0.0
  0
LINE
  5
6BA
330
1F
100
AcDbEntity
  8
KONTUR
100
AcDbLine
 10
907.6480229859
 20
549.7846016195
 30
0.0
 11
907.6594065665
 21
549.7617696883
 31
0.0
  0
ARC
  5
6BB
330
1F
100
AcDbEntity
  8
KONTUR
100
AcDbCircle
 10
904.5556380779
 20
559.267905663
 30
0.0
 40
9.974763155082854
100
AcDbArc
 50
277.7066600754
 51
288.0604891642
  0
LINE
  5
6BC
330
1F
100
AcDbEntity
  8
KONTUR
100
AcDbLine
 10
905.8932675487
 20
549.3832383747
 30
0.0
 11
905.2656380779
 21
549.3832383747
 31
0.0
  0
LINE
  5
6BD
330
1F
100
AcDbEntity
  8
KONTUR
100
AcDbLine
 10
905.2656380779
 20
549.3832383747
 30
0.0
 11
905.2656380779
 21
549.7846016195
 31
0.0
  0
ARC
  5
6BE
330
1F
100
AcDbEntity
  8
KONTUR
100
AcDbCircle
 10
904.5556380779
 20
560.8120765489
 30
0.0
 40
11.05030783814283
100
AcDbArc
 50
266.3161166332
 51
273.6838833668
  0
LINE
  5
6BF
330
1F
100
AcDbEntity
  8
KONTUR
100
AcDbLine
 10
903.8456380779
 20
549.7846016195
 30
0.0
 11
903.8456380779
 21
549.3832383747
 31
0.0
  0
LINE
  5
6C0
330
1F
100
AcDbEntity
  8
KONTUR
100
AcDbLine
 10
903.8456380779
 20
549.3832383747
 30
0.0
 11
903.2180086071
 21
549.3832383747
 31
0.0
  0
ARC
  5
6C1
330
1F
100
AcDbEntity
  8
KONTUR
100
AcDbCircle
 10
904.5556380779
 20
559.267905663
 30
0.0
 40
9.97476315508289
100
AcDbArc
 50
251.9395108358
 51
262.2933399246
  0
LINE
  5
6C2
330
1F
100
AcDbEntity
  8
KONTUR
100
AcDbLine
 10
901.4518695893
 20
549.7617696883
 30
0.0
 11
901.4632531699
 21
549.7846016195
 31
0.0
  0
LINE
  5
6C3
330
1F
100
AcDbEntity
  8
KONTUR
100
AcDbLine
 10
352.0556380779
 20
553.867905663
 30
0.0
 11
352.0556380779
 21
555.867905663
 31
0.0
  0
LINE
  5
6C4
330
1F
100
AcDbEntity
  8
KONTUR
100
AcDbLine
 10
352.0556380779
 20
555.867905663
 30
0.0
 11
427.0556380779
 21
555.867905663
 31
0.0
  0
LINE
  5
6C5
330
1F
100
AcDbEntity
  8
KONTUR
100
AcDbLine
 10
427.0556380779
 20
553.867905663
 30
0.0
 11
427.0556380779
 21
555.867905663
 31
0.0
  0
LINE
  5
6C6
330
1F
100
AcDbEntity
  8
KONTUR
100
AcDbLine
 10
352.0556380779
 20
553.867905663
 30
0.0
 11
427.0556380779
 21
553.867905663
 31
0.0
  0
LINE
  5
6C7
330
1F
100
AcDbEntity
  8
KONTUR
100
AcDbLine
 10
407.5556380779
 20
436.867905663
 30
0.0
 11
371.5556380779
 21
436.867905663
 31
0.0
  0
LINE
  5
6C8
330
1F
100
AcDbEntity
  8
KONTUR
100
AcDbLine
 10
369.5556380779
 20
436.867905663
 30
0.0
 11
369.5556380779
 21
550.6076516251
 31
0.0
  0
LINE
  5
6C9
330
1F
100
AcDbEntity
  8
KONTUR
100
AcDbLine
 10
371.5556380779
 20
436.867905663
 30
0.0
 11
369.5556380779
 21
436.867905663
 31
0.0
  0
LINE
  5
6CA
330
1F
100
AcDbEntity
  8
KONTUR
100
AcDbLine
 10
409.5556380779
 20
436.867905663
 30
0.0
 11
409.5556380779
 21
550.6076516251
 31
0.0
  0
LINE
  5
6CB
330
1F
100
AcDbEntity
  8
KONTUR
100
AcDbLine
 10
409.5556380779
 20
436.867905663
 30
0.0
 11
407.5556380779
 21
436.867905663
 31
0.0
  0
LINE
  5
6CC
330
1F
100
AcDbEntity
  8
KONTUR
100
AcDbLine
 10
892.0556380779
 20
555.867905663
 30
0.0
 11
967.0556380779
 21
555.867905663
 31
0.0
  0
LINE
  5
6CD
330
1F
100
AcDbEntity
  8
KONTUR
100
AcDbLine
 10
967.0556380779
 20
553.867905663
 30
0.0
 11
967.0556380779
 21
555.867905663
 31
0.0
  0
LINE
  5
6CE
330
1F
100
AcDbEntity
  8
KONTUR
100
AcDbLine
 10
892.0556380779
 20
553.867905663
 30
0.0
 11
967.0556380779
 21
553.867905663
 31
0.0
  0
LINE
  5
6CF
330
1F
100
AcDbEntity
  8
KONTUR
100
AcDbLine
 10
892.0556380779
 20
553.867905663
 30
0.0
 11
892.0556380779
 21
555.867905663
 31
0.0
  0
LINE
  5
6D0
330
1F
100
AcDbEntity
  8
KONTUR
100
AcDbLine
 10
947.5556380779
 20
436.867905663
 30
0.0
 11
911.5556380779
 21
436.867905663
 31
0.0
  0
LINE
  5
6D1
330
1F
100
AcDbEntity
  8
KONTUR
100
AcDbLine
 10
949.5556380779
 20
436.867905663
 30
0.0
 11
949.5556380779
 21
550.6076516251
 31
0.0
  0
LINE
  5
6D2
330
1F
100
AcDbEntity
  8
KONTUR
100
AcDbLine
 10
949.5556380779
 20
436.867905663
 30
0.0
 11
947.5556380779
 21
436.867905663
 31
0.0
  0
LINE
  5
6D3
330
1F
100
AcDbEntity
  8
KONTUR
100
AcDbLine
 10
909.5556380779
 20
436.867905663
 30
0.0
 11
909.5556380779
 21
550.6076516251
 31
0.0
  0
LINE
  5
6D4
330
1F
100
AcDbEntity
  8
KONTUR
100
AcDbLine
 10
911.5556380779
 20
436.867905663
 30
0.0
 11
909.5556380779
 21
436.867905663
 31
0.0
  0
LINE
  5
6D5
330
1F
100
AcDbEntity
  8
KONTUR
100
AcDbLine
 10
371.5556380779
 20
428.867905663
 30
0.0
 11
369.5556380779
 21
428.867905663
 31
0.0
  0
LINE
  5
6D6
330
1F
100
AcDbEntity
  8
KONTUR
100
AcDbLine
 10
369.5556380779
 20
428.867905663
 30
0.0
 11
369.5556380779
 21
436.867905663
 31
0.0
  0
LINE
  5
6D7
330
1F
100
AcDbEntity
  8
KONTUR
100
AcDbLine
 10
409.5556380779
 20
428.867905663
 30
0.0
 11
409.5556380779
 21
436.867905663
 31
0.0
  0
LINE
  5
6D8
330
1F
100
AcDbEntity
  8
KONTUR
100
AcDbLine
 10
409.5556380779
 20
428.867905663
 30
0.0
 11
407.5556380779
 21
428.867905663
 31
0.0
  0
LINE
  5
6D9
330
1F
100
AcDbEntity
  8
KONTUR
100
AcDbLine
 10
407.5556380779
 20
428.867905663
 30
0.0
 11
371.5556380779
 21
428.867905663
 31
0.0
  0
LINE
  5
6DA
330
1F
100
AcDbEntity
  8
KONTUR
100
AcDbLine
 10
947.5556380779
 20
428.867905663
 30
0.0
 11
911.5556380779
 21
428.867905663
 31
0.0
  0
LINE
  5
6DB
330
1F
100
AcDbEntity
  8
KONTUR
100
AcDbLine
 10
949.5556380779
 20
428.867905663
 30
0.0
 11
949.5556380779
 21
436.867905663
 31
0.0
  0
LINE
  5
6DC
330
1F
100
AcDbEntity
  8
KONTUR
100
AcDbLine
 10
949.5556380779
 20
428.867905663
 30
0.0
 11
947.5556380779
 21
428.867905663
 31
0.0
  0
LINE
  5
6DD
330
1F
100
AcDbEntity
  8
KONTUR
100
AcDbLine
 10
909.5556380779
 20
428.867905663
 30
0.0
 11
909.5556380779
 21
436.867905663
 31
0.0
  0
LINE
  5
6DE
330
1F
100
AcDbEntity
  8
KONTUR
100
AcDbLine
 10
911.5556380779
 20
428.867905663
 30
0.0
 11
909.5556380779
 21
428.867905663
 31
0.0
  0
LINE
  5
6DF
330
1F
100
AcDbEntity
  8
KONTUR
100
AcDbLine
 10
382.6317663286
 20
417.367905663
 30
0.0
 11
396.4795098271
 21
417.367905663
 31
0.0
  0
ARC
  5
6E0
330
1F
100
AcDbEntity
  8
KONTUR
100
AcDbCircle
 10
389.5556380779
 20
404.117905663
 30
0.0
 40
14.94999999999998
100
AcDbArc
 50
62.4103957885
 51
117.5896042115
  0
LINE
  5
6E1
330
1F
100
AcDbEntity
  8
KONTUR
100
AcDbLine
 10
382.6317663286
 20
417.367905663
 30
0.0
 11
382.6317663286
 21
408.817905663
 31
0.0
  0
LINE
  5
6E2
330
1F
100
AcDbEntity
  8
KONTUR
100
AcDbLine
 10
376.3056380779
 20
408.817905663
 30
0.0
 11
382.6317663286
 21
408.817905663
 31
0.0
  0
LINE
  5
6E3
330
1F
100
AcDbEntity
  8
KONTUR
100
AcDbLine
 10
376.3056380779
 20
417.367905663
 30
0.0
 11
376.3056380779
 21
408.817905663
 31
0.0
  0
LINE
  5
6E4
330
1F
100
AcDbEntity
  8
KONTUR
100
AcDbLine
 10
376.3056380779
 20
417.367905663
 30
0.0
 11
374.6056380779
 21
419.067905663
 31
0.0
  0
LINE
  5
6E5
330
1F
100
AcDbEntity
  8
KONTUR
100
AcDbLine
 10
404.5056380779
 20
419.067905663
 30
0.0
 11
402.8056380779
 21
417.367905663
 31
0.0
  0
LINE
  5
6E6
330
1F
100
AcDbEntity
  8
KONTUR
100
AcDbLine
 10
402.8056380779
 20
417.367905663
 30
0.0
 11
402.8056380779
 21
408.817905663
 31
0.0
  0
LINE
  5
6E7
330
1F
100
AcDbEntity
  8
KONTUR
100
AcDbLine
 10
396.4795098271
 20
408.817905663
 30
0.0
 11
402.8056380779
 21
408.817905663
 31
0.0
  0
LINE
  5
6E8
330
1F
100
AcDbEntity
  8
KONTUR
100
AcDbLine
 10
396.4795098271
 20
417.367905663
 30
0.0
 11
396.4795098271
 21
408.817905663
 31
0.0
  0
ARC
  5
6E9
330
1F
100
AcDbEntity
  8
KONTUR
100
AcDbCircle
 10
389.5556380779
 20
422.6888948744
 30
0.0
 40
15.50304298210166
100
AcDbArc
 50
243.4733693734
 51
296.5266306266
  0
LINE
  5
6EA
330
1F
100
AcDbEntity
  8
KONTUR
100
AcDbLine
 10
376.3056380779
 20
408.817905663
 30
0.0
 11
376.3056380779
 21
407.1183027203
 31
0.0
  0
LINE
  5
6EB
330
1F
100
AcDbEntity
  8
KONTUR
100
AcDbLine
 10
402.8056380779
 20
408.817905663
 30
0.0
 11
402.8056380779
 21
407.1183027203
 31
0.0
  0
LINE
  5
6EC
330
1F
100
AcDbEntity
  8
KONTUR
100
AcDbLine
 10
401.5556380779
 20
405.867905663
 30
0.0
 11
377.5556380779
 21
405.867905663
 31
0.0
  0
LINE
  5
6ED
330
1F
100
AcDbEntity
  8
KONTUR
100
AcDbLine
 10
922.6317663286
 20
417.367905663
 30
0.0
 11
936.4795098271
 21
417.367905663
 31
0.0
  0
ARC
  5
6EE
330
1F
100
AcDbEntity
  8
KONTUR
100
AcDbCircle
 10
929.5556380779
 20
404.117905663
 30
0.0
 40
14.95000000000003
100
AcDbArc
 50
62.4103957885
 51
117.5896042115
  0
LINE
  5
6EF
330
1F
100
AcDbEntity
  8
KONTUR
100
AcDbLine
 10
922.6317663286
 20
417.367905663
 30
0.0
 11
922.6317663286
 21
408.817905663
 31
0.0
  0
LINE
  5
6F0
330
1F
100
AcDbEntity
  8
KONTUR
100
AcDbLine
 10
916.3056380779
 20
408.817905663
 30
0.0
 11
922.6317663286
 21
408.817905663
 31
0.0
  0
LINE
  5
6F1
330
1F
100
AcDbEntity
  8
KONTUR
100
AcDbLine
 10
916.3056380779
 20
417.367905663
 30
0.0
 11
916.3056380779
 21
408.817905663
 31
0.0
  0
LINE
  5
6F2
330
1F
100
AcDbEntity
  8
KONTUR
100
AcDbLine
 10
916.3056380779
 20
417.367905663
 30
0.0
 11
914.6056380779
 21
419.067905663
 31
0.0
  0
LINE
  5
6F3
330
1F
100
AcDbEntity
  8
KONTUR
100
AcDbLine
 10
944.5056380779
 20
419.067905663
 30
0.0
 11
942.8056380779
 21
417.367905663
 31
0.0
  0
LINE
  5
6F4
330
1F
100
AcDbEntity
  8
KONTUR
100
AcDbLine
 10
942.8056380779
 20
417.367905663
 30
0.0
 11
942.8056380779
 21
408.817905663
 31
0.0
  0
LINE
  5
6F5
330
1F
100
AcDbEntity
  8
KONTUR
100
AcDbLine
 10
936.4795098271
 20
408.817905663
 30
0.0
 11
942.8056380779
 21
408.817905663
 31
0.0
  0
LINE
  5
6F6
330
1F
100
AcDbEntity
  8
KONTUR
100
AcDbLine
 10
936.4795098271
 20
417.367905663
 30
0.0
 11
936.4795098271
 21
408.817905663
 31
0.0
  0
ARC
  5
6F7
330
1F
100
AcDbEntity
  8
KONTUR
100
AcDbCircle
 10
929.5556380779
 20
422.6888948744
 30
0.0
 40
15.50304298210174
100
AcDbArc
 50
243.4733693734
 51
296.5266306266
  0
LINE
  5
6F8
330
1F
100
AcDbEntity
  8
KONTUR
100
AcDbLine
 10
916.3056380779
 20
408.817905663
 30
0.0
 11
916.3056380779
 21
407.1183027203
 31
0.0
  0
LINE
  5
6F9
330
1F
100
AcDbEntity
  8
KONTUR
100
AcDbLine
 10
942.8056380779
 20
408.817905663
 30
0.0
 11
942.8056380779
 21
407.1183027203
 31
0.0
  0
LINE
  5
6FA
330
1F
100
AcDbEntity
  8
KONTUR
100
AcDbLine
 10
941.5556380779
 20
405.867905663
 30
0.0
 11
917.5556380779
 21
405.867905663
 31
0.0
  0
LINE
  5
6FB
330
1F
100
AcDbEntity
  8
KONTUR
100
AcDbLine
 10
333.0651648943
 20
2084.165450062
 30
0.0
 11
658.9462869969
 21
2084.165450062
 31
0.0
  0
LINE
  5
6FC
330
1F
100
AcDbEntity
  8
KONTUR
100
AcDbLine
 10
660.1649891589
 20
2084.165450062
 30
0.0
 11
715.5556380779
 21
2084.165450062
 31
0.0
  0
LINE
  5
6FD
330
1F
100
AcDbEntity
  8
KONTUR
100
AcDbLine
 10
723.5556380779
 20
2084.165450062
 30
0.0
 11
917.0556380779
 21
2084.165450062
 31
0.0
  0
LWPOLYLINE
  5
6FE
330
1F
100
AcDbEntity
  8
KONTUR
100
AcDbPolyline
 90
        9
 70
   128
 43
0.0
 10
333.0651648943
 20
2084.165450062
 10
333.0959297439
 20
2084.1346851836
 10
333.1826093853
 20
2084.0480055144
 10
333.3219049471
 20
2083.9087099271
 10
333.50851509
 20
2083.7220997618
 10
333.7353377669
 20
2083.4952770666
 10
333.9937405137
 20
2083.2368743062
 10
334.2738889854
 20
2082.9567258261
 10
334.565121234
 20
2082.6654935747
  0
LINE
  5
6FF
330
1F
100
AcDbEntity
  8
KONTUR
100
AcDbLine
 10
334.565121234
 20
2082.6654935747
 30
0.0
 11
334.6627091457
 21
2082.567905663
 31
0.0
  0
LINE
  5
700
330
1F
100
AcDbEntity
  8
KONTUR
100
AcDbLine
 10
966.0532267143
 20
1341.267905663
 30
0.0
 11
966.0532267143
 21
1345.267905663
 31
0.0
  0
LINE
  5
701
330
1F
100
AcDbEntity
  8
KONTUR
100
AcDbLine
 10
966.0532267143
 20
1350.267905663
 30
0.0
 11
966.0532267143
 21
1353.267905663
 31
0.0
  0
LINE
  5
702
330
1F
100
AcDbEntity
  8
KONTUR
100
AcDbLine
 10
966.0532266593
 20
1353.267905663
 30
0.0
 11
966.0532266593
 21
1350.267905663
 31
0.0
  0
LINE
  5
703
330
1F
100
AcDbEntity
  8
KONTUR
100
AcDbLine
 10
966.0532266593
 20
1345.267905663
 30
0.0
 11
966.0532266593
 21
1341.267905663
 31
0.0
  0
LINE
  5
704
330
1F
100
AcDbEntity
  8
KONTUR
100
AcDbLine
 10
334.6485670101
 20
2082.567905663
 30
0.0
 11
334.5580501662
 21
2082.6584225069
 31
0.0
  0
LINE
  5
705
330
1F
100
AcDbEntity
  8
KONTUR
100
AcDbLine
 10
353.0580494415
 20
1338.767905663
 30
0.0
 11
353.0580494415
 21
1355.767905663
 31
0.0
  0
LWPOLYLINE
  5
706
330
1F
100
AcDbEntity
  8
KONTUR
100
AcDbPolyline
 90
        9
 70
   128
 43
0.0
 10
334.5580501662
 20
2082.6584225069
 10
334.2668179148
 20
2082.9496547611
 10
333.9866694347
 20
2083.2298032496
 10
333.7282666743
 20
2083.4882060236
 10
333.501443979
 20
2083.7150287372
 10
333.3148338138
 20
2083.9016389248
 10
333.1755382265
 20
2084.0409345377
 10
333.0888585573
 20
2084.1276142346
 10
333.0580936789
 20
2084.1583791418
  0
LINE
  5
707
330
1F
100
AcDbEntity
  8
KONTUR
100
AcDbLine
 10
333.0580936789
 20
611.1845035472
 30
0.0
 11
333.0580936789
 21
611.967905663
 31
0.0
  0
LINE
  5
708
330
1F
100
AcDbEntity
  8
KONTUR
100
AcDbLine
 10
333.0580936789
 20
1338.767905663
 30
0.0
 11
333.0580936789
 21
1355.767905663
 31
0.0
  0
LINE
  5
709
330
1F
100
AcDbEntity
  8
KONTUR
100
AcDbLine
 10
333.0580936789
 20
2082.567905663
 30
0.0
 11
333.0580936789
 21
2084.1583791418
 31
0.0
  0
LWPOLYLINE
  5
70A
330
1F
100
AcDbEntity
  8
KONTUR
100
AcDbPolyline
 90
        7
 70
   128
 43
0.0
 10
333.0580936789
 20
611.1845035472
 10
333.0888585573
 20
611.2152683967
 10
333.1755382265
 20
611.3019480382
 10
333.3148338138
 20
611.4412436
 10
333.501443979
 20
611.6278537429
 10
333.7282666743
 20
611.8546764198
 10
333.8414959242
 20
611.967905663
  0
LINE
  5
70B
330
1F
100
AcDbEntity
  8
KONTUR
100
AcDbLine
 10
333.3454764685
 20
2083.8709963702
 30
0.0
 11
334.1580324562
 21
2083.0584403656
 31
0.0
  0
LINE
  5
70C
330
1F
100
AcDbEntity
  8
KONTUR
100
AcDbLine
 10
334.1580324562
 20
2083.0584403656
 30
0.0
 11
334.6485671589
 21
2082.567905663
 31
0.0
  0
LWPOLYLINE
  5
70D
330
1F
100
AcDbEntity
  8
KONTUR
100
AcDbPolyline
 90
        7
 70
   128
 43
0.0
 10
333.8697801962
 20
611.967905663
 10
333.7424087851
 20
611.8405342594
 10
333.5155860715
 20
611.6137115641
 10
333.3289758839
 20
611.4271013988
 10
333.189680271
 20
611.2878058115
 10
333.1030005741
 20
611.2011261423
 10
333.0722356668
 20
611.1703612639
  0
LINE
  5
70E
330
1F
100
AcDbEntity
  8
KONTUR
100
AcDbLine
 10
333.3596184385
 20
611.4577440536
 30
0.0
 11
333.9784734668
 21
612.0765990654
 31
0.0
  0
LINE
  5
70F
330
1F
100
AcDbEntity
  8
KONTUR
100
AcDbLine
 10
917.0556380779
 20
611.1703612639
 30
0.0
 11
670.5418326279
 21
611.1703612639
 31
0.0
  0
LINE
  5
710
330
1F
100
AcDbEntity
  8
KONTUR
100
AcDbLine
 10
648.5694435279
 20
611.1703612639
 30
0.0
 11
333.0722356668
 21
611.1703612639
 31
0.0
  0
LINE
  5
711
330
1F
100
AcDbEntity
  8
KONTUR
100
AcDbLine
 10
353.0580494965
 20
1338.767905663
 30
0.0
 11
353.0580494965
 21
1355.767905663
 31
0.0
  0
LINE
  5
712
330
1F
100
AcDbEntity
  8
KONTUR
100
AcDbLine
 10
343.0556380779
 20
2088.167905663
 30
0.0
 11
343.2556380779
 21
2088.167905663
 31
0.0
  0
LINE
  5
713
330
1F
100
AcDbEntity
  8
KONTUR
100
AcDbLine
 10
343.2556380779
 20
2097.667905663
 30
0.0
 11
343.2556380779
 21
2084.165450062
 31
0.0
  0
LINE
  5
714
330
1F
100
AcDbEntity
  8
KONTUR
100
AcDbLine
 10
1019.1556380779
 20
2118.767905663
 30
0.0
 11
1014.5556380779
 21
2118.767905663
 31
0.0
  0
LINE
  5
715
330
1F
100
AcDbEntity
  8
KONTUR
100
AcDbLine
 10
1019.1556380779
 20
2118.767905663
 30
0.0
 11
1019.1556380779
 21
2117.867905663
 31
0.0
  0
LINE
  5
716
330
1F
100
AcDbEntity
  8
KONTUR
100
AcDbLine
 10
1019.1556380779
 20
557.067905663
 30
0.0
 11
1019.1556380779
 21
556.167905663
 31
0.0
  0
LINE
  5
717
330
1F
100
AcDbEntity
  8
KONTUR
100
AcDbLine
 10
978.5556380779
 20
556.167905663
 30
0.0
 11
1019.1556380779
 21
556.167905663
 31
0.0
  0
ARC
  5
718
330
1F
100
AcDbEntity
  8
KONTUR
100
AcDbCircle
 10
978.5556380779
 20
558.667905663
 30
0.0
 40
2.5
100
AcDbArc
 50
180.0
 51
270.0
  0
LINE
  5
719
330
1F
100
AcDbEntity
  8
KONTUR
100
AcDbLine
 10
976.0556380779
 20
564.4679056629
 30
0.0
 11
976.0556380779
 21
558.667905663
 31
0.0
  0
LINE
  5
71A
330
1F
100
AcDbEntity
  8
KONTUR
100
AcDbLine
 10
1020.0556380779
 20
2117.867905663
 30
0.0
 11
1020.0556380779
 21
557.067905663
 31
0.0
  0
LINE
  5
71B
330
1F
100
AcDbEntity
  8
KONTUR
100
AcDbLine
 10
1019.1556380779
 20
557.067905663
 30
0.0
 11
1020.0556380779
 21
557.067905663
 31
0.0
  0
LINE
  5
71C
330
1F
100
AcDbEntity
  8
KONTUR
100
AcDbLine
 10
1020.0556380779
 20
2117.867905663
 30
0.0
 11
1019.1556380779
 21
2117.867905663
 31
0.0
  0
ARC
  5
71D
330
1F
100
AcDbEntity
  8
KONTUR
100
AcDbCircle
 10
1019.1556380779
 20
557.067905663
 30
0.0
 40
0.8999999999999773
100
AcDbArc
 50
270.0
 51
0.0
  0
ARC
  5
71E
330
1F
100
AcDbEntity
  8
KONTUR
100
AcDbCircle
 10
1019.1556380779
 20
557.067905663
 30
0.0
 40
0.2999999999999545
100
AcDbArc
 50
270.0
 51
0.0
  0
ARC
  5
71F
330
1F
100
AcDbEntity
  8
KONTUR
100
AcDbCircle
 10
1019.1556380779
 20
2117.867905663
 30
0.0
 40
0.900000000000091
100
AcDbArc
 50
0.0
 51
90.0
  0
ARC
  5
720
330
1F
100
AcDbEntity
  8
KONTUR
100
AcDbCircle
 10
1019.1556380779
 20
2117.867905663
 30
0.0
 40
0.3000000000001819
100
AcDbArc
 50
0.0
 51
90.0
  0
LINE
  5
721
330
1F
100
AcDbEntity
  8
KONTUR
100
AcDbLine
 10
343.0556380779
 20
558.667905663
 30
0.0
 11
343.0556380779
 21
611.1703612639
 31
0.0
  0
ARC
  5
722
330
1F
100
AcDbEntity
  8
KONTUR
100
AcDbCircle
 10
340.5556380779
 20
558.667905663
 30
0.0
 40
2.5
100
AcDbArc
 50
270.0
 51
0.0
  0
LINE
  5
723
330
1F
100
AcDbEntity
  8
KONTUR
100
AcDbLine
 10
299.9556380779
 20
556.167905663
 30
0.0
 11
340.5556380779
 21
556.167905663
 31
0.0
  0
LINE
  5
724
330
1F
100
AcDbEntity
  8
KONTUR
100
AcDbLine
 10
299.9556380779
 20
556.167905663
 30
0.0
 11
299.9556380779
 21
557.067905663
 31
0.0
  0
LINE
  5
725
330
1F
100
AcDbEntity
  8
KONTUR
100
AcDbLine
 10
299.9556380779
 20
2117.867905663
 30
0.0
 11
299.9556380779
 21
2118.767905663
 31
0.0
  0
LINE
  5
726
330
1F
100
AcDbEntity
  8
KONTUR
100
AcDbLine
 10
343.0556380779
 20
2084.165450062
 30
0.0
 11
343.0556380779
 21
2097.667905663
 31
0.0
  0
LINE
  5
727
330
1F
100
AcDbEntity
  8
KONTUR
100
AcDbLine
 10
304.5556380779
 20
2118.767905663
 30
0.0
 11
299.9556380779
 21
2118.767905663
 31
0.0
  0
LINE
  5
728
330
1F
100
AcDbEntity
  8
KONTUR
100
AcDbLine
 10
299.9556380779
 20
2117.867905663
 30
0.0
 11
299.0556380779
 21
2117.867905663
 31
0.0
  0
LINE
  5
729
330
1F
100
AcDbEntity
  8
KONTUR
100
AcDbLine
 10
299.0556380779
 20
557.067905663
 30
0.0
 11
299.9556380779
 21
557.067905663
 31
0.0
  0
LINE
  5
72A
330
1F
100
AcDbEntity
  8
KONTUR
100
AcDbLine
 10
299.0556380779
 20
557.067905663
 30
0.0
 11
299.0556380779
 21
2117.867905663
 31
0.0
  0
ARC
  5
72B
330
1F
100
AcDbEntity
  8
KONTUR
100
AcDbCircle
 10
299.9556380779
 20
2117.867905663
 30
0.0
 40
0.9000000000001478
100
AcDbArc
 50
90.0
 51
179.9999999999
  0
ARC
  5
72C
330
1F
100
AcDbEntity
  8
KONTUR
100
AcDbCircle
 10
299.9556380779
 20
2117.867905663
 30
0.0
 40
0.3000000000001819
100
AcDbArc
 50
90.0
 51
180.0
  0
ARC
  5
72D
330
1F
100
AcDbEntity
  8
KONTUR
100
AcDbCircle
 10
299.9556380779
 20
557.067905663
 30
0.0
 40
0.9000000000000341
100
AcDbArc
 50
180.0
 51
270.0
  0
ARC
  5
72E
330
1F
100
AcDbEntity
  8
KONTUR
100
AcDbCircle
 10
299.9556380779
 20
557.067905663
 30
0.0
 40
0.2999999999999545
100
AcDbArc
 50
180.0
 51
270.0
  0
LINE
  5
72F
330
1F
100
AcDbEntity
  8
KONTUR
100
AcDbLine
 10
343.2556380779
 20
606.767905663
 30
0.0
 11
343.0556380779
 21
606.767905663
 31
0.0
  0
LINE
  5
730
330
1F
100
AcDbEntity
  8
KONTUR
100
AcDbLine
 10
343.2556380779
 20
611.1703612639
 30
0.0
 11
343.2556380779
 21
557.067905663
 31
0.0
  0
LINE
  5
731
330
1F
100
AcDbEntity
  8
KONTUR
100
AcDbLine
 10
975.8556380779
 20
557.067905663
 30
0.0
 11
975.8556380779
 21
564.4679056629
 31
0.0
  0
LINE
  5
732
330
1F
100
AcDbEntity
  8
KONTUR
100
AcDbLine
 10
343.2556380779
 20
557.067905663
 30
0.0
 11
343.2556380779
 21
556.2193775255
 31
0.0
  0
LINE
  5
733
330
1F
100
AcDbEntity
  8
KONTUR
100
AcDbLine
 10
975.8556380779
 20
556.2193775255
 30
0.0
 11
975.8556380779
 21
557.067905663
 31
0.0
  0
LINE
  5
734
330
1F
100
AcDbEntity
  8
KONTUR
100
AcDbLine
 10
975.8556380779
 20
556.167905663
 30
0.0
 11
343.2556380779
 21
556.167905663
 31
0.0
  0
LINE
  5
735
330
1F
100
AcDbEntity
  8
KONTUR
100
AcDbLine
 10
978.5556380779
 20
556.167905663
 30
0.0
 11
975.8556380779
 21
556.167905663
 31
0.0
  0
LINE
  5
736
330
1F
100
AcDbEntity
  8
KONTUR
100
AcDbLine
 10
975.8556380779
 20
556.2193775255
 30
0.0
 11
975.8556380779
 21
556.167905663
 31
0.0
  0
LINE
  5
737
330
1F
100
AcDbEntity
  8
KONTUR
100
AcDbLine
 10
976.930830397
 20
556.767905663
 30
0.0
 11
975.8556380779
 21
556.767905663
 31
0.0
  0
LINE
  5
738
330
1F
100
AcDbEntity
  8
KONTUR
100
AcDbLine
 10
343.2556380779
 20
556.2193775255
 30
0.0
 11
343.2556380779
 21
556.167905663
 31
0.0
  0
LINE
  5
739
330
1F
100
AcDbEntity
  8
KONTUR
100
AcDbLine
 10
343.2556380779
 20
556.167905663
 30
0.0
 11
340.5556380779
 21
556.167905663
 31
0.0
  0
LINE
  5
73A
330
1F
100
AcDbEntity
  8
KONTUR
100
AcDbLine
 10
343.2556380779
 20
556.767905663
 30
0.0
 11
342.1804457588
 21
556.767905663
 31
0.0
  0
LINE
  5
73B
330
1F
100
AcDbEntity
  8
0
  6
Continuous
 62
     7
370
    18
100
AcDbLine
 10
356.5556380779
 20
2455.767905663
 30
0.0
 11
356.5556380779
 21
2456.967905663
 31
0.0
  0
LINE
  5
73C
330
1F
100
AcDbEntity
  8
0
  6
Continuous
 62
     7
370
    18
100
AcDbLine
 10
326.5556380779
 20
2456.967905663
 30
0.0
 11
326.5556380779
 21
2455.767905663
 31
0.0
  0
LINE
  5
73D
330
1F
100
AcDbEntity
  8
0
  6
Continuous
 62
     7
370
    18
100
AcDbLine
 10
361.5556380779
 20
2458.517905663
 30
0.0
 11
352.5556380779
 21
2458.517905663
 31
0.0
  0
LINE
  5
73E
330
1F
100
AcDbEntity
  8
0
  6
Continuous
 62
     7
370
    18
100
AcDbLine
 10
330.5556380779
 20
2458.517905663
 30
0.0
 11
321.5556380779
 21
2458.517905663
 31
0.0
  0
LINE
  5
73F
330
1F
100
AcDbEntity
  8
0
  6
Continuous
 62
     7
370
    18
100
AcDbLine
 10
962.5556380779
 20
2456.967905663
 30
0.0
 11
962.5556380779
 21
2455.767905663
 31
0.0
  0
LINE
  5
740
330
1F
100
AcDbEntity
  8
0
  6
Continuous
 62
     7
370
    18
100
AcDbLine
 10
992.5556380779
 20
2455.767905663
 30
0.0
 11
992.5556380779
 21
2456.967905663
 31
0.0
  0
LINE
  5
741
330
1F
100
AcDbEntity
  8
0
  6
Continuous
 62
     7
370
    18
100
AcDbLine
 10
997.5556380779
 20
2458.517905663
 30
0.0
 11
988.5556380779
 21
2458.517905663
 31
0.0
  0
LINE
  5
742
330
1F
100
AcDbEntity
  8
0
  6
Continuous
 62
     7
370
    18
100
AcDbLine
 10
966.5556380779
 20
2458.517905663
 30
0.0
 11
957.5556380779
 21
2458.517905663
 31
0.0
  0
LINE
  5
743
330
1F
100
AcDbEntity
  8
0
  6
Continuous
 62
     7
370
    18
100
AcDbLine
 10
362.5556380779
 20
2456.517905663
 30
0.0
 11
362.5556380779
 21
2460.517905663
 31
0.0
  0
LINE
  5
744
330
1F
100
AcDbEntity
  8
0
  6
Continuous
 62
     7
370
    18
100
AcDbLine
 10
998.5556380779
 20
2456.517905663
 30
0.0
 11
998.5556380779
 21
2460.517905663
 31
0.0
  0
LINE
  5
745
330
1F
100
AcDbEntity
  8
0
  6
Continuous
 62
     7
370
    18
100
AcDbLine
 10
320.5556380779
 20
2458.517905663
 30
0.0
 11
320.5556380779
 21
2456.517905663
 31
0.0
  0
LINE
  5
746
330
1F
100
AcDbEntity
  8
0
  6
Continuous
 62
     7
370
    18
100
AcDbLine
 10
320.5556380779
 20
2460.517905663
 30
0.0
 11
320.5556380779
 21
2458.517905663
 31
0.0
  0
LINE
  5
747
330
1F
100
AcDbEntity
  8
0
  6
Continuous
 62
     7
370
    18
100
AcDbLine
 10
956.5556380779
 20
2458.517905663
 30
0.0
 11
956.5556380779
 21
2456.517905663
 31
0.0
  0
LINE
  5
748
330
1F
100
AcDbEntity
  8
0
  6
Continuous
 62
     7
370
    18
100
AcDbLine
 10
956.5556380779
 20
2460.517905663
 30
0.0
 11
956.5556380779
 21
2458.517905663
 31
0.0
  0
LINE
  5
749
330
1F
100
AcDbEntity
  8
0
  6
Continuous
 62
     7
370
    18
100
AcDbLine
 10
750.5556380779
 20
2093.667905663
 30
0.0
 11
751.5556380779
 21
2093.667905663
 31
0.0
  0
LINE
  5
74A
330
1F
100
AcDbEntity
  8
0
  6
Continuous
 62
     7
370
    18
100
AcDbLine
 10
750.5556380779
 20
2093.667905663
 30
0.0
 11
750.5556380779
 21
2097.667905663
 31
0.0
  0
LINE
  5
74B
330
1F
100
AcDbEntity
  8
0
  6
Continuous
 62
     7
370
    18
100
AcDbLine
 10
750.5556380779
 20
2092.667905663
 30
0.0
 11
750.5556380779
 21
2093.667905663
 31
0.0
  0
LINE
  5
74C
330
1F
100
AcDbEntity
  8
0
  6
Continuous
 62
     7
370
    18
100
AcDbLine
 10
737.5556380779
 20
2093.667905663
 30
0.0
 11
738.5556380779
 21
2093.667905663
 31
0.0
  0
LINE
  5
74D
330
1F
100
AcDbEntity
  8
0
  6
Continuous
 62
     7
370
    18
100
AcDbLine
 10
738.5556380779
 20
2092.667905663
 30
0.0
 11
738.5556380779
 21
2093.667905663
 31
0.0
  0
LINE
  5
74E
330
1F
100
AcDbEntity
  8
0
  6
Continuous
 62
     7
370
    18
100
AcDbLine
 10
738.5556380779
 20
2093.667905663
 30
0.0
 11
750.5556380779
 21
2093.667905663
 31
0.0
  0
LINE
  5
74F
330
1F
100
AcDbEntity
  8
0
  6
Continuous
 62
     7
370
    18
100
AcDbLine
 10
738.5556380779
 20
2097.667905663
 30
0.0
 11
738.5556380779
 21
2093.667905663
 31
0.0
  0
LINE
  5
750
330
1F
100
AcDbEntity
  8
0
  6
Continuous
 62
     7
370
    18
100
AcDbLine
 10
713.5556380779
 20
2092.667905663
 30
0.0
 11
713.5556380779
 21
2093.667905663
 31
0.0
  0
LINE
  5
751
330
1F
100
AcDbEntity
  8
0
  6
Continuous
 62
     7
370
    18
100
AcDbLine
 10
713.5556380779
 20
2093.667905663
 30
0.0
 11
725.5556380779
 21
2093.667905663
 31
0.0
  0
LINE
  5
752
330
1F
100
AcDbEntity
  8
0
  6
Continuous
 62
     7
370
    18
100
AcDbLine
 10
725.5556380779
 20
2092.667905663
 30
0.0
 11
725.5556380779
 21
2093.667905663
 31
0.0
  0
LINE
  5
753
330
1F
100
AcDbEntity
  8
0
  6
Continuous
 62
     7
370
    18
100
AcDbLine
 10
725.5556380779
 20
2093.667905663
 30
0.0
 11
725.5556380779
 21
2097.667905663
 31
0.0
  0
LINE
  5
754
330
1F
100
AcDbEntity
  8
0
  6
Continuous
 62
     7
370
    18
100
AcDbLine
 10
713.5556380779
 20
2097.667905663
 30
0.0
 11
713.5556380779
 21
2093.667905663
 31
0.0
  0
LINE
  5
755
330
1F
100
AcDbEntity
  8
0
  6
Continuous
 62
     7
370
    18
100
AcDbLine
 10
725.5556380779
 20
2093.667905663
 30
0.0
 11
726.5556380779
 21
2093.667905663
 31
0.0
  0
LINE
  5
756
330
1F
100
AcDbEntity
  8
0
  6
Continuous
 62
     7
370
    18
100
AcDbLine
 10
712.5556380779
 20
2093.667905663
 30
0.0
 11
713.5556380779
 21
2093.667905663
 31
0.0
  0
LINE
  5
757
330
1F
100
AcDbEntity
  8
0
  6
Continuous
 62
     7
370
    18
100
AcDbLine
 10
560.5556380779
 20
2097.167905663
 30
0.0
 11
591.2056380779
 21
2097.167905663
 31
0.0
  0
LINE
  5
758
330
1F
100
AcDbEntity
  8
0
  6
Continuous
 62
     7
370
    18
100
AcDbLine
 10
529.9056380779
 20
2097.167905663
 30
0.0
 11
560.5556380779
 21
2097.167905663
 31
0.0
  0
LINE
  5
759
330
1F
100
AcDbEntity
  8
0
  6
Continuous
 62
     7
370
    18
100
AcDbLine
 10
996.5585818031
 20
2098.867905663
 30
0.0
 11
996.5585818031
 21
2454.567905663
 31
0.0
  0
LINE
  5
75A
330
1F
100
AcDbEntity
  8
0
  6
Continuous
 62
     7
370
    18
100
AcDbLine
 10
997.4071099405
 20
2098.867905663
 30
0.0
 11
997.4071099405
 21
2454.567905663
 31
0.0
  0
LINE
  5
75B
330
1F
100
AcDbEntity
  8
0
  6
Continuous
 62
     7
370
    18
100
AcDbLine
 10
322.95939198
 20
2098.867905663
 30
0.0
 11
996.1518841758
 21
2098.867905663
 31
0.0
  0
LINE
  5
75C
330
1F
100
AcDbEntity
  8
0
  6
Continuous
 62
     7
370
    18
100
AcDbLine
 10
322.5526943527
 20
2098.867905663
 30
0.0
 11
322.5526943527
 21
2454.567905663
 31
0.0
  0
LINE
  5
75D
330
1F
100
AcDbEntity
  8
0
  6
Continuous
 62
     7
370
    18
100
AcDbLine
 10
996.1518841758
 20
2454.567905663
 30
0.0
 11
322.95939198
 21
2454.567905663
 31
0.0
  0
LINE
  5
75E
330
1F
100
AcDbEntity
  8
0
  6
Continuous
 62
     7
370
    18
100
AcDbLine
 10
321.7041662153
 20
2098.867905663
 30
0.0
 11
321.7041662153
 21
2454.567905663
 31
0.0
  0
LINE
  5
75F
330
1F
100
AcDbEntity
  8
0
  6
Continuous
 62
     7
370
    18
100
AcDbLine
 10
997.6591271461
 20
2098.867905663
 30
0.0
 11
1013.9563084099
 21
2098.867905663
 31
0.0
  0
LINE
  5
760
330
1F
100
AcDbEntity
  8
0
  6
Continuous
 62
     7
370
    18
100
AcDbLine
 10
1013.970256527
 20
2454.567905663
 30
0.0
 11
997.6591271461
 21
2454.567905663
 31
0.0
  0
LINE
  5
761
330
1F
100
AcDbEntity
  8
0
  6
Continuous
 62
     7
370
    18
100
AcDbLine
 10
1014.2041662153
 20
2098.867905663
 30
0.0
 11
1014.2041662153
 21
2454.567905663
 31
0.0
  0
LINE
  5
762
330
1F
100
AcDbEntity
  8
0
  6
Continuous
 62
     7
370
    18
100
AcDbLine
 10
305.1549677459
 20
2098.867905663
 30
0.0
 11
321.4521490097
 21
2098.867905663
 31
0.0
  0
LINE
  5
763
330
1F
100
AcDbEntity
  8
0
  6
Continuous
 62
     7
370
    18
100
AcDbLine
 10
304.9071099405
 20
2098.867905663
 30
0.0
 11
304.9071099405
 21
2454.567905663
 31
0.0
  0
LINE
  5
764
330
1F
100
AcDbEntity
  8
0
  6
Continuous
 62
     7
370
    18
100
AcDbLine
 10
321.4521490097
 20
2454.567905663
 30
0.0
 11
305.1410196288
 21
2454.567905663
 31
0.0
  0
LINE
  5
765
330
1F
100
AcDbEntity
  8
0
  6
Continuous
 62
     7
370
    18
100
AcDbLine
 10
1018.8556380779
 20
2454.567905663
 30
0.0
 11
1014.5556380779
 21
2454.567905663
 31
0.0
  0
LINE
  5
766
330
1F
100
AcDbEntity
  8
0
  6
Continuous
 62
     7
370
    18
100
AcDbLine
 10
1018.8556380779
 20
2119.967905663
 30
0.0
 11
1018.8556380779
 21
2454.567905663
 31
0.0
  0
LINE
  5
767
330
1F
100
AcDbEntity
  8
0
  6
Continuous
 62
     7
370
    18
100
AcDbLine
 10
1014.5556380779
 20
2119.967905663
 30
0.0
 11
1018.8556380779
 21
2119.967905663
 31
0.0
  0
LINE
  5
768
330
1F
100
AcDbEntity
  8
0
  6
Continuous
 62
     7
370
    18
100
AcDbLine
 10
300.2556380779
 20
2119.967905663
 30
0.0
 11
300.2556380779
 21
2454.567905663
 31
0.0
  0
LINE
  5
769
330
1F
100
AcDbEntity
  8
0
  6
Continuous
 62
     7
370
    18
100
AcDbLine
 10
300.2556380779
 20
2119.967905663
 30
0.0
 11
304.5556380779
 21
2119.967905663
 31
0.0
  0
LINE
  5
76A
330
1F
100
AcDbEntity
  8
0
  6
Continuous
 62
     7
370
    18
100
AcDbLine
 10
304.5556380779
 20
2454.567905663
 30
0.0
 11
300.2556380779
 21
2454.567905663
 31
0.0
  0
LINE
  5
76B
330
1F
100
AcDbEntity
  8
0
  6
Continuous
 62
     7
370
    18
100
AcDbLine
 10
980.4143952885
 20
2097.4737496829
 30
0.0
 11
981.8056380779
 21
2097.4737496829
 31
0.0
  0
LINE
  5
76C
330
1F
100
AcDbEntity
  8
0
  6
Continuous
 62
     7
370
    18
100
AcDbLine
 10
972.3056380779
 20
2097.4737496829
 30
0.0
 11
980.4143952885
 21
2097.4737496829
 31
0.0
  0
LINE
  5
76D
330
1F
100
AcDbEntity
  8
0
  6
Continuous
 62
     7
370
    18
100
AcDbLine
 10
980.7967637037
 20
597.062061643
 30
0.0
 11
972.3056380779
 21
597.062061643
 31
0.0
  0
LINE
  5
76E
330
1F
100
AcDbEntity
  8
0
  6
Continuous
 62
     7
370
    18
100
AcDbLine
 10
981.8056380779
 20
597.062061643
 30
0.0
 11
980.7967637037
 21
597.062061643
 31
0.0
  0
LINE
  5
76F
330
1F
100
AcDbEntity
  8
0
  6
Continuous
 62
     7
370
    18
100
AcDbLine
 10
980.644197758
 20
596.6921769
 30
0.0
 11
972.4993466872
 21
596.6921769
 31
0.0
  0
LINE
  5
770
330
1F
100
AcDbEntity
  8
0
  6
Continuous
 62
     7
370
    18
100
AcDbLine
 10
981.6119294686
 20
596.6921769
 30
0.0
 11
980.644197758
 21
596.6921769
 31
0.0
  0
LINE
  5
771
330
1F
100
AcDbEntity
  8
0
  6
Continuous
 62
     7
370
    18
100
AcDbLine
 10
912.5556380779
 20
603.9679056629
 30
0.0
 11
912.5556380779
 21
598.9679056629
 31
0.0
  0
LINE
  5
772
330
1F
100
AcDbEntity
  8
0
  6
Continuous
 62
     7
370
    18
100
AcDbLine
 10
988.5556380779
 20
598.9679056629
 30
0.0
 11
988.5556380779
 21
603.9679056629
 31
0.0
  0
LINE
  5
773
330
1F
100
AcDbEntity
  8
0
  6
Continuous
 62
     7
370
    18
100
AcDbLine
 10
993.5556380779
 20
593.9679056629
 30
0.0
 11
907.5556380779
 21
593.9679056629
 31
0.0
  0
LINE
  5
774
330
1F
100
AcDbEntity
  8
0
  6
Continuous
 62
     7
370
    18
100
AcDbLine
 10
988.5556380779
 20
2090.567905663
 30
0.0
 11
988.5556380779
 21
2095.567905663
 31
0.0
  0
LINE
  5
775
330
1F
100
AcDbEntity
  8
0
  6
Continuous
 62
     7
370
    18
100
AcDbLine
 10
912.5556380779
 20
2095.567905663
 30
0.0
 11
912.5556380779
 21
2090.567905663
 31
0.0
  0
LINE
  5
776
330
1F
100
AcDbEntity
  8
0
  6
Continuous
 62
     7
370
    18
100
AcDbLine
 10
323.2056380779
 20
1337.867905663
 30
0.0
 11
323.2056380779
 21
612.867905663
 31
0.0
  0
LINE
  5
777
330
1F
100
AcDbEntity
  8
0
  6
Continuous
 62
     7
370
    18
100
AcDbLine
 10
323.2056380779
 20
612.867905663
 30
0.0
 11
995.9056380779
 21
612.867905663
 31
0.0
  0
LINE
  5
778
330
1F
100
AcDbEntity
  8
0
  6
Continuous
 62
     7
370
    18
100
AcDbLine
 10
995.9056380779
 20
1337.867905663
 30
0.0
 11
323.2056380779
 21
1337.867905663
 31
0.0
  0
LINE
  5
779
330
1F
100
AcDbEntity
  8
0
  6
Continuous
 62
     7
370
    18
100
AcDbLine
 10
995.9056380779
 20
612.867905663
 30
0.0
 11
995.9056380779
 21
1337.867905663
 31
0.0
  0
LINE
  5
77A
330
1F
100
AcDbEntity
  8
0
  6
Continuous
 62
     7
370
    18
100
AcDbLine
 10
323.2056380779
 20
1338.167905663
 30
0.0
 11
323.2056380779
 21
1337.867905663
 31
0.0
  0
LINE
  5
77B
330
1F
100
AcDbEntity
  8
0
  6
Continuous
 62
     7
370
    18
100
AcDbLine
 10
323.2056380779
 20
612.867905663
 30
0.0
 11
323.2056380779
 21
612.567905663
 31
0.0
  0
LINE
  5
77C
330
1F
100
AcDbEntity
  8
0
  6
Continuous
 62
     7
370
    18
100
AcDbLine
 10
990.0556380779
 20
2086.567905663
 30
0.0
 11
990.0556380779
 21
2082.567905663
 31
0.0
  0
LINE
  5
77D
330
1F
100
AcDbEntity
  8
0
  6
Continuous
 62
     7
370
    18
100
AcDbLine
 10
918.0556380779
 20
2086.567905663
 30
0.0
 11
918.0556380779
 21
2082.567905663
 31
0.0
  0
LINE
  5
77E
330
1F
100
AcDbEntity
  8
0
  6
Continuous
 62
     7
370
    18
100
AcDbLine
 10
918.0556380779
 20
607.967905663
 30
0.0
 11
918.0556380779
 21
611.967905663
 31
0.0
  0
LINE
  5
77F
330
1F
100
AcDbEntity
  8
0
  6
Continuous
 62
     7
370
    18
100
AcDbLine
 10
990.0556380779
 20
607.967905663
 30
0.0
 11
990.0556380779
 21
611.967905663
 31
0.0
  0
LWPOLYLINE
  5
780
330
1F
100
AcDbEntity
  8
0
  6
Continuous
 62
     7
370
    18
100
AcDbPolyline
 90
        8
 70
   128
 43
0.0
 10
963.609237952
 20
1354.2330061663
 10
963.6092379438
 20
1354.2330064184
 10
963.6807513071
 20
1354.2355209727
 10
964.0563450877
 20
1354.2380721496
 10
964.7121781591
 20
1354.2384675385
 10
965.5730695498
 20
1354.2366076662
 10
966.5441075687
 20
1354.2330064184
 10
966.5441675681
 20
1354.2330061663
  0
LINE
  5
781
330
1F
100
AcDbEntity
  8
0
  6
Continuous
 62
     7
370
    18
100
AcDbLine
 10
966.5441675681
 20
1353.267905663
 30
0.0
 11
966.5441675681
 21
1354.2330061663
 31
0.0
  0
LINE
  5
782
330
1F
100
AcDbEntity
  8
0
  6
Continuous
 62
     7
370
    18
100
AcDbLine
 10
987.5671085933
 20
1353.267905663
 30
0.0
 11
987.5671085933
 21
1354.2330061663
 31
0.0
  0
LWPOLYLINE
  5
783
330
1F
100
AcDbEntity
  8
0
  6
Continuous
 62
     7
370
    18
100
AcDbPolyline
 90
        8
 70
   128
 43
0.0
 10
987.5671085933
 20
1354.2330061663
 10
987.5671685928
 20
1354.2330064184
 10
988.2108872269
 20
1354.2355209727
 10
989.123655716
 20
1354.2380721496
 10
989.8596134867
 20
1354.2384675385
 10
990.3365990235
 20
1354.2366076662
 10
990.5020382176
 20
1354.2330064184
 10
990.5020382095
 20
1354.2330061663
  0
LWPOLYLINE
  5
784
330
1F
100
AcDbEntity
  8
0
  6
Continuous
 62
     7
370
    18
100
AcDbPolyline
 90
        3
 70
   128
 43
0.0
 10
987.5671085933
 20
1354.2330061663
 10
987.5540180802
 20
1355.0928267852
 10
987.5579095878
 20
1355.767905663
  0
LWPOLYLINE
  5
785
330
1F
100
AcDbEntity
  8
0
  6
Continuous
 62
     7
370
    18
100
AcDbPolyline
 90
        3
 70
   128
 43
0.0
 10
966.5533665736
 20
1355.767905663
 10
966.5549666722
 20
1354.9085974267
 10
966.5441675681
 20
1354.2330061663
  0
LINE
  5
786
330
1F
100
AcDbEntity
  8
0
  6
Continuous
 62
     7
370
    18
100
AcDbLine
 10
966.5441675681
 20
1354.2330061663
 30
0.0
 11
987.5671085933
 21
1354.2330061663
 31
0.0
  0
LWPOLYLINE
  5
787
330
1F
100
AcDbEntity
  8
0
  6
Continuous
 62
     7
370
    18
100
AcDbPolyline
 90
        8
 70
   128
 43
0.0
 10
966.5441675681
 20
1340.3028051597
 10
966.5441075687
 20
1340.3028049075
 10
965.9003889346
 20
1340.3002903532
 10
964.9876204454
 20
1340.2977391763
 10
964.2516626747
 20
1340.2973437874
 10
963.774677138
 20
1340.2992036597
 10
963.6092379438
 20
1340.3028049075
 10
963.609237952
 20
1340.3028051597
  0
LINE
  5
788
330
1F
100
AcDbEntity
  8
0
  6
Continuous
 62
     7
370
    18
100
AcDbLine
 10
966.5441675681
 20
1340.3028051597
 30
0.0
 11
966.5441675681
 21
1341.267905663
 31
0.0
  0
LWPOLYLINE
  5
789
330
1F
100
AcDbEntity
  8
0
  6
Continuous
 62
     7
370
    18
100
AcDbPolyline
 90
        8
 70
   128
 43
0.0
 10
990.5020382095
 20
1340.3028051597
 10
990.5020382176
 20
1340.3028049075
 10
990.4305248544
 20
1340.3002903532
 10
990.0549310737
 20
1340.2977391763
 10
989.3990980023
 20
1340.2973437874
 10
988.5382066116
 20
1340.2992036597
 10
987.5671685928
 20
1340.3028049075
 10
987.5671085933
 20
1340.3028051597
  0
LINE
  5
78A
330
1F
100
AcDbEntity
  8
0
  6
Continuous
 62
     7
370
    18
100
AcDbLine
 10
987.5671085933
 20
1340.3028051597
 30
0.0
 11
987.5671085933
 21
1341.267905663
 31
0.0
  0
LWPOLYLINE
  5
78B
330
1F
100
AcDbEntity
  8
0
  6
Continuous
 62
     7
370
    18
100
AcDbPolyline
 90
        3
 70
   128
 43
0.0
 10
966.5441675681
 20
1340.3028051597
 10
966.5572580812
 20
1339.4429845408
 10
966.5533665736
 20
1338.767905663
  0
LWPOLYLINE
  5
78C
330
1F
100
AcDbEntity
  8
0
  6
Continuous
 62
     7
370
    18
100
AcDbPolyline
 90
        3
 70
   128
 43
0.0
 10
987.5579095878
 20
1338.767905663
 10
987.5563094892
 20
1339.6272138993
 10
987.5671085933
 20
1340.3028051597
  0
LINE
  5
78D
330
1F
100
AcDbEntity
  8
0
  6
Continuous
 62
     7
370
    18
100
AcDbLine
 10
987.5671085933
 20
1340.3028051597
 30
0.0
 11
966.5441675681
 21
1340.3028051597
 31
0.0
  0
LINE
  5
78E
330
1F
100
AcDbEntity
  8
0
  6
Continuous
 62
     7
370
    18
100
AcDbLine
 10
323.2056380779
 20
2081.667905663
 30
0.0
 11
323.2056380779
 21
1356.667905663
 31
0.0
  0
LINE
  5
78F
330
1F
100
AcDbEntity
  8
0
  6
Continuous
 62
     7
370
    18
100
AcDbLine
 10
323.2056380779
 20
1356.667905663
 30
0.0
 11
995.9056380779
 21
1356.667905663
 31
0.0
  0
LINE
  5
790
330
1F
100
AcDbEntity
  8
0
  6
Continuous
 62
     7
370
    18
100
AcDbLine
 10
995.9056380779
 20
2081.667905663
 30
0.0
 11
323.2056380779
 21
2081.667905663
 31
0.0
  0
LINE
  5
791
330
1F
100
AcDbEntity
  8
0
  6
Continuous
 62
     7
370
    18
100
AcDbLine
 10
995.9056380779
 20
1356.667905663
 30
0.0
 11
995.9056380779
 21
2081.667905663
 31
0.0
  0
LINE
  5
792
330
1F
100
AcDbEntity
  8
0
  6
Continuous
 62
     7
370
    18
100
AcDbLine
 10
323.2056380779
 20
2081.967905663
 30
0.0
 11
323.2056380779
 21
2081.667905663
 31
0.0
  0
LINE
  5
793
330
1F
100
AcDbEntity
  8
0
  6
Continuous
 62
     7
370
    18
100
AcDbLine
 10
323.2056380779
 20
1356.667905663
 30
0.0
 11
323.2056380779
 21
1356.367905663
 31
0.0
  0
LINE
  5
794
330
1F
100
AcDbEntity
  8
0
  6
Continuous
 62
     7
370
    18
100
AcDbLine
 10
966.5556380779
 20
1350.267905663
 30
0.0
 11
966.5556380779
 21
1345.267905663
 31
0.0
  0
LINE
  5
795
330
1F
100
AcDbEntity
  8
0
  6
Continuous
 62
     7
370
    18
100
AcDbLine
 10
994.4655737378
 20
1350.267905663
 30
0.0
 11
994.4655737378
 21
1345.267905663
 31
0.0
  0
LINE
  5
796
330
1F
100
AcDbEntity
  8
0
  6
Continuous
 62
     7
370
    18
100
AcDbLine
 10
997.9523684702
 20
1350.267905663
 30
0.0
 11
997.9523684702
 21
1345.267905663
 31
0.0
  0
LINE
  5
797
330
1F
100
AcDbEntity
  8
0
  6
Continuous
 62
     7
370
    18
100
AcDbLine
 10
1017.5424328103
 20
1350.267905663
 30
0.0
 11
1017.5424328103
 21
1345.267905663
 31
0.0
  0
CIRCLE
  5
798
330
1F
100
AcDbEntity
  8
0
  6
Continuous
 62
     7
370
    18
100
AcDbCircle
 10
950.5556380779
 20
584.4679056629
 30
0.0
 40
5.771670190274823
  0
CIRCLE
  5
799
330
1F
100
AcDbEntity
  8
0
  6
Continuous
 62
     7
370
    18
100
AcDbCircle
 10
915.5556380779
 20
572.4679056629
 30
0.0
 40
5.771670190274918
  0
CIRCLE
  5
79A
330
1F
100
AcDbEntity
  8
0
  6
Continuous
 62
     7
370
    18
100
AcDbCircle
 10
985.5556380779
 20
572.4679056629
 30
0.0
 40
5.771670190274859
  0
LINE
  5
79B
330
1F
100
AcDbEntity
  8
0
  6
Continuous
 62
     7
370
    18
100
AcDbLine
 10
409.9178471732
 20
551.5426224966
 30
0.0
 11
408.5556380779
 21
551.5426224966
 31
0.0
  0
LINE
  5
79C
330
1F
100
AcDbEntity
  8
0
  6
Continuous
 62
     7
370
    18
100
AcDbLine
 10
420.5556380779
 20
551.5426224966
 30
0.0
 11
409.9178471732
 21
551.5426224966
 31
0.0
  0
LINE
  5
79D
330
1F
100
AcDbEntity
  8
0
  6
Continuous
 62
     7
370
    18
100
AcDbLine
 10
410.094338159
 20
551.1016443878
 30
0.0
 11
408.7839678876
 21
551.1016443878
 31
0.0
  0
LINE
  5
79E
330
1F
100
AcDbEntity
  8
0
  6
Continuous
 62
     7
370
    18
100
AcDbLine
 10
420.3273082682
 20
551.1016443878
 30
0.0
 11
410.094338159
 21
551.1016443878
 31
0.0
  0
LINE
  5
79F
330
1F
100
AcDbEntity
  8
0
  6
Continuous
 62
     7
370
    18
100
AcDbLine
 10
954.5556380779
 20
551.5426224966
 30
0.0
 11
948.5556380779
 21
551.5426224966
 31
0.0
  0
LINE
  5
7A0
330
1F
100
AcDbEntity
  8
0
  6
Continuous
 62
     7
370
    18
100
AcDbLine
 10
960.5556380779
 20
551.5426224966
 30
0.0
 11
954.5556380779
 21
551.5426224966
 31
0.0
  0
LINE
  5
7A1
330
1F
100
AcDbEntity
  8
0
  6
Continuous
 62
     7
370
    18
100
AcDbLine
 10
954.5556380779
 20
551.1016443878
 30
0.0
 11
948.7839678876
 21
551.1016443878
 31
0.0
  0
LINE
  5
7A2
330
1F
100
AcDbEntity
  8
0
  6
Continuous
 62
     7
370
    18
100
AcDbLine
 10
960.3273082682
 20
551.1016443878
 30
0.0
 11
954.5556380779
 21
551.1016443878
 31
0.0
  0
LINE
  5
7A3
330
1F
100
AcDbEntity
  8
0
  6
Continuous
 62
     7
370
    18
100
AcDbLine
 10
364.5556380779
 20
551.5426224966
 30
0.0
 11
358.5556380779
 21
551.5426224966
 31
0.0
  0
LINE
  5
7A4
330
1F
100
AcDbEntity
  8
0
  6
Continuous
 62
     7
370
    18
100
AcDbLine
 10
370.5556380779
 20
551.5426224966
 30
0.0
 11
364.5556380779
 21
551.5426224966
 31
0.0
  0
LINE
  5
7A5
330
1F
100
AcDbEntity
  8
0
  6
Continuous
 62
     7
370
    18
100
AcDbLine
 10
364.5556380779
 20
551.1016443878
 30
0.0
 11
358.7839678876
 21
551.1016443878
 31
0.0
  0
LINE
  5
7A6
330
1F
100
AcDbEntity
  8
0
  6
Continuous
 62
     7
370
    18
100
AcDbLine
 10
370.3273082682
 20
551.1016443878
 30
0.0
 11
364.5556380779
 21
551.1016443878
 31
0.0
  0
LINE
  5
7A7
330
1F
100
AcDbEntity
  8
0
  6
Continuous
 62
     7
370
    18
100
AcDbLine
 10
904.5556380779
 20
551.1016443878
 30
0.0
 11
898.7839678876
 21
551.1016443878
 31
0.0
  0
LINE
  5
7A8
330
1F
100
AcDbEntity
  8
0
  6
Continuous
 62
     7
370
    18
100
AcDbLine
 10
910.3273082682
 20
551.1016443878
 30
0.0
 11
904.5556380779
 21
551.1016443878
 31
0.0
  0
LINE
  5
7A9
330
1F
100
AcDbEntity
  8
0
  6
Continuous
 62
     7
370
    18
100
AcDbLine
 10
904.5556380779
 20
551.5426224966
 30
0.0
 11
898.5556380779
 21
551.5426224966
 31
0.0
  0
LINE
  5
7AA
330
1F
100
AcDbEntity
  8
0
  6
Continuous
 62
     7
370
    18
100
AcDbLine
 10
910.5556380779
 20
551.5426224966
 30
0.0
 11
904.5556380779
 21
551.5426224966
 31
0.0
  0
LINE
  5
7AB
330
1F
100
AcDbEntity
  8
0
  6
Continuous
 62
     7
370
    18
100
AcDbLine
 10
371.5556380779
 20
436.867905663
 30
0.0
 11
371.5556380779
 21
553.867905663
 31
0.0
  0
LINE
  5
7AC
330
1F
100
AcDbEntity
  8
0
  6
Continuous
 62
     7
370
    18
100
AcDbLine
 10
407.5556380779
 20
436.867905663
 30
0.0
 11
407.5556380779
 21
553.867905663
 31
0.0
  0
LINE
  5
7AD
330
1F
100
AcDbEntity
  8
0
  6
Continuous
 62
     7
370
    18
100
AcDbLine
 10
911.5556380779
 20
436.867905663
 30
0.0
 11
911.5556380779
 21
553.867905663
 31
0.0
  0
LINE
  5
7AE
330
1F
100
AcDbEntity
  8
0
  6
Continuous
 62
     7
370
    18
100
AcDbLine
 10
947.5556380779
 20
436.867905663
 30
0.0
 11
947.5556380779
 21
553.867905663
 31
0.0
  0
LINE
  5
7AF
330
1F
100
AcDbEntity
  8
0
  6
Continuous
 62
     7
370
    18
100
AcDbLine
 10
371.5556380779
 20
428.867905663
 30
0.0
 11
371.5556380779
 21
436.867905663
 31
0.0
  0
LINE
  5
7B0
330
1F
100
AcDbEntity
  8
0
  6
Continuous
 62
     7
370
    18
100
AcDbLine
 10
407.5556380779
 20
428.867905663
 30
0.0
 11
407.5556380779
 21
436.867905663
 31
0.0
  0
LINE
  5
7B1
330
1F
100
AcDbEntity
  8
0
  6
Continuous
 62
     7
370
    18
100
AcDbLine
 10
947.5556380779
 20
428.867905663
 30
0.0
 11
947.5556380779
 21
436.867905663
 31
0.0
  0
LINE
  5
7B2
330
1F
100
AcDbEntity
  8
0
  6
Continuous
 62
     7
370
    18
100
AcDbLine
 10
911.5556380779
 20
428.867905663
 30
0.0
 11
911.5556380779
 21
436.867905663
 31
0.0
  0
LINE
  5
7B3
330
1F
100
AcDbEntity
  8
0
  6
Continuous
 62
     7
370
    18
100
AcDbLine
 10
334.565121234
 20
2082.6654935747
 30
0.0
 11
646.7056380779
 21
2082.6654935747
 31
0.0
  0
LINE
  5
7B4
330
1F
100
AcDbEntity
  8
0
  6
Continuous
 62
     7
370
    18
100
AcDbLine
 10
672.4056380779
 20
2082.6654935747
 30
0.0
 11
917.0556380779
 21
2082.6654935747
 31
0.0
  0
LINE
  5
7B5
330
1F
100
AcDbEntity
  8
0
  6
Continuous
 62
     7
370
    18
100
AcDbLine
 10
931.0109625809
 20
1355.767905663
 30
0.0
 11
931.0109625809
 21
1338.767905663
 31
0.0
  0
LINE
  5
7B6
330
1F
100
AcDbEntity
  8
0
  6
Continuous
 62
     7
370
    18
100
AcDbLine
 10
334.5580501662
 20
1338.767905663
 30
0.0
 11
334.5580501662
 21
1355.767905663
 31
0.0
  0
LINE
  5
7B7
330
1F
100
AcDbEntity
  8
0
  6
Continuous
 62
     7
370
    18
100
AcDbLine
 10
334.5580501662
 20
2082.567905663
 30
0.0
 11
334.5580501662
 21
2082.6584225069
 31
0.0
  0
LINE
  5
7B8
330
1F
100
AcDbEntity
  8
0
  6
Continuous
 62
     7
370
    18
100
AcDbLine
 10
388.1003135749
 20
1338.767905663
 30
0.0
 11
388.1003135749
 21
1355.767905663
 31
0.0
  0
LINE
  5
7B9
330
1F
100
AcDbEntity
  8
0
  6
Continuous
 62
     7
370
    18
100
AcDbLine
 10
1019.1556380779
 20
2117.867905663
 30
0.0
 11
1019.1556380779
 21
557.067905663
 31
0.0
  0
LINE
  5
7BA
330
1F
100
AcDbEntity
  8
0
  6
Continuous
 62
     7
370
    18
100
AcDbLine
 10
299.9556380779
 20
557.067905663
 30
0.0
 11
299.9556380779
 21
2117.867905663
 31
0.0
  0
LINE
  5
7BB
330
1F
100
AcDbEntity
  8
0
  6
Continuous
 62
     7
370
    18
100
AcDbLine
 10
343.2556380779
 20
603.517905663
 30
0.0
 11
343.0556380779
 21
603.517905663
 31
0.0
  0
LINE
  5
7BC
330
1F
100
AcDbEntity
  8
0
  6
Continuous
 62
     7
370
    18
100
AcDbLine
 10
976.0556380779
 20
560.017905663
 30
0.0
 11
975.8556380779
 21
560.017905663
 31
0.0
  0
LINE
  5
7BD
330
1F
100
AcDbEntity
  8
0
  6
Continuous
 62
     7
370
    18
100
AcDbLine
 10
343.2556380779
 20
560.017905663
 30
0.0
 11
343.0556380779
 21
560.017905663
 31
0.0
  0
LINE
  5
7BE
330
1F
100
AcDbEntity
  8
0
  6
Continuous
 62
     7
370
    18
100
AcDbLine
 10
975.8556380779
 20
557.067905663
 30
0.0
 11
343.2556380779
 21
557.067905663
 31
0.0
  0
POINT
  5
7BF
330
1F
100
AcDbEntity
  8
RAHMEN
 62
     7
370
    18
100
AcDbPoint
 10
980.0556380779
 20
2205.867905663
 30
0.0
  0
INSERT
  5
7C8
330
1F
100
AcDbEntity
  8
RAHMEN
 62
     7
100
AcDbBlockReference
  2
SW_NOTE_0
 10
1107.1382636656
 20
2293.7304823812
 30
0.0
  0
LEADER
  5
7CA
330
1F
100
AcDbEntity
  8
RAHMEN
 62
     7
100
AcDbLeader
  3
SLDDIMSTYLE0
 76
     2
 10
980.0556380779
 20
2205.867905663
 30
0.0
 10
1107.1382636656
 20
2293.7304823812
 30
0.0
  0
INSERT
  5
7D0
330
1F
100
AcDbEntity
  8
RAHMEN
 62
     7
100
AcDbBlockReference
  2
SW_NOTE_1
 10
497.1802415876
 20
2646.0140641864
 30
0.0
  0
ENDSEC
  0
SECTION
  2
OBJECTS
  0
DICTIONARY
  5
C
330
0
100
AcDbDictionary
281
     1
  3
ACAD_GROUP
350
D
  3
ACAD_LAYOUT
350
1A
  3
ACAD_MLINESTYLE
350
17
  3
ACAD_PLOTSETTINGS
350
19
  3
ACAD_PLOTSTYLENAME
350
E
  3
ACAD_SCALELIST
350
47
  0
DICTIONARY
  5
D
102
{ACAD_REACTORS
330
C
102
}
330
C
100
AcDbDictionary
281
     1
  0
DICTIONARY
  5
1A
102
{ACAD_REACTORS
330
C
102
}
330
C
100
AcDbDictionary
281
     1
  3
Layout1
350
1E
  3
Layout2
350
26
  3
Model
350
22
  0
DICTIONARY
  5
17
102
{ACAD_REACTORS
330
C
102
}
330
C
100
AcDbDictionary
281
     1
  3
Standard
350
18
  0
DICTIONARY
  5
19
102
{ACAD_REACTORS
330
C
102
}
330
C
100
AcDbDictionary
281
     1
  0
ACDBDICTIONARYWDFLT
  5
E
102
{ACAD_REACTORS
330
C
102
}
330
C
100
AcDbDictionary
281
     1
  3
Normal
350
F
100
AcDbDictionaryWithDefault
340
F
  0
DICTIONARY
  5
47
102
{ACAD_REACTORS
330
C
102
}
330
C
100
AcDbDictionary
281
     1
  3
A0
350
48
  3
A1
350
49
  3
A2
350
4A
  3
A3
350
4B
  3
A4
350
4C
  3
A5
350
4D
  3
A6
350
4E
  3
A7
350
4F
  3
A8
350
50
  3
A9
350
51
  3
B0
350
52
  3
B1
350
53
  3
B2
350
54
  3
B3
350
55
  3
B4
350
56
  3
B5
350
57
  3
B6
350
58
  3
B7
350
59
  3
B8
350
5A
  3
B9
350
5B
  3
C0
350
5C
  3
C1
350
5D
  3
C2
350
5E
  3
C3
350
5F
  3
C4
350
60
  3
C5
350
61
  3
C6
350
62
  3
C7
350
63
  3
C8
350
64
  3
C9
350
65
  3
D0
350
66
  3
D1
350
67
  3
D2
350
68
  0
LAYOUT
  5
1E
102
{ACAD_REACTORS
330
1A
102
}
330
1A
100
AcDbPlotSettings
  1

  2
none_device
  4

  6

 40
0.0
 41
0.0
 42
0.0
 43
0.0
 44
0.0
 45
0.0
 46
0.0
 47
0.0
 48
0.0
 49
0.0
140
0.0
141
0.0
142
1.0
143
1.0
 70
   688
 72
     1
 73
     0
 74
     5
  7

 75
    16
147
1.0
148
0.0
149
0.0
100
AcDbLayout
  1
Layout1
 70
     1
 71
     1
 10
0.0
 20
0.0
 11
420.0
 21
297.0
 12
0.0
 22
0.0
 32
0.0
 14
1.0000000000E+20
 24
1.0000000000E+20
 34
1.0000000000E+20
 15
-1.0000000000E+20
 25
-1.0000000000E+20
 35
-1.0000000000E+20
146
0.0
 13
0.0
 23
0.0
 33
0.0
 16
1.0
 26
0.0
 36
0.0
 17
0.0
 27
1.0
 37
0.0
 76
     0
330
1B
  0
LAYOUT
  5
26
102
{ACAD_REACTORS
330
1A
102
}
330
1A
100
AcDbPlotSettings
  1

  2
none_device
  4

  6

 40
0.0
 41
0.0
 42
0.0
 43
0.0
 44
0.0
 45
0.0
 46
0.0
 47
0.0
 48
0.0
 49
0.0
140
0.0
141
0.0
142
1.0
143
1.0
 70
   688
 72
     1
 73
     0
 74
     5
  7

 75
    16
147
1.0
148
0.0
149
0.0
100
AcDbLayout
  1
Layout2
 70
     1
 71
     2
 10
0.0
 20
0.0
 11
0.0
 21
0.0
 12
0.0
 22
0.0
 32
0.0
 14
0.0
 24
0.0
 34
0.0
 15
0.0
 25
0.0
 35
0.0
146
0.0
 13
0.0
 23
0.0
 33
0.0
 16
1.0
 26
0.0
 36
0.0
 17
0.0
 27
1.0
 37
0.0
 76
     0
330
23
  0
LAYOUT
  5
22
102
{ACAD_REACTORS
330
1A
102
}
330
1A
100
AcDbPlotSettings
  1

  2
none_device
  4
Letter_(8.50_x_11.00_Inches)
  6

 40
6.35
 41
6.35
 42
6.35000508
 43
6.35000508
 44
215.9
 45
279.4
 46
0.0
 47
0.0
 48
0.0
 49
0.0
140
0.0
141
0.0
142
1.0
143
1.0
 70
  1712
 72
     1
 73
     0
 74
     0
  7

 75
     0
147
1.0
148
0.0
149
0.0
100
AcDbLayout
  1
Model
 70
     1
 71
     0
 10
0.0
 20
0.0
 11
2100.0
 21
2970.0
 12
0.0
 22
0.0
 32
0.0
 14
0.0
 24
0.0
 34
0.0
 15
2100.0
 25
2970.0
 35
0.0
146
0.0
 13
0.0
 23
0.0
 33
0.0
 16
1.0
 26
0.0
 36
0.0
 17
0.0
 27
1.0
 37
0.0
 76
     0
330
1F
331
29
  0
MLINESTYLE
  5
18
102
{ACAD_REACTORS
330
17
102
}
330
17
100
AcDbMlineStyle
  2
Standard
 70
     0
  3

 62
   256
 51
90.0
 52
90.0
 71
     2
 49
0.5
 62
   256
  6
BYLAYER
 49
-0.5
 62
   256
  6
BYLAYER
  0
ACDBPLACEHOLDER
  5
F
102
{ACAD_REACTORS
330
E
102
}
330
E
  0
SCALE
  5
48
102
{ACAD_REACTORS
330
47
102
}
330
47
100
AcDbScale
 70
     0
300
1:1
140
1.0
141
1.0
290
     1
  0
SCALE
  5
49
102
{ACAD_REACTORS
330
47
102
}
330
47
100
AcDbScale
 70
     0
300
1:2
140
1.0
141
2.0
290
     0
  0
SCALE
  5
4A
102
{ACAD_REACTORS
330
47
102
}
330
47
100
AcDbScale
 70
     0
300
1:4
140
1.0
141
4.0
290
     0
  0
SCALE
  5
4B
102
{ACAD_REACTORS
330
47
102
}
330
47
100
AcDbScale
 70
     0
300
1:5
140
1.0
141
5.0
290
     0
  0
SCALE
  5
4C
102
{ACAD_REACTORS
330
47
102
}
330
47
100
AcDbScale
 70
     0
300
1:8
140
1.0
141
8.0
290
     0
  0
SCALE
  5
4D
102
{ACAD_REACTORS
330
47
102
}
330
47
100
AcDbScale
 70
     0
300
1:10
140
1.0
141
10.0
290
     0
  0
SCALE
  5
4E
102
{ACAD_REACTORS
330
47
102
}
330
47
100
AcDbScale
 70
     0
300
1:16
140
1.0
141
16.0
290
     0
  0
SCALE
  5
4F
102
{ACAD_REACTORS
330
47
102
}
330
47
100
AcDbScale
 70
     0
300
1:20
140
1.0
141
20.0
290
     0
  0
SCALE
  5
50
102
{ACAD_REACTORS
330
47
102
}
330
47
100
AcDbScale
 70
     0
300
1:30
140
1.0
141
30.0
290
     0
  0
SCALE
  5
51
102
{ACAD_REACTORS
330
47
102
}
330
47
100
AcDbScale
 70
     0
300
1:40
140
1.0
141
40.0
290
     0
  0
SCALE
  5
52
102
{ACAD_REACTORS
330
47
102
}
330
47
100
AcDbScale
 70
     0
300
1:50
140
1.0
141
50.0
290
     0
  0
SCALE
  5
53
102
{ACAD_REACTORS
330
47
102
}
330
47
100
AcDbScale
 70
     0
300
1:100
140
1.0
141
100.0
290
     0
  0
SCALE
  5
54
102
{ACAD_REACTORS
330
47
102
}
330
47
100
AcDbScale
 70
     0
300
2:1
140
2.0
141
1.0
290
     0
  0
SCALE
  5
55
102
{ACAD_REACTORS
330
47
102
}
330
47
100
AcDbScale
 70
     0
300
4:1
140
4.0
141
1.0
290
     0
  0
SCALE
  5
56
102
{ACAD_REACTORS
330
47
102
}
330
47
100
AcDbScale
 70
     0
300
8:1
140
8.0
141
1.0
290
     0
  0
SCALE
  5
57
102
{ACAD_REACTORS
330
47
102
}
330
47
100
AcDbScale
 70
     0
300
10:1
140
10.0
141
1.0
290
     0
  0
SCALE
  5
58
102
{ACAD_REACTORS
330
47
102
}
330
47
100
AcDbScale
 70
     0
300
100:1
140
100.0
141
1.0
290
     0
  0
SCALE
  5
59
102
{ACAD_REACTORS
330
47
102
}
330
47
100
AcDbScale
 70
     0
300
1/128" = 1'-0"
140
0.0078125
141
12.0
290
     0
  0
SCALE
  5
5A
102
{ACAD_REACTORS
330
47
102
}
330
47
100
AcDbScale
 70
     0
300
1/64" = 1'-0"
140
0.015625
141
12.0
290
     0
  0
SCALE
  5
5B
102
{ACAD_REACTORS
330
47
102
}
330
47
100
AcDbScale
 70
     0
300
1/32" = 1'-0"
140
0.03125
141
12.0
290
     0
  0
SCALE
  5
5C
102
{ACAD_REACTORS
330
47
102
}
330
47
100
AcDbScale
 70
     0
300
1/16" = 1'-0"
140
0.0625
141
12.0
290
     0
  0
SCALE
  5
5D
102
{ACAD_REACTORS
330
47
102
}
330
47
100
AcDbScale
 70
     0
300
3/32" = 1'-0"
140
0.09375
141
12.0
290
     0
  0
SCALE
  5
5E
102
{ACAD_REACTORS
330
47
102
}
330
47
100
AcDbScale
 70
     0
300
1/8" = 1'-0"
140
0.125
141
12.0
290
     0
  0
SCALE
  5
5F
102
{ACAD_REACTORS
330
47
102
}
330
47
100
AcDbScale
 70
     0
300
3/16" = 1'-0"
140
0.1875
141
12.0
290
     0
  0
SCALE
  5
60
102
{ACAD_REACTORS
330
47
102
}
330
47
100
AcDbScale
 70
     0
300
1/4" = 1'-0"
140
0.25
141
12.0
290
     0
  0
SCALE
  5
61
102
{ACAD_REACTORS
330
47
102
}
330
47
100
AcDbScale
 70
     0
300
3/8" = 1'-0"
140
0.375
141
12.0
290
     0
  0
SCALE
  5
62
102
{ACAD_REACTORS
330
47
102
}
330
47
100
AcDbScale
 70
     0
300
1/2" = 1'-0"
140
0.5
141
12.0
290
     0
  0
SCALE
  5
63
102
{ACAD_REACTORS
330
47
102
}
330
47
100
AcDbScale
 70
     0
300
3/4" = 1'-0"
140
0.75
141
12.0
290
     0
  0
SCALE
  5
64
102
{ACAD_REACTORS
330
47
102
}
330
47
100
AcDbScale
 70
     0
300
1" = 1'-0"
140
1.0
141
12.0
290
     0
  0
SCALE
  5
65
102
{ACAD_REACTORS
330
47
102
}
330
47
100
AcDbScale
 70
     0
300
1-1/2" = 1'-0"
140
1.5
141
12.0
290
     0
  0
SCALE
  5
66
102
{ACAD_REACTORS
330
47
102
}
330
47
100
AcDbScale
 70
     0
300
3" = 1'-0"
140
3.0
141
12.0
290
     0
  0
SCALE
  5
67
102
{ACAD_REACTORS
330
47
102
}
330
47
100
AcDbScale
 70
     0
300
6" = 1'-0"
140
6.0
141
12.0
290
     0
  0
SCALE
  5
68
102
{ACAD_REACTORS
330
47
102
}
330
47
100
AcDbScale
 70
     0
300
1'-0" = 1'-0"
140
12.0
141
12.0
290
     0
  0
ENDSEC
  0
EOF
