  0
SECTION
  2
HEADER
  9
$ACADVER
  1
AC1009
  9
$INSBASE
 10
   0.0000
 20
   0.0000
 30
    0.0
  9
$EXTMIN
 10
-115.0000
 20
-134.5000
 30
   0.0000
  9
$EXTMAX
 10
3218.6710
 20
 850.0000
 30
   0.0000
  9
$LTSCALE
 40
1.00
  9
$PSLTSCALE
 70
1
  0
ENDSEC
  0
SECTION
  2
TABLES
  0
TABLE
  2
LTYPE
 70
  5
  0
LTYPE
  2
AUSGEZOGEN
 70
 64
  3
AUSGEZOGEN
 72
 65
 73
  0
 40
0.0
  0
LTYPE
  2
PUNKTIERT
 70
 64
  3
Gepunktet
 72
 65
 73
  2
 40
30.0000
 49
0.0
 49
-30.0000
  0
LTYPE
  2
STRICHLIERT
 70
 64
  3
Strichliert
 72
 65
 73
  2
 40
80.0000
 49
50.0000
 49
-30.0000
  0
LTYPE
  2
STRICHPUNKT
 70
 64
  3
Strichpunktet
 72
 65
 73
  4
 40
160.0000
 49
100.0000
 49
-30.0000
 49
0.0
 49
-30.0000
  0
LTYPE
  2
STRICHPUNKTPUNKT
 70
 64
  3
Strichpunktpunktet
 72
 65
 73
  6
 40
190.0000
 49
100.0000
 49
-30.0000
 49
0.0
 49
-30.0000
 49
0.0
 49
-30.0000
  0
ENDTAB
  0
TABLE
  2
LAYER
 70
7
  0
LAYER
  2
550
 70
  0
 62
  2
  6
AUSGEZOGEN
  0
LAYER
  2
510
 70
  0
 62
  2
  6
AUSGEZOGEN
  0
LAYER
  2
0
 70
  0
 62
  1
  6
AUSGEZOGEN
  0
LAYER
  2
200
 70
  0
 62
  7
  6
AUSGEZOGEN
999
SWS-Layer-Line-Width
999
0.20
  0
LAYER
  2
400
 70
  0
 62
  4
  6
AUSGEZOGEN
999
SWS-Layer-Line-Width
999
0.30
  0
LAYER
  2
440
 70
  0
 62
  4
  6
AUSGEZOGEN
  0
LAYER
  2
420
 70
  0
 62
  2
  6
AUSGEZOGEN
  0
ENDTAB
  0
TABLE
  2
STYLE
 70
  1
  0
STYLE
  2
STANDARD
 70
 64
 40
0.0
 41
1.0
 50
0.0
 71
  0
 42
30.0
  3
TXT.SHX
  4

  0
ENDTAB
  0
ENDSEC
  0
SECTION
  2
ENTITIES
  0
LINE
  8
400
  6
AUSGEZOGEN
 10
1040.0000
 20
 150.0000
 11
1424.0000
 21
 716.5000
  0
LINE
  8
400
  6
AUSGEZOGEN
 10
2666.7400
 20
 716.5000
 11
1424.0000
 21
 716.5000
  0
LINE
  8
400
  6
AUSGEZOGEN
 10
1040.0000
 20
 150.0000
 11
1040.0000
 21
 225.0000
  0
LINE
  8
400
  6
AUSGEZOGEN
 10
1040.0000
 20
  75.0000
 11
1040.0000
 21
 150.0000
  0
LINE
  8
400
  6
AUSGEZOGEN
 10
1115.0000
 20
 150.0000
 11
1040.0000
 21
 150.0000
  0
LINE
  8
400
  6
AUSGEZOGEN
 10
 965.0000
 20
 150.0000
 11
1040.0000
 21
 150.0000
  0
CIRCLE
  8
400
  6
AUSGEZOGEN
 10
1040.0000
 20
 150.0000
 40
  50.0000
  0
LINE
  8
420
  6
AUSGEZOGEN
 10
1040.0000
 20
  50.0000
 11
1424.0000
 21
 356.5000
  0
LINE
  8
420
  6
AUSGEZOGEN
 10
3030.6100
 20
 356.5000
 11
1424.0000
 21
 356.5000
  0
LINE
  8
420
  6
AUSGEZOGEN
 10
1040.0000
 20
  50.0000
 11
1040.0000
 21
 125.0000
  0
LINE
  8
420
  6
AUSGEZOGEN
 10
1040.0000
 20
 -25.0000
 11
1040.0000
 21
  50.0000
  0
LINE
  8
420
  6
AUSGEZOGEN
 10
1115.0000
 20
  50.0000
 11
1040.0000
 21
  50.0000
  0
LINE
  8
420
  6
AUSGEZOGEN
 10
 965.0000
 20
  50.0000
 11
1040.0000
 21
  50.0000
  0
CIRCLE
  8
420
  6
AUSGEZOGEN
 10
1040.0000
 20
  50.0000
 40
  50.0000
  0
LINE
  8
440
  6
AUSGEZOGEN
 10
1040.0000
 20
 500.0000
 11
1424.0000
 21
 596.5000
  0
LINE
  8
440
  6
AUSGEZOGEN
 10
2225.1500
 20
 596.5000
 11
1424.0000
 21
 596.5000
  0
LINE
  8
440
  6
AUSGEZOGEN
 10
1040.0000
 20
 500.0000
 11
1040.0000
 21
 575.0000
  0
LINE
  8
440
  6
AUSGEZOGEN
 10
1040.0000
 20
 425.0000
 11
1040.0000
 21
 500.0000
  0
LINE
  8
440
  6
AUSGEZOGEN
 10
1115.0000
 20
 500.0000
 11
1040.0000
 21
 500.0000
  0
LINE
  8
440
  6
AUSGEZOGEN
 10
 965.0000
 20
 500.0000
 11
1040.0000
 21
 500.0000
  0
CIRCLE
  8
440
  6
AUSGEZOGEN
 10
1040.0000
 20
 500.0000
 40
  50.0000
  0
LINE
  8
440
  6
AUSGEZOGEN
 10
1040.0000
 20
 500.0000
 11
1424.0000
 21
 476.5000
  0
LINE
  8
440
  6
AUSGEZOGEN
 10
2391.7300
 20
 476.5000
 11
1424.0000
 21
 476.5000
  0
LINE
  8
440
  6
AUSGEZOGEN
 10
1040.0000
 20
 575.0000
 11
1040.0000
 21
 500.0000
  0
LINE
  8
440
  6
AUSGEZOGEN
 10
1040.0000
 20
 425.0000
 11
1040.0000
 21
 500.0000
  0
LINE
  8
440
  6
AUSGEZOGEN
 10
1115.0000
 20
 500.0000
 11
1040.0000
 21
 500.0000
  0
LINE
  8
440
  6
AUSGEZOGEN
 10
 965.0000
 20
 500.0000
 11
1040.0000
 21
 500.0000
  0
CIRCLE
  8
440
  6
AUSGEZOGEN
 10
1040.0000
 20
 500.0000
 40
  50.0000
  0
LINE
  8
200
  6
AUSGEZOGEN
 10
  15.0000
 20
 705.0000
 11
 445.0000
 21
 705.0000
  0
LINE
  8
200
  6
AUSGEZOGEN
 10
 445.0000
 20
 675.0000
 11
  15.0000
 21
 675.0000
  0
LINE
  8
200
  6
AUSGEZOGEN
 10
  15.0000
 20
 740.0000
 11
 445.0000
 21
 740.0000
  0
LINE
  8
200
  6
AUSGEZOGEN
 10
 445.0000
 20
 719.0000
 11
  15.0000
 21
 719.0000
  0
LINE
  8
200
  6
AUSGEZOGEN
 10
 445.0000
 20
  10.0000
 11
 445.0000
 21
 740.0000
  0
LINE
  8
200
  6
AUSGEZOGEN
 10
  15.0000
 20
  10.0000
 11
 445.0000
 21
  10.0000
  0
LINE
  8
200
  6
AUSGEZOGEN
 10
  15.0000
 20
 740.0000
 11
  15.0000
 21
  10.0000
  0
LINE
  8
200
  6
AUSGEZOGEN
 10
 896.0000
 20
 705.0000
 11
 466.0000
 21
 705.0000
  0
LINE
  8
200
  6
AUSGEZOGEN
 10
 466.0000
 20
 675.0000
 11
 896.0000
 21
 675.0000
  0
LINE
  8
200
  6
AUSGEZOGEN
 10
 896.0000
 20
 740.0000
 11
 466.0000
 21
 740.0000
  0
LINE
  8
200
  6
AUSGEZOGEN
 10
 466.0000
 20
 719.0000
 11
 896.0000
 21
 719.0000
  0
LINE
  8
200
  6
AUSGEZOGEN
 10
 896.0000
 20
  10.0000
 11
 896.0000
 21
 740.0000
  0
LINE
  8
200
  6
AUSGEZOGEN
 10
 466.0000
 20
  10.0000
 11
 896.0000
 21
  10.0000
  0
LINE
  8
200
  6
AUSGEZOGEN
 10
 466.0000
 20
 740.0000
 11
 466.0000
 21
  10.0000
  0
LINE
  8
200
  6
AUSGEZOGEN
 10
1150.0000
 20
 750.0000
 11
   0.0000
 21
 750.0000
  0
LINE
  8
200
  6
AUSGEZOGEN
 10
   0.0000
 20
 800.0000
 11
1150.0000
 21
 800.0000
  0
LINE
  8
200
  6
AUSGEZOGEN
 10
   0.0000
 20
   0.0000
 11
   0.0000
 21
 850.0000
  0
LINE
  8
200
  6
AUSGEZOGEN
 10
1150.0000
 20
   0.0000
 11
   0.0000
 21
   0.0000
  0
LINE
  8
200
  6
AUSGEZOGEN
 10
1150.0000
 20
 850.0000
 11
1150.0000
 21
   0.0000
  0
LINE
  8
200
  6
AUSGEZOGEN
 10
   0.0000
 20
 850.0000
 11
1150.0000
 21
 850.0000
  0
LINE
  8
200
  6
AUSGEZOGEN
 10
1135.0000
 20
 335.0000
 11
 917.0000
 21
 335.0000
  0
LINE
  8
200
  6
AUSGEZOGEN
 10
 917.0000
 20
 295.0000
 11
1135.0000
 21
 295.0000
  0
LINE
  8
200
  6
AUSGEZOGEN
 10
1135.0000
 20
 285.0000
 11
 917.0000
 21
 285.0000
  0
LINE
  8
200
  6
AUSGEZOGEN
 10
 917.0000
 20
 345.0000
 11
1135.0000
 21
 345.0000
  0
LINE
  8
200
  6
AUSGEZOGEN
 10
1135.0000
 20
 620.0000
 11
 917.0000
 21
 620.0000
  0
LINE
  8
200
  6
AUSGEZOGEN
 10
 979.0000
 20
 698.0000
 11
 985.0000
 21
 698.0000
  0
LINE
  8
200
  6
AUSGEZOGEN
 10
 979.0000
 20
 692.0000
 11
 979.0000
 21
 698.0000
  0
LINE
  8
200
  6
AUSGEZOGEN
 10
 985.0000
 20
 692.0000
 11
 979.0000
 21
 692.0000
  0
LINE
  8
200
  6
AUSGEZOGEN
 10
 985.0000
 20
 698.0000
 11
 985.0000
 21
 692.0000
  0
LINE
  8
200
  6
AUSGEZOGEN
 10
 974.0000
 20
 683.0000
 11
 989.0000
 21
 683.0000
  0
LINE
  8
200
  6
AUSGEZOGEN
 10
 974.0000
 20
 707.0000
 11
 974.0000
 21
 683.0000
  0
LINE
  8
200
  6
AUSGEZOGEN
 10
 989.0000
 20
 707.0000
 11
 974.0000
 21
 707.0000
  0
LINE
  8
200
  6
AUSGEZOGEN
 10
 989.0000
 20
 683.0000
 11
 989.0000
 21
 707.0000
  0
LINE
  8
200
  6
AUSGEZOGEN
 10
1003.0000
 20
 693.0000
 11
1003.0000
 21
 683.0000
  0
LINE
  8
200
  6
AUSGEZOGEN
 10
 993.0000
 20
 683.0000
 11
1003.0000
 21
 683.0000
  0
LINE
  8
200
  6
AUSGEZOGEN
 10
 993.0000
 20
 693.0000
 11
 993.0000
 21
 683.0000
  0
LINE
  8
200
  6
AUSGEZOGEN
 10
1003.0000
 20
 693.0000
 11
 993.0000
 21
 693.0000
  0
LINE
  8
200
  6
AUSGEZOGEN
 10
 993.0000
 20
 697.0000
 11
1003.0000
 21
 697.0000
  0
LINE
  8
200
  6
AUSGEZOGEN
 10
 993.0000
 20
 707.0000
 11
 993.0000
 21
 697.0000
  0
LINE
  8
200
  6
AUSGEZOGEN
 10
1003.0000
 20
 707.0000
 11
 993.0000
 21
 707.0000
  0
LINE
  8
200
  6
AUSGEZOGEN
 10
1003.0000
 20
 697.0000
 11
1003.0000
 21
 707.0000
  0
LINE
  8
200
  6
AUSGEZOGEN
 10
1017.0000
 20
 683.0000
 11
1017.0000
 21
 693.0000
  0
LINE
  8
200
  6
AUSGEZOGEN
 10
1007.0000
 20
 693.0000
 11
1017.0000
 21
 693.0000
  0
LINE
  8
200
  6
AUSGEZOGEN
 10
1007.0000
 20
 683.0000
 11
1007.0000
 21
 693.0000
  0
LINE
  8
200
  6
AUSGEZOGEN
 10
1017.0000
 20
 683.0000
 11
1007.0000
 21
 683.0000
  0
LINE
  8
200
  6
AUSGEZOGEN
 10
1017.0000
 20
 707.0000
 11
1017.0000
 21
 697.0000
  0
LINE
  8
200
  6
AUSGEZOGEN
 10
1007.0000
 20
 697.0000
 11
1017.0000
 21
 697.0000
  0
LINE
  8
200
  6
AUSGEZOGEN
 10
1007.0000
 20
 707.0000
 11
1007.0000
 21
 697.0000
  0
LINE
  8
200
  6
AUSGEZOGEN
 10
1017.0000
 20
 707.0000
 11
1007.0000
 21
 707.0000
  0
LINE
  8
200
  6
AUSGEZOGEN
 10
 965.0000
 20
 710.0000
 11
1025.0000
 21
 710.0000
  0
LINE
  8
200
  6
AUSGEZOGEN
 10
 965.0000
 20
 680.0000
 11
 965.0000
 21
 710.0000
  0
LINE
  8
200
  6
AUSGEZOGEN
 10
1025.0000
 20
 680.0000
 11
 965.0000
 21
 680.0000
  0
LINE
  8
200
  6
AUSGEZOGEN
 10
1025.0000
 20
 710.0000
 11
1025.0000
 21
 680.0000
  0
LINE
  8
200
  6
AUSGEZOGEN
 10
 955.0000
 20
 675.0000
 11
 955.0000
 21
 715.0000
  0
LINE
  8
200
  6
AUSGEZOGEN
 10
1035.0000
 20
 715.0000
 11
 955.0000
 21
 715.0000
  0
LINE
  8
200
  6
AUSGEZOGEN
 10
1035.0000
 20
 675.0000
 11
1035.0000
 21
 715.0000
  0
LINE
  8
200
  6
AUSGEZOGEN
 10
 955.0000
 20
 675.0000
 11
1035.0000
 21
 675.0000
  0
LINE
  8
200
  6
AUSGEZOGEN
 10
1115.0000
 20
 695.0000
 11
1075.0000
 21
 695.0000
  0
LINE
  8
200
  6
AUSGEZOGEN
 10
1075.0000
 20
 675.0000
 11
1075.0000
 21
 715.0000
  0
LINE
  8
200
  6
AUSGEZOGEN
 10
1115.0000
 20
 715.0000
 11
1075.0000
 21
 715.0000
  0
LINE
  8
200
  6
AUSGEZOGEN
 10
1115.0000
 20
 675.0000
 11
1115.0000
 21
 715.0000
  0
LINE
  8
200
  6
AUSGEZOGEN
 10
1075.0000
 20
 675.0000
 11
1115.0000
 21
 675.0000
  0
LINE
  8
200
  6
AUSGEZOGEN
 10
 917.0000
 20
  10.0000
 11
1135.0000
 21
  10.0000
  0
LINE
  8
200
  6
AUSGEZOGEN
 10
 917.0000
 20
 740.0000
 11
 917.0000
 21
  10.0000
  0
LINE
  8
200
  6
AUSGEZOGEN
 10
1135.0000
 20
 740.0000
 11
 917.0000
 21
 740.0000
  0
LINE
  8
200
  6
AUSGEZOGEN
 10
1135.0000
 20
  10.0000
 11
1135.0000
 21
 740.0000
  0
LINE
  8
200
  6
AUSGEZOGEN
 10
 917.0000
 20
 650.0000
 11
1135.0000
 21
 650.0000
  0
TEXT
  8
400
 10
1437.5000
 20
 730.0000
 40
  45.0000
  1
EZ: 230V 50Hz, Kabellänge 2,5m 0,21kW (OKFF 150mm)
 50
   0.0000
 41
   0.6000
  7
STANDARD
  0
TEXT
  8
420
 10
1437.5000
 20
 370.0000
 40
  45.0000
  1
A: DN50 Trichterablauf, unter Boden baus. syphoniert (OKFF 50mm)
 50
   0.0000
 41
   0.6000
  7
STANDARD
  0
TEXT
  8
440
 10
1437.5000
 20
 610.0000
 40
  45.0000
  1
KL: DN8 Saugleitung (OKFF 500mm)
 50
   0.0000
 41
   0.6000
  7
STANDARD
  0
TEXT
  8
440
 10
1437.5000
 20
 490.0000
 40
  45.0000
  1
KL: DN6 Flüssigkeitsleitung (OKFF 500mm)
 50
   0.0000
 41
   0.6000
  7
STANDARD
  0
ATTDEF
  8
550
 10
10.0
 20
100.0
 30
0.0
 40
30
  1
CCO-TKO721171
  2
CCO-TKO721171V
  3
HKI-Nummer
 70
1
  0
TEXT
  8
510
 10
10.0
 20
-45.0
 30
0.0
 40
30
  1
CCO-TKO721171
 50
0.0
 41
1.0
  7
STANDARD
  0
ENDSEC
  0
EOF
