  0
SECTION
  2
HEADER
  9
$ACADVER
  1
AC1009
  9
$INSBASE
 10
   0.0000
 20
   0.0000
 30
    0.0
  9
$EXTMIN
 10
-245.0000
 20
-142.5000
 30
   0.0000
  9
$EXTMAX
 10
4544.3230
 20
 963.0000
 30
   0.0000
  9
$LTSCALE
 40
1.00
  9
$PSLTSCALE
 70
1
  0
ENDSEC
  0
SECTION
  2
TABLES
  0
TABLE
  2
LTYPE
 70
  5
  0
LTYPE
  2
AUSGEZOGEN
 70
 64
  3
AUSGEZOGEN
 72
 65
 73
  0
 40
0.0
  0
LTYPE
  2
PUNKTIERT
 70
 64
  3
Gepunktet
 72
 65
 73
  2
 40
30.0000
 49
0.0
 49
-30.0000
  0
LTYPE
  2
STRICHLIERT
 70
 64
  3
Strichliert
 72
 65
 73
  2
 40
80.0000
 49
50.0000
 49
-30.0000
  0
LTYPE
  2
STRICHPUNKT
 70
 64
  3
Strichpunktet
 72
 65
 73
  4
 40
160.0000
 49
100.0000
 49
-30.0000
 49
0.0
 49
-30.0000
  0
LTYPE
  2
STRICHPUNKTPUNKT
 70
 64
  3
Strichpunktpunktet
 72
 65
 73
  6
 40
190.0000
 49
100.0000
 49
-30.0000
 49
0.0
 49
-30.0000
 49
0.0
 49
-30.0000
  0
ENDTAB
  0
TABLE
  2
LAYER
 70
8
  0
LAYER
  2
550
 70
  0
 62
  2
  6
AUSGEZOGEN
  0
LAYER
  2
510
 70
  0
 62
  2
  6
AUSGEZOGEN
  0
LAYER
  2
0
 70
  0
 62
  1
  6
AUSGEZOGEN
  0
LAYER
  2
200
 70
  0
 62
  7
  6
AUSGEZOGEN
999
SWS-Layer-Line-Width
999
0.20
  0
LAYER
  2
400
 70
  0
 62
  4
  6
AUSGEZOGEN
999
SWS-Layer-Line-Width
999
0.30
  0
LAYER
  2
410
 70
  0
 62
  6
  6
AUSGEZOGEN
  0
LAYER
  2
440
 70
  0
 62
  4
  6
AUSGEZOGEN
  0
LAYER
  2
420
 70
  0
 62
  2
  6
AUSGEZOGEN
  0
ENDTAB
  0
TABLE
  2
STYLE
 70
  1
  0
STYLE
  2
STANDARD
 70
 64
 40
0.0
 41
1.0
 50
0.0
 71
  0
 42
30.0
  3
TXT.SHX
  4

  0
ENDTAB
  0
ENDSEC
  0
SECTION
  2
ENTITIES
  0
LINE
  8
400
  6
AUSGEZOGEN
 10
 600.0000
 20
   0.0000
 11
3049.0000
 21
 796.5000
  0
LINE
  8
400
  6
AUSGEZOGEN
 10
3976.2600
 20
 796.5000
 11
3049.0000
 21
 796.5000
  0
LINE
  8
400
  6
AUSGEZOGEN
 10
 600.0000
 20
   0.0000
 11
 600.0000
 21
  75.0000
  0
LINE
  8
400
  6
AUSGEZOGEN
 10
 600.0000
 20
 -75.0000
 11
 600.0000
 21
   0.0000
  0
LINE
  8
400
  6
AUSGEZOGEN
 10
 675.0000
 20
   0.0000
 11
 600.0000
 21
   0.0000
  0
LINE
  8
400
  6
AUSGEZOGEN
 10
 525.0000
 20
   0.0000
 11
 600.0000
 21
   0.0000
  0
CIRCLE
  8
400
  6
AUSGEZOGEN
 10
 600.0000
 20
   0.0000
 40
  50.0000
  0
LINE
  8
410
  6
AUSGEZOGEN
 10
 600.0000
 20
   0.0000
 11
3049.0000
 21
 316.5000
  0
LINE
  8
410
  6
AUSGEZOGEN
 10
3292.2600
 20
 316.5000
 11
3049.0000
 21
 316.5000
  0
LINE
  8
410
  6
AUSGEZOGEN
 10
 600.0000
 20
   0.0000
 11
 600.0000
 21
  75.0000
  0
LINE
  8
410
  6
AUSGEZOGEN
 10
 600.0000
 20
 -75.0000
 11
 600.0000
 21
   0.0000
  0
LINE
  8
410
  6
AUSGEZOGEN
 10
 675.0000
 20
   0.0000
 11
 600.0000
 21
   0.0000
  0
LINE
  8
410
  6
AUSGEZOGEN
 10
 525.0000
 20
   0.0000
 11
 600.0000
 21
   0.0000
  0
CIRCLE
  8
410
  6
AUSGEZOGEN
 10
 600.0000
 20
   0.0000
 40
  50.0000
  0
LINE
  8
420
  6
AUSGEZOGEN
 10
 600.0000
 20
   0.0000
 11
3049.0000
 21
 436.5000
  0
LINE
  8
420
  6
AUSGEZOGEN
 10
4353.9300
 20
 436.5000
 11
3049.0000
 21
 436.5000
  0
LINE
  8
420
  6
AUSGEZOGEN
 10
 600.0000
 20
   0.0000
 11
 600.0000
 21
  75.0000
  0
LINE
  8
420
  6
AUSGEZOGEN
 10
 600.0000
 20
 -75.0000
 11
 600.0000
 21
   0.0000
  0
LINE
  8
420
  6
AUSGEZOGEN
 10
 675.0000
 20
   0.0000
 11
 600.0000
 21
   0.0000
  0
LINE
  8
420
  6
AUSGEZOGEN
 10
 525.0000
 20
   0.0000
 11
 600.0000
 21
   0.0000
  0
CIRCLE
  8
420
  6
AUSGEZOGEN
 10
 600.0000
 20
   0.0000
 40
  50.0000
  0
LINE
  8
440
  6
AUSGEZOGEN
 10
 600.0000
 20
   0.0000
 11
3049.0000
 21
 676.5000
  0
LINE
  8
440
  6
AUSGEZOGEN
 10
3526.0300
 20
 676.5000
 11
3049.0000
 21
 676.5000
  0
LINE
  8
440
  6
AUSGEZOGEN
 10
 600.0000
 20
   0.0000
 11
 600.0000
 21
  75.0000
  0
LINE
  8
440
  6
AUSGEZOGEN
 10
 600.0000
 20
 -75.0000
 11
 600.0000
 21
   0.0000
  0
LINE
  8
440
  6
AUSGEZOGEN
 10
 675.0000
 20
   0.0000
 11
 600.0000
 21
   0.0000
  0
LINE
  8
440
  6
AUSGEZOGEN
 10
 525.0000
 20
   0.0000
 11
 600.0000
 21
   0.0000
  0
CIRCLE
  8
440
  6
AUSGEZOGEN
 10
 600.0000
 20
   0.0000
 40
  50.0000
  0
LINE
  8
440
  6
AUSGEZOGEN
 10
 600.0000
 20
   0.0000
 11
3049.0000
 21
 556.5000
  0
LINE
  8
440
  6
AUSGEZOGEN
 10
3692.6100
 20
 556.5000
 11
3049.0000
 21
 556.5000
  0
LINE
  8
440
  6
AUSGEZOGEN
 10
 600.0000
 20
   0.0000
 11
 600.0000
 21
  75.0000
  0
LINE
  8
440
  6
AUSGEZOGEN
 10
 600.0000
 20
 -75.0000
 11
 600.0000
 21
   0.0000
  0
LINE
  8
440
  6
AUSGEZOGEN
 10
 675.0000
 20
   0.0000
 11
 600.0000
 21
   0.0000
  0
LINE
  8
440
  6
AUSGEZOGEN
 10
 525.0000
 20
   0.0000
 11
 600.0000
 21
   0.0000
  0
CIRCLE
  8
440
  6
AUSGEZOGEN
 10
 600.0000
 20
   0.0000
 40
  50.0000
  0
LINE
  8
200
  6
AUSGEZOGEN
 10
 111.7800
 20
 833.5400
 11
  97.2800
 21
 805.0000
  0
LINE
  8
200
  6
AUSGEZOGEN
 10
 168.3900
 20
 805.0000
 11
 182.8900
 21
 833.5400
  0
LINE
  8
200
  6
AUSGEZOGEN
 10
 218.4500
 20
 833.5400
 11
 203.9500
 21
 805.0000
  0
LINE
  8
200
  6
AUSGEZOGEN
 10
 239.5000
 20
 805.0000
 11
 254.0000
 21
 833.5400
  0
LINE
  8
200
  6
AUSGEZOGEN
 10
 108.5000
 20
 885.0000
 11
  94.0000
 21
 856.4600
  0
LINE
  8
200
  6
AUSGEZOGEN
 10
  97.2800
 20
 849.9900
 11
 111.7800
 21
 878.5300
  0
LINE
  8
200
  6
AUSGEZOGEN
 10
 144.0500
 20
 885.0000
 11
 129.5500
 21
 856.4600
  0
LINE
  8
200
  6
AUSGEZOGEN
 10
 147.3300
 20
 856.4600
 11
 161.8300
 21
 885.0000
  0
LINE
  8
200
  6
AUSGEZOGEN
 10
 179.6100
 20
 885.0000
 11
 165.1100
 21
 856.4600
  0
LINE
  8
200
  6
AUSGEZOGEN
 10
 168.3900
 20
 849.9900
 11
 182.8900
 21
 878.5300
  0
LINE
  8
200
  6
AUSGEZOGEN
 10
 215.1600
 20
 885.0000
 11
 200.6600
 21
 856.4600
  0
LINE
  8
200
  6
AUSGEZOGEN
 10
 203.9500
 20
 849.9900
 11
 218.4500
 21
 878.5300
  0
LINE
  8
200
  6
AUSGEZOGEN
 10
 250.7200
 20
 885.0000
 11
 236.2200
 21
 856.4600
  0
LINE
  8
200
  6
AUSGEZOGEN
 10
 239.5000
 20
 849.9900
 11
 254.0000
 21
 878.5300
  0
LINE
  8
200
  6
AUSGEZOGEN
 10
 257.2800
 20
 805.0000
 11
 271.7800
 21
 833.5400
  0
LINE
  8
200
  6
AUSGEZOGEN
 10
 342.8900
 20
 833.5400
 11
 328.3900
 21
 805.0000
  0
LINE
  8
200
  6
AUSGEZOGEN
 10
 363.9500
 20
 805.0000
 11
 378.4500
 21
 833.5400
  0
LINE
  8
200
  6
AUSGEZOGEN
 10
 414.0000
 20
 833.5400
 11
 399.5000
 21
 805.0000
  0
LINE
  8
200
  6
AUSGEZOGEN
 10
 268.5000
 20
 885.0000
 11
 254.0000
 21
 856.4600
  0
LINE
  8
200
  6
AUSGEZOGEN
 10
 257.2800
 20
 849.9900
 11
 271.7800
 21
 878.5300
  0
LINE
  8
200
  6
AUSGEZOGEN
 10
 304.0500
 20
 885.0000
 11
 289.5500
 21
 856.4600
  0
LINE
  8
200
  6
AUSGEZOGEN
 10
 307.3300
 20
 856.4600
 11
 321.8300
 21
 885.0000
  0
LINE
  8
200
  6
AUSGEZOGEN
 10
 339.6100
 20
 885.0000
 11
 325.1100
 21
 856.4600
  0
LINE
  8
200
  6
AUSGEZOGEN
 10
 328.3900
 20
 849.9900
 11
 342.8900
 21
 878.5300
  0
LINE
  8
200
  6
AUSGEZOGEN
 10
 375.1600
 20
 885.0000
 11
 360.6600
 21
 856.4600
  0
LINE
  8
200
  6
AUSGEZOGEN
 10
 363.9500
 20
 849.9900
 11
 378.4500
 21
 878.5300
  0
LINE
  8
200
  6
AUSGEZOGEN
 10
 410.7200
 20
 885.0000
 11
 396.2200
 21
 856.4600
  0
LINE
  8
200
  6
AUSGEZOGEN
 10
 399.5000
 20
 849.9900
 11
 414.0000
 21
 878.5300
  0
LINE
  8
200
  6
AUSGEZOGEN
 10
  94.0000
 20
 811.4700
 11
 108.5000
 21
 840.0000
  0
LINE
  8
200
  6
AUSGEZOGEN
 10
 129.5500
 20
 833.5400
 11
 115.0600
 21
 805.0000
  0
LINE
  8
200
  6
AUSGEZOGEN
 10
 129.5500
 20
 811.4700
 11
 144.0500
 21
 840.0000
  0
LINE
  8
200
  6
AUSGEZOGEN
 10
 147.3300
 20
 833.5400
 11
 132.8400
 21
 805.0000
  0
LINE
  8
200
  6
AUSGEZOGEN
 10
 147.3300
 20
 811.4700
 11
 161.8300
 21
 840.0000
  0
LINE
  8
200
  6
AUSGEZOGEN
 10
 165.1100
 20
 833.5400
 11
 150.6200
 21
 805.0000
  0
LINE
  8
200
  6
AUSGEZOGEN
 10
 165.1100
 20
 811.4700
 11
 179.6100
 21
 840.0000
  0
LINE
  8
200
  6
AUSGEZOGEN
 10
 200.6600
 20
 833.5400
 11
 186.1700
 21
 805.0000
  0
LINE
  8
200
  6
AUSGEZOGEN
 10
 200.6600
 20
 811.4700
 11
 215.1600
 21
 840.0000
  0
LINE
  8
200
  6
AUSGEZOGEN
 10
 236.2200
 20
 833.5400
 11
 221.7300
 21
 805.0000
  0
LINE
  8
200
  6
AUSGEZOGEN
 10
 236.2200
 20
 811.4700
 11
 250.7200
 21
 840.0000
  0
LINE
  8
200
  6
AUSGEZOGEN
 10
 126.2700
 20
 885.0000
 11
 111.7800
 21
 856.4600
  0
LINE
  8
200
  6
AUSGEZOGEN
 10
 115.0600
 20
 849.9900
 11
 129.5500
 21
 878.5300
  0
LINE
  8
200
  6
AUSGEZOGEN
 10
 147.3300
 20
 878.5300
 11
 132.8400
 21
 849.9900
  0
LINE
  8
200
  6
AUSGEZOGEN
 10
 150.6200
 20
 849.9900
 11
 165.1100
 21
 878.5300
  0
LINE
  8
200
  6
AUSGEZOGEN
 10
 197.3800
 20
 885.0000
 11
 182.8900
 21
 856.4600
  0
LINE
  8
200
  6
AUSGEZOGEN
 10
 186.1700
 20
 849.9900
 11
 200.6600
 21
 878.5300
  0
LINE
  8
200
  6
AUSGEZOGEN
 10
 232.9400
 20
 885.0000
 11
 218.4500
 21
 856.4600
  0
LINE
  8
200
  6
AUSGEZOGEN
 10
 221.7300
 20
 849.9900
 11
 236.2200
 21
 878.5300
  0
LINE
  8
200
  6
AUSGEZOGEN
 10
 254.0000
 20
 811.4700
 11
 268.5000
 21
 840.0000
  0
LINE
  8
200
  6
AUSGEZOGEN
 10
 289.5500
 20
 833.5400
 11
 275.0600
 21
 805.0000
  0
LINE
  8
200
  6
AUSGEZOGEN
 10
 289.5500
 20
 811.4700
 11
 304.0500
 21
 840.0000
  0
LINE
  8
200
  6
AUSGEZOGEN
 10
 307.3300
 20
 833.5400
 11
 292.8400
 21
 805.0000
  0
LINE
  8
200
  6
AUSGEZOGEN
 10
 307.3300
 20
 811.4700
 11
 321.8300
 21
 840.0000
  0
LINE
  8
200
  6
AUSGEZOGEN
 10
 325.1100
 20
 833.5400
 11
 310.6200
 21
 805.0000
  0
LINE
  8
200
  6
AUSGEZOGEN
 10
 325.1100
 20
 811.4700
 11
 339.6100
 21
 840.0000
  0
LINE
  8
200
  6
AUSGEZOGEN
 10
 360.6600
 20
 833.5400
 11
 346.1700
 21
 805.0000
  0
LINE
  8
200
  6
AUSGEZOGEN
 10
 360.6600
 20
 811.4700
 11
 375.1600
 21
 840.0000
  0
LINE
  8
200
  6
AUSGEZOGEN
 10
 396.2200
 20
 833.5400
 11
 381.7300
 21
 805.0000
  0
LINE
  8
200
  6
AUSGEZOGEN
 10
 396.2200
 20
 811.4700
 11
 410.7200
 21
 840.0000
  0
LINE
  8
200
  6
AUSGEZOGEN
 10
 286.2700
 20
 885.0000
 11
 271.7800
 21
 856.4600
  0
LINE
  8
200
  6
AUSGEZOGEN
 10
 275.0600
 20
 849.9900
 11
 289.5500
 21
 878.5300
  0
LINE
  8
200
  6
AUSGEZOGEN
 10
 307.3300
 20
 878.5300
 11
 292.8400
 21
 849.9900
  0
LINE
  8
200
  6
AUSGEZOGEN
 10
 310.6200
 20
 849.9900
 11
 325.1100
 21
 878.5300
  0
LINE
  8
200
  6
AUSGEZOGEN
 10
 357.3800
 20
 885.0000
 11
 342.8900
 21
 856.4600
  0
LINE
  8
200
  6
AUSGEZOGEN
 10
 346.1700
 20
 849.9900
 11
 360.6600
 21
 878.5300
  0
LINE
  8
200
  6
AUSGEZOGEN
 10
 392.9400
 20
 885.0000
 11
 378.4500
 21
 856.4600
  0
LINE
  8
200
  6
AUSGEZOGEN
 10
 381.7300
 20
 849.9900
 11
 396.2200
 21
 878.5300
  0
LINE
  8
200
  6
AUSGEZOGEN
 10
 111.7800
 20
 811.4700
 11
 126.2700
 21
 840.0000
  0
LINE
  8
200
  6
AUSGEZOGEN
 10
 197.3800
 20
 840.0000
 11
 182.8900
 21
 811.4700
  0
LINE
  8
200
  6
AUSGEZOGEN
 10
 218.4500
 20
 811.4700
 11
 232.9400
 21
 840.0000
  0
LINE
  8
200
  6
AUSGEZOGEN
 10
 286.2700
 20
 840.0000
 11
 271.7800
 21
 811.4700
  0
LINE
  8
200
  6
AUSGEZOGEN
 10
 342.8900
 20
 811.4700
 11
 357.3800
 21
 840.0000
  0
LINE
  8
200
  6
AUSGEZOGEN
 10
 392.9400
 20
 840.0000
 11
 378.4500
 21
 811.4700
  0
LINE
  8
200
  6
AUSGEZOGEN
 10
 111.7800
 20
 833.5400
 11
 111.0800
 21
 838.6400
  0
LINE
  8
200
  6
AUSGEZOGEN
 10
 164.4100
 20
 838.6400
 11
 165.1100
 21
 833.5400
  0
LINE
  8
200
  6
AUSGEZOGEN
 10
 182.8900
 20
 833.5400
 11
 182.1900
 21
 838.6400
  0
LINE
  8
200
  6
AUSGEZOGEN
 10
 217.7500
 20
 838.6400
 11
 218.4500
 21
 833.5400
  0
LINE
  8
200
  6
AUSGEZOGEN
 10
 236.2200
 20
 833.5400
 11
 235.5200
 21
 838.6400
  0
LINE
  8
200
  6
AUSGEZOGEN
 10
 129.5500
 20
 856.4600
 11
 130.2500
 21
 851.3600
  0
LINE
  8
200
  6
AUSGEZOGEN
 10
 148.0300
 20
 851.3600
 11
 147.3300
 21
 856.4600
  0
LINE
  8
200
  6
AUSGEZOGEN
 10
 165.1100
 20
 856.4600
 11
 165.8100
 21
 851.3600
  0
LINE
  8
200
  6
AUSGEZOGEN
 10
 183.5900
 20
 851.3600
 11
 182.8900
 21
 856.4600
  0
LINE
  8
200
  6
AUSGEZOGEN
 10
 200.6600
 20
 856.4600
 11
 201.3600
 21
 851.3600
  0
LINE
  8
200
  6
AUSGEZOGEN
 10
 236.9200
 20
 851.3600
 11
 236.2200
 21
 856.4600
  0
LINE
  8
200
  6
AUSGEZOGEN
 10
 271.7800
 20
 833.5400
 11
 271.0800
 21
 838.6400
  0
LINE
  8
200
  6
AUSGEZOGEN
 10
 324.4100
 20
 838.6400
 11
 325.1100
 21
 833.5400
  0
LINE
  8
200
  6
AUSGEZOGEN
 10
 342.8900
 20
 833.5400
 11
 342.1900
 21
 838.6400
  0
LINE
  8
200
  6
AUSGEZOGEN
 10
 377.7500
 20
 838.6400
 11
 378.4500
 21
 833.5400
  0
LINE
  8
200
  6
AUSGEZOGEN
 10
 396.2200
 20
 833.5400
 11
 395.5200
 21
 838.6400
  0
LINE
  8
200
  6
AUSGEZOGEN
 10
 289.5500
 20
 856.4600
 11
 290.2500
 21
 851.3600
  0
LINE
  8
200
  6
AUSGEZOGEN
 10
 308.0300
 20
 851.3600
 11
 307.3300
 21
 856.4600
  0
LINE
  8
200
  6
AUSGEZOGEN
 10
 325.1100
 20
 856.4600
 11
 325.8100
 21
 851.3600
  0
LINE
  8
200
  6
AUSGEZOGEN
 10
 343.5900
 20
 851.3600
 11
 342.8900
 21
 856.4600
  0
LINE
  8
200
  6
AUSGEZOGEN
 10
 360.6600
 20
 856.4600
 11
 361.3600
 21
 851.3600
  0
LINE
  8
200
  6
AUSGEZOGEN
 10
 396.9200
 20
 851.3600
 11
 396.2200
 21
 856.4600
  0
LINE
  8
200
  6
AUSGEZOGEN
 10
 129.5500
 20
 833.5400
 11
 128.8600
 21
 838.6400
  0
LINE
  8
200
  6
AUSGEZOGEN
 10
 146.6400
 20
 838.6400
 11
 147.3300
 21
 833.5400
  0
LINE
  8
200
  6
AUSGEZOGEN
 10
 200.6600
 20
 833.5400
 11
 199.9700
 21
 838.6400
  0
LINE
  8
200
  6
AUSGEZOGEN
 10
  94.0000
 20
 856.4600
 11
  94.6900
 21
 851.3600
  0
LINE
  8
200
  6
AUSGEZOGEN
 10
 112.4700
 20
 851.3600
 11
 111.7800
 21
 856.4600
  0
LINE
  8
200
  6
AUSGEZOGEN
 10
 218.4500
 20
 856.4600
 11
 219.1400
 21
 851.3600
  0
LINE
  8
200
  6
AUSGEZOGEN
 10
 254.0000
 20
 833.5400
 11
 253.3100
 21
 838.6400
  0
LINE
  8
200
  6
AUSGEZOGEN
 10
 288.8600
 20
 838.6400
 11
 289.5500
 21
 833.5400
  0
LINE
  8
200
  6
AUSGEZOGEN
 10
 307.3300
 20
 833.5400
 11
 306.6400
 21
 838.6400
  0
LINE
  8
200
  6
AUSGEZOGEN
 10
 359.9700
 20
 838.6400
 11
 360.6600
 21
 833.5400
  0
LINE
  8
200
  6
AUSGEZOGEN
 10
 254.0000
 20
 856.4600
 11
 254.6900
 21
 851.3600
  0
LINE
  8
200
  6
AUSGEZOGEN
 10
 272.4700
 20
 851.3600
 11
 271.7800
 21
 856.4600
  0
LINE
  8
200
  6
AUSGEZOGEN
 10
 378.4500
 20
 856.4600
 11
 379.1400
 21
 851.3600
  0
LINE
  8
200
  6
AUSGEZOGEN
 10
 414.0000
 20
 833.5400
 11
 413.3100
 21
 838.6400
  0
LINE
  8
200
  6
AUSGEZOGEN
 10
 130.2500
 20
 806.3800
 11
 129.5500
 21
 811.4700
  0
LINE
  8
200
  6
AUSGEZOGEN
 10
 147.3300
 20
 811.4700
 11
 148.0300
 21
 806.3800
  0
LINE
  8
200
  6
AUSGEZOGEN
 10
 165.8100
 20
 806.3800
 11
 165.1100
 21
 811.4700
  0
LINE
  8
200
  6
AUSGEZOGEN
 10
 182.8900
 20
 811.4700
 11
 183.5900
 21
 806.3800
  0
LINE
  8
200
  6
AUSGEZOGEN
 10
 201.3600
 20
 806.3800
 11
 200.6600
 21
 811.4700
  0
LINE
  8
200
  6
AUSGEZOGEN
 10
 236.2200
 20
 811.4700
 11
 236.9200
 21
 806.3800
  0
LINE
  8
200
  6
AUSGEZOGEN
 10
 111.0800
 20
 883.6200
 11
 111.7800
 21
 878.5300
  0
LINE
  8
200
  6
AUSGEZOGEN
 10
 165.1100
 20
 878.5300
 11
 164.4100
 21
 883.6200
  0
LINE
  8
200
  6
AUSGEZOGEN
 10
 182.1900
 20
 883.6200
 11
 182.8900
 21
 878.5300
  0
LINE
  8
200
  6
AUSGEZOGEN
 10
 218.4500
 20
 878.5300
 11
 217.7500
 21
 883.6200
  0
LINE
  8
200
  6
AUSGEZOGEN
 10
 235.5200
 20
 883.6200
 11
 236.2200
 21
 878.5300
  0
LINE
  8
200
  6
AUSGEZOGEN
 10
 290.2500
 20
 806.3800
 11
 289.5500
 21
 811.4700
  0
LINE
  8
200
  6
AUSGEZOGEN
 10
 307.3300
 20
 811.4700
 11
 308.0300
 21
 806.3800
  0
LINE
  8
200
  6
AUSGEZOGEN
 10
 325.8100
 20
 806.3800
 11
 325.1100
 21
 811.4700
  0
LINE
  8
200
  6
AUSGEZOGEN
 10
 342.8900
 20
 811.4700
 11
 343.5900
 21
 806.3800
  0
LINE
  8
200
  6
AUSGEZOGEN
 10
 361.3600
 20
 806.3800
 11
 360.6600
 21
 811.4700
  0
LINE
  8
200
  6
AUSGEZOGEN
 10
 396.2200
 20
 811.4700
 11
 396.9200
 21
 806.3800
  0
LINE
  8
200
  6
AUSGEZOGEN
 10
 271.0800
 20
 883.6200
 11
 271.7800
 21
 878.5300
  0
LINE
  8
200
  6
AUSGEZOGEN
 10
 325.1100
 20
 878.5300
 11
 324.4100
 21
 883.6200
  0
LINE
  8
200
  6
AUSGEZOGEN
 10
 342.1900
 20
 883.6200
 11
 342.8900
 21
 878.5300
  0
LINE
  8
200
  6
AUSGEZOGEN
 10
 378.4500
 20
 878.5300
 11
 377.7500
 21
 883.6200
  0
LINE
  8
200
  6
AUSGEZOGEN
 10
 395.5200
 20
 883.6200
 11
 396.2200
 21
 878.5300
  0
LINE
  8
200
  6
AUSGEZOGEN
 10
  94.6900
 20
 806.3800
 11
  94.0000
 21
 811.4700
  0
LINE
  8
200
  6
AUSGEZOGEN
 10
 111.7800
 20
 811.4700
 11
 112.4700
 21
 806.3800
  0
LINE
  8
200
  6
AUSGEZOGEN
 10
 219.1400
 20
 806.3800
 11
 218.4500
 21
 811.4700
  0
LINE
  8
200
  6
AUSGEZOGEN
 10
 128.8600
 20
 883.6200
 11
 129.5500
 21
 878.5300
  0
LINE
  8
200
  6
AUSGEZOGEN
 10
 147.3300
 20
 878.5300
 11
 146.6400
 21
 883.6200
  0
LINE
  8
200
  6
AUSGEZOGEN
 10
 199.9700
 20
 883.6200
 11
 200.6600
 21
 878.5300
  0
LINE
  8
200
  6
AUSGEZOGEN
 10
 254.0000
 20
 878.5300
 11
 253.3100
 21
 883.6200
  0
LINE
  8
200
  6
AUSGEZOGEN
 10
 254.6900
 20
 806.3800
 11
 254.0000
 21
 811.4700
  0
LINE
  8
200
  6
AUSGEZOGEN
 10
 271.7800
 20
 811.4700
 11
 272.4700
 21
 806.3800
  0
LINE
  8
200
  6
AUSGEZOGEN
 10
 379.1400
 20
 806.3800
 11
 378.4500
 21
 811.4700
  0
LINE
  8
200
  6
AUSGEZOGEN
 10
 288.8600
 20
 883.6200
 11
 289.5500
 21
 878.5300
  0
LINE
  8
200
  6
AUSGEZOGEN
 10
 307.3300
 20
 878.5300
 11
 306.6400
 21
 883.6200
  0
LINE
  8
200
  6
AUSGEZOGEN
 10
 359.9700
 20
 883.6200
 11
 360.6600
 21
 878.5300
  0
LINE
  8
200
  6
AUSGEZOGEN
 10
 414.0000
 20
 878.5300
 11
 413.3100
 21
 883.6200
  0
LINE
  8
200
  6
AUSGEZOGEN
 10
  94.6900
 20
 806.3800
 11
  97.2800
 21
 805.0000
  0
LINE
  8
200
  6
AUSGEZOGEN
 10
 115.0600
 20
 805.0000
 11
 112.4700
 21
 806.3800
  0
LINE
  8
200
  6
AUSGEZOGEN
 10
 132.8400
 20
 805.0000
 11
 130.2500
 21
 806.3800
  0
LINE
  8
200
  6
AUSGEZOGEN
 10
 150.6200
 20
 805.0000
 11
 148.0300
 21
 806.3800
  0
LINE
  8
200
  6
AUSGEZOGEN
 10
 203.9500
 20
 805.0000
 11
 201.3600
 21
 806.3800
  0
LINE
  8
200
  6
AUSGEZOGEN
 10
 221.7300
 20
 805.0000
 11
 219.1400
 21
 806.3800
  0
LINE
  8
200
  6
AUSGEZOGEN
 10
 126.2700
 20
 885.0000
 11
 128.8600
 21
 883.6200
  0
LINE
  8
200
  6
AUSGEZOGEN
 10
 146.6400
 20
 883.6200
 11
 144.0500
 21
 885.0000
  0
LINE
  8
200
  6
AUSGEZOGEN
 10
 199.9700
 20
 883.6200
 11
 197.3800
 21
 885.0000
  0
LINE
  8
200
  6
AUSGEZOGEN
 10
 217.7500
 20
 883.6200
 11
 215.1600
 21
 885.0000
  0
LINE
  8
200
  6
AUSGEZOGEN
 10
 253.3100
 20
 883.6200
 11
 250.7200
 21
 885.0000
  0
LINE
  8
200
  6
AUSGEZOGEN
 10
 257.2800
 20
 805.0000
 11
 254.6900
 21
 806.3800
  0
LINE
  8
200
  6
AUSGEZOGEN
 10
 275.0600
 20
 805.0000
 11
 272.4700
 21
 806.3800
  0
LINE
  8
200
  6
AUSGEZOGEN
 10
 292.8400
 20
 805.0000
 11
 290.2500
 21
 806.3800
  0
LINE
  8
200
  6
AUSGEZOGEN
 10
 310.6200
 20
 805.0000
 11
 308.0300
 21
 806.3800
  0
LINE
  8
200
  6
AUSGEZOGEN
 10
 363.9500
 20
 805.0000
 11
 361.3600
 21
 806.3800
  0
LINE
  8
200
  6
AUSGEZOGEN
 10
 381.7300
 20
 805.0000
 11
 379.1400
 21
 806.3800
  0
LINE
  8
200
  6
AUSGEZOGEN
 10
 286.2700
 20
 885.0000
 11
 288.8600
 21
 883.6200
  0
LINE
  8
200
  6
AUSGEZOGEN
 10
 306.6400
 20
 883.6200
 11
 304.0500
 21
 885.0000
  0
LINE
  8
200
  6
AUSGEZOGEN
 10
 359.9700
 20
 883.6200
 11
 357.3800
 21
 885.0000
  0
LINE
  8
200
  6
AUSGEZOGEN
 10
 377.7500
 20
 883.6200
 11
 375.1600
 21
 885.0000
  0
LINE
  8
200
  6
AUSGEZOGEN
 10
 413.3100
 20
 883.6200
 11
 410.7200
 21
 885.0000
  0
LINE
  8
200
  6
AUSGEZOGEN
 10
 379.1400
 20
 851.3600
 11
 381.7300
 21
 849.9900
  0
LINE
  8
200
  6
AUSGEZOGEN
 10
 361.3600
 20
 851.3600
 11
 363.9500
 21
 849.9900
  0
LINE
  8
200
  6
AUSGEZOGEN
 10
 308.0300
 20
 851.3600
 11
 310.6200
 21
 849.9900
  0
LINE
  8
200
  6
AUSGEZOGEN
 10
 290.2500
 20
 851.3600
 11
 292.8400
 21
 849.9900
  0
LINE
  8
200
  6
AUSGEZOGEN
 10
 272.4700
 20
 851.3600
 11
 275.0600
 21
 849.9900
  0
LINE
  8
200
  6
AUSGEZOGEN
 10
 254.6900
 20
 851.3600
 11
 257.2800
 21
 849.9900
  0
LINE
  8
200
  6
AUSGEZOGEN
 10
 219.1400
 20
 851.3600
 11
 221.7300
 21
 849.9900
  0
LINE
  8
200
  6
AUSGEZOGEN
 10
 201.3600
 20
 851.3600
 11
 203.9500
 21
 849.9900
  0
LINE
  8
200
  6
AUSGEZOGEN
 10
 148.0300
 20
 851.3600
 11
 150.6200
 21
 849.9900
  0
LINE
  8
200
  6
AUSGEZOGEN
 10
 130.2500
 20
 851.3600
 11
 132.8400
 21
 849.9900
  0
LINE
  8
200
  6
AUSGEZOGEN
 10
 112.4700
 20
 851.3600
 11
 115.0600
 21
 849.9900
  0
LINE
  8
200
  6
AUSGEZOGEN
 10
  94.6900
 20
 851.3600
 11
  97.2800
 21
 849.9900
  0
LINE
  8
200
  6
AUSGEZOGEN
 10
 111.0800
 20
 838.6400
 11
 108.5000
 21
 840.0000
  0
LINE
  8
200
  6
AUSGEZOGEN
 10
 128.8600
 20
 838.6400
 11
 126.2700
 21
 840.0000
  0
LINE
  8
200
  6
AUSGEZOGEN
 10
 146.6400
 20
 838.6400
 11
 144.0500
 21
 840.0000
  0
LINE
  8
200
  6
AUSGEZOGEN
 10
 164.4100
 20
 838.6400
 11
 161.8300
 21
 840.0000
  0
LINE
  8
200
  6
AUSGEZOGEN
 10
 182.1900
 20
 838.6400
 11
 179.6100
 21
 840.0000
  0
LINE
  8
200
  6
AUSGEZOGEN
 10
 165.8100
 20
 806.3800
 11
 168.3900
 21
 805.0000
  0
LINE
  8
200
  6
AUSGEZOGEN
 10
 199.9700
 20
 838.6400
 11
 197.3800
 21
 840.0000
  0
LINE
  8
200
  6
AUSGEZOGEN
 10
 183.5900
 20
 806.3800
 11
 186.1700
 21
 805.0000
  0
LINE
  8
200
  6
AUSGEZOGEN
 10
 217.7500
 20
 838.6400
 11
 215.1600
 21
 840.0000
  0
LINE
  8
200
  6
AUSGEZOGEN
 10
 235.5200
 20
 838.6400
 11
 232.9400
 21
 840.0000
  0
LINE
  8
200
  6
AUSGEZOGEN
 10
 253.3100
 20
 838.6400
 11
 250.7200
 21
 840.0000
  0
LINE
  8
200
  6
AUSGEZOGEN
 10
 236.9200
 20
 806.3800
 11
 239.5000
 21
 805.0000
  0
LINE
  8
200
  6
AUSGEZOGEN
 10
 108.5000
 20
 885.0000
 11
 111.0800
 21
 883.6200
  0
LINE
  8
200
  6
AUSGEZOGEN
 10
 164.4100
 20
 883.6200
 11
 161.8300
 21
 885.0000
  0
LINE
  8
200
  6
AUSGEZOGEN
 10
 182.1900
 20
 883.6200
 11
 179.6100
 21
 885.0000
  0
LINE
  8
200
  6
AUSGEZOGEN
 10
 165.8100
 20
 851.3600
 11
 168.3900
 21
 849.9900
  0
LINE
  8
200
  6
AUSGEZOGEN
 10
 186.1700
 20
 849.9900
 11
 183.5900
 21
 851.3600
  0
LINE
  8
200
  6
AUSGEZOGEN
 10
 235.5200
 20
 883.6200
 11
 232.9400
 21
 885.0000
  0
LINE
  8
200
  6
AUSGEZOGEN
 10
 239.5000
 20
 849.9900
 11
 236.9200
 21
 851.3600
  0
LINE
  8
200
  6
AUSGEZOGEN
 10
 271.0800
 20
 838.6400
 11
 268.5000
 21
 840.0000
  0
LINE
  8
200
  6
AUSGEZOGEN
 10
 288.8600
 20
 838.6400
 11
 286.2700
 21
 840.0000
  0
LINE
  8
200
  6
AUSGEZOGEN
 10
 306.6400
 20
 838.6400
 11
 304.0500
 21
 840.0000
  0
LINE
  8
200
  6
AUSGEZOGEN
 10
 324.4100
 20
 838.6400
 11
 321.8300
 21
 840.0000
  0
LINE
  8
200
  6
AUSGEZOGEN
 10
 342.1900
 20
 838.6400
 11
 339.6100
 21
 840.0000
  0
LINE
  8
200
  6
AUSGEZOGEN
 10
 325.8100
 20
 806.3800
 11
 328.3900
 21
 805.0000
  0
LINE
  8
200
  6
AUSGEZOGEN
 10
 359.9700
 20
 838.6400
 11
 357.3800
 21
 840.0000
  0
LINE
  8
200
  6
AUSGEZOGEN
 10
 343.5900
 20
 806.3800
 11
 346.1700
 21
 805.0000
  0
LINE
  8
200
  6
AUSGEZOGEN
 10
 377.7500
 20
 838.6400
 11
 375.1600
 21
 840.0000
  0
LINE
  8
200
  6
AUSGEZOGEN
 10
 395.5200
 20
 838.6400
 11
 392.9400
 21
 840.0000
  0
LINE
  8
200
  6
AUSGEZOGEN
 10
 413.3100
 20
 838.6400
 11
 410.7200
 21
 840.0000
  0
LINE
  8
200
  6
AUSGEZOGEN
 10
 396.9200
 20
 806.3800
 11
 399.5000
 21
 805.0000
  0
LINE
  8
200
  6
AUSGEZOGEN
 10
 268.5000
 20
 885.0000
 11
 271.0800
 21
 883.6200
  0
LINE
  8
200
  6
AUSGEZOGEN
 10
 324.4100
 20
 883.6200
 11
 321.8300
 21
 885.0000
  0
LINE
  8
200
  6
AUSGEZOGEN
 10
 342.1900
 20
 883.6200
 11
 339.6100
 21
 885.0000
  0
LINE
  8
200
  6
AUSGEZOGEN
 10
 325.8100
 20
 851.3600
 11
 328.3900
 21
 849.9900
  0
LINE
  8
200
  6
AUSGEZOGEN
 10
 346.1700
 20
 849.9900
 11
 343.5900
 21
 851.3600
  0
LINE
  8
200
  6
AUSGEZOGEN
 10
 395.5200
 20
 883.6200
 11
 392.9400
 21
 885.0000
  0
LINE
  8
200
  6
AUSGEZOGEN
 10
 399.5000
 20
 849.9900
 11
 396.9200
 21
 851.3600
  0
LINE
  8
200
  6
AUSGEZOGEN
 10
 427.2800
 20
 805.0000
 11
 441.7800
 21
 833.5400
  0
LINE
  8
200
  6
AUSGEZOGEN
 10
 512.8900
 20
 833.5400
 11
 498.3900
 21
 805.0000
  0
LINE
  8
200
  6
AUSGEZOGEN
 10
 533.9500
 20
 805.0000
 11
 548.4500
 21
 833.5400
  0
LINE
  8
200
  6
AUSGEZOGEN
 10
 584.0000
 20
 833.5400
 11
 569.5000
 21
 805.0000
  0
LINE
  8
200
  6
AUSGEZOGEN
 10
 438.5000
 20
 885.0000
 11
 424.0000
 21
 856.4600
  0
LINE
  8
200
  6
AUSGEZOGEN
 10
 427.2800
 20
 849.9900
 11
 441.7800
 21
 878.5300
  0
LINE
  8
200
  6
AUSGEZOGEN
 10
 474.0500
 20
 885.0000
 11
 459.5500
 21
 856.4600
  0
LINE
  8
200
  6
AUSGEZOGEN
 10
 477.3300
 20
 856.4600
 11
 491.8300
 21
 885.0000
  0
LINE
  8
200
  6
AUSGEZOGEN
 10
 509.6100
 20
 885.0000
 11
 495.1100
 21
 856.4600
  0
LINE
  8
200
  6
AUSGEZOGEN
 10
 498.3900
 20
 849.9900
 11
 512.8900
 21
 878.5300
  0
LINE
  8
200
  6
AUSGEZOGEN
 10
 545.1600
 20
 885.0000
 11
 530.6600
 21
 856.4600
  0
LINE
  8
200
  6
AUSGEZOGEN
 10
 533.9500
 20
 849.9900
 11
 548.4500
 21
 878.5300
  0
LINE
  8
200
  6
AUSGEZOGEN
 10
 580.7200
 20
 885.0000
 11
 566.2200
 21
 856.4600
  0
LINE
  8
200
  6
AUSGEZOGEN
 10
 569.5000
 20
 849.9900
 11
 584.0000
 21
 878.5300
  0
LINE
  8
200
  6
AUSGEZOGEN
 10
 587.2800
 20
 805.0000
 11
 601.7800
 21
 833.5400
  0
LINE
  8
200
  6
AUSGEZOGEN
 10
 672.8900
 20
 833.5400
 11
 658.3900
 21
 805.0000
  0
LINE
  8
200
  6
AUSGEZOGEN
 10
 693.9500
 20
 805.0000
 11
 708.4500
 21
 833.5400
  0
LINE
  8
200
  6
AUSGEZOGEN
 10
 744.0000
 20
 833.5400
 11
 729.5000
 21
 805.0000
  0
LINE
  8
200
  6
AUSGEZOGEN
 10
 598.5000
 20
 885.0000
 11
 584.0000
 21
 856.4600
  0
LINE
  8
200
  6
AUSGEZOGEN
 10
 587.2800
 20
 849.9900
 11
 601.7800
 21
 878.5300
  0
LINE
  8
200
  6
AUSGEZOGEN
 10
 634.0500
 20
 885.0000
 11
 619.5500
 21
 856.4600
  0
LINE
  8
200
  6
AUSGEZOGEN
 10
 637.3300
 20
 856.4600
 11
 651.8300
 21
 885.0000
  0
LINE
  8
200
  6
AUSGEZOGEN
 10
 669.6100
 20
 885.0000
 11
 655.1100
 21
 856.4600
  0
LINE
  8
200
  6
AUSGEZOGEN
 10
 658.3900
 20
 849.9900
 11
 672.8900
 21
 878.5300
  0
LINE
  8
200
  6
AUSGEZOGEN
 10
 705.1600
 20
 885.0000
 11
 690.6600
 21
 856.4600
  0
LINE
  8
200
  6
AUSGEZOGEN
 10
 693.9500
 20
 849.9900
 11
 708.4500
 21
 878.5300
  0
LINE
  8
200
  6
AUSGEZOGEN
 10
 740.7200
 20
 885.0000
 11
 726.2200
 21
 856.4600
  0
LINE
  8
200
  6
AUSGEZOGEN
 10
 729.5000
 20
 849.9900
 11
 744.0000
 21
 878.5300
  0
LINE
  8
200
  6
AUSGEZOGEN
 10
 424.0000
 20
 811.4700
 11
 438.5000
 21
 840.0000
  0
LINE
  8
200
  6
AUSGEZOGEN
 10
 459.5500
 20
 833.5400
 11
 445.0600
 21
 805.0000
  0
LINE
  8
200
  6
AUSGEZOGEN
 10
 459.5500
 20
 811.4700
 11
 474.0500
 21
 840.0000
  0
LINE
  8
200
  6
AUSGEZOGEN
 10
 477.3300
 20
 833.5400
 11
 462.8400
 21
 805.0000
  0
LINE
  8
200
  6
AUSGEZOGEN
 10
 477.3300
 20
 811.4700
 11
 491.8300
 21
 840.0000
  0
LINE
  8
200
  6
AUSGEZOGEN
 10
 495.1100
 20
 833.5400
 11
 480.6200
 21
 805.0000
  0
LINE
  8
200
  6
AUSGEZOGEN
 10
 495.1100
 20
 811.4700
 11
 509.6100
 21
 840.0000
  0
LINE
  8
200
  6
AUSGEZOGEN
 10
 530.6600
 20
 833.5400
 11
 516.1700
 21
 805.0000
  0
LINE
  8
200
  6
AUSGEZOGEN
 10
 530.6600
 20
 811.4700
 11
 545.1600
 21
 840.0000
  0
LINE
  8
200
  6
AUSGEZOGEN
 10
 566.2200
 20
 833.5400
 11
 551.7300
 21
 805.0000
  0
LINE
  8
200
  6
AUSGEZOGEN
 10
 566.2200
 20
 811.4700
 11
 580.7200
 21
 840.0000
  0
LINE
  8
200
  6
AUSGEZOGEN
 10
 456.2700
 20
 885.0000
 11
 441.7800
 21
 856.4600
  0
LINE
  8
200
  6
AUSGEZOGEN
 10
 445.0600
 20
 849.9900
 11
 459.5500
 21
 878.5300
  0
LINE
  8
200
  6
AUSGEZOGEN
 10
 477.3300
 20
 878.5300
 11
 462.8400
 21
 849.9900
  0
LINE
  8
200
  6
AUSGEZOGEN
 10
 480.6200
 20
 849.9900
 11
 495.1100
 21
 878.5300
  0
LINE
  8
200
  6
AUSGEZOGEN
 10
 527.3800
 20
 885.0000
 11
 512.8900
 21
 856.4600
  0
LINE
  8
200
  6
AUSGEZOGEN
 10
 516.1700
 20
 849.9900
 11
 530.6600
 21
 878.5300
  0
LINE
  8
200
  6
AUSGEZOGEN
 10
 562.9400
 20
 885.0000
 11
 548.4500
 21
 856.4600
  0
LINE
  8
200
  6
AUSGEZOGEN
 10
 551.7300
 20
 849.9900
 11
 566.2200
 21
 878.5300
  0
LINE
  8
200
  6
AUSGEZOGEN
 10
 584.0000
 20
 811.4700
 11
 598.5000
 21
 840.0000
  0
LINE
  8
200
  6
AUSGEZOGEN
 10
 619.5500
 20
 833.5400
 11
 605.0600
 21
 805.0000
  0
LINE
  8
200
  6
AUSGEZOGEN
 10
 619.5500
 20
 811.4700
 11
 634.0500
 21
 840.0000
  0
LINE
  8
200
  6
AUSGEZOGEN
 10
 637.3300
 20
 833.5400
 11
 622.8400
 21
 805.0000
  0
LINE
  8
200
  6
AUSGEZOGEN
 10
 637.3300
 20
 811.4700
 11
 651.8300
 21
 840.0000
  0
LINE
  8
200
  6
AUSGEZOGEN
 10
 655.1100
 20
 833.5400
 11
 640.6200
 21
 805.0000
  0
LINE
  8
200
  6
AUSGEZOGEN
 10
 655.1100
 20
 811.4700
 11
 669.6100
 21
 840.0000
  0
LINE
  8
200
  6
AUSGEZOGEN
 10
 690.6600
 20
 833.5400
 11
 676.1700
 21
 805.0000
  0
LINE
  8
200
  6
AUSGEZOGEN
 10
 690.6600
 20
 811.4700
 11
 705.1600
 21
 840.0000
  0
LINE
  8
200
  6
AUSGEZOGEN
 10
 726.2200
 20
 833.5400
 11
 711.7300
 21
 805.0000
  0
LINE
  8
200
  6
AUSGEZOGEN
 10
 726.2200
 20
 811.4700
 11
 740.7200
 21
 840.0000
  0
LINE
  8
200
  6
AUSGEZOGEN
 10
 616.2700
 20
 885.0000
 11
 601.7800
 21
 856.4600
  0
LINE
  8
200
  6
AUSGEZOGEN
 10
 605.0600
 20
 849.9900
 11
 619.5500
 21
 878.5300
  0
LINE
  8
200
  6
AUSGEZOGEN
 10
 637.3300
 20
 878.5300
 11
 622.8400
 21
 849.9900
  0
LINE
  8
200
  6
AUSGEZOGEN
 10
 640.6200
 20
 849.9900
 11
 655.1100
 21
 878.5300
  0
LINE
  8
200
  6
AUSGEZOGEN
 10
 687.3800
 20
 885.0000
 11
 672.8900
 21
 856.4600
  0
LINE
  8
200
  6
AUSGEZOGEN
 10
 676.1700
 20
 849.9900
 11
 690.6600
 21
 878.5300
  0
LINE
  8
200
  6
AUSGEZOGEN
 10
 722.9400
 20
 885.0000
 11
 708.4500
 21
 856.4600
  0
LINE
  8
200
  6
AUSGEZOGEN
 10
 711.7300
 20
 849.9900
 11
 726.2200
 21
 878.5300
  0
LINE
  8
200
  6
AUSGEZOGEN
 10
 441.7800
 20
 811.4700
 11
 456.2700
 21
 840.0000
  0
LINE
  8
200
  6
AUSGEZOGEN
 10
 527.3800
 20
 840.0000
 11
 512.8900
 21
 811.4700
  0
LINE
  8
200
  6
AUSGEZOGEN
 10
 548.4500
 20
 811.4700
 11
 562.9400
 21
 840.0000
  0
LINE
  8
200
  6
AUSGEZOGEN
 10
 616.2700
 20
 840.0000
 11
 601.7800
 21
 811.4700
  0
LINE
  8
200
  6
AUSGEZOGEN
 10
 672.8900
 20
 811.4700
 11
 687.3800
 21
 840.0000
  0
LINE
  8
200
  6
AUSGEZOGEN
 10
 722.9400
 20
 840.0000
 11
 708.4500
 21
 811.4700
  0
LINE
  8
200
  6
AUSGEZOGEN
 10
 441.7800
 20
 833.5400
 11
 441.0800
 21
 838.6400
  0
LINE
  8
200
  6
AUSGEZOGEN
 10
 494.4100
 20
 838.6400
 11
 495.1100
 21
 833.5400
  0
LINE
  8
200
  6
AUSGEZOGEN
 10
 512.8900
 20
 833.5400
 11
 512.1900
 21
 838.6400
  0
LINE
  8
200
  6
AUSGEZOGEN
 10
 547.7500
 20
 838.6400
 11
 548.4500
 21
 833.5400
  0
LINE
  8
200
  6
AUSGEZOGEN
 10
 566.2200
 20
 833.5400
 11
 565.5200
 21
 838.6400
  0
LINE
  8
200
  6
AUSGEZOGEN
 10
 459.5500
 20
 856.4600
 11
 460.2500
 21
 851.3600
  0
LINE
  8
200
  6
AUSGEZOGEN
 10
 478.0300
 20
 851.3600
 11
 477.3300
 21
 856.4600
  0
LINE
  8
200
  6
AUSGEZOGEN
 10
 495.1100
 20
 856.4600
 11
 495.8100
 21
 851.3600
  0
LINE
  8
200
  6
AUSGEZOGEN
 10
 513.5900
 20
 851.3600
 11
 512.8900
 21
 856.4600
  0
LINE
  8
200
  6
AUSGEZOGEN
 10
 530.6600
 20
 856.4600
 11
 531.3600
 21
 851.3600
  0
LINE
  8
200
  6
AUSGEZOGEN
 10
 566.9200
 20
 851.3600
 11
 566.2200
 21
 856.4600
  0
LINE
  8
200
  6
AUSGEZOGEN
 10
 601.7800
 20
 833.5400
 11
 601.0800
 21
 838.6400
  0
LINE
  8
200
  6
AUSGEZOGEN
 10
 654.4100
 20
 838.6400
 11
 655.1100
 21
 833.5400
  0
LINE
  8
200
  6
AUSGEZOGEN
 10
 672.8900
 20
 833.5400
 11
 672.1900
 21
 838.6400
  0
LINE
  8
200
  6
AUSGEZOGEN
 10
 707.7500
 20
 838.6400
 11
 708.4500
 21
 833.5400
  0
LINE
  8
200
  6
AUSGEZOGEN
 10
 726.2200
 20
 833.5400
 11
 725.5200
 21
 838.6400
  0
LINE
  8
200
  6
AUSGEZOGEN
 10
 619.5500
 20
 856.4600
 11
 620.2500
 21
 851.3600
  0
LINE
  8
200
  6
AUSGEZOGEN
 10
 638.0300
 20
 851.3600
 11
 637.3300
 21
 856.4600
  0
LINE
  8
200
  6
AUSGEZOGEN
 10
 655.1100
 20
 856.4600
 11
 655.8100
 21
 851.3600
  0
LINE
  8
200
  6
AUSGEZOGEN
 10
 673.5900
 20
 851.3600
 11
 672.8900
 21
 856.4600
  0
LINE
  8
200
  6
AUSGEZOGEN
 10
 690.6600
 20
 856.4600
 11
 691.3600
 21
 851.3600
  0
LINE
  8
200
  6
AUSGEZOGEN
 10
 726.9200
 20
 851.3600
 11
 726.2200
 21
 856.4600
  0
LINE
  8
200
  6
AUSGEZOGEN
 10
 459.5500
 20
 833.5400
 11
 458.8600
 21
 838.6400
  0
LINE
  8
200
  6
AUSGEZOGEN
 10
 476.6400
 20
 838.6400
 11
 477.3300
 21
 833.5400
  0
LINE
  8
200
  6
AUSGEZOGEN
 10
 530.6600
 20
 833.5400
 11
 529.9700
 21
 838.6400
  0
LINE
  8
200
  6
AUSGEZOGEN
 10
 424.0000
 20
 856.4600
 11
 424.6900
 21
 851.3600
  0
LINE
  8
200
  6
AUSGEZOGEN
 10
 442.4700
 20
 851.3600
 11
 441.7800
 21
 856.4600
  0
LINE
  8
200
  6
AUSGEZOGEN
 10
 548.4500
 20
 856.4600
 11
 549.1400
 21
 851.3600
  0
LINE
  8
200
  6
AUSGEZOGEN
 10
 584.0000
 20
 833.5400
 11
 583.3100
 21
 838.6400
  0
LINE
  8
200
  6
AUSGEZOGEN
 10
 618.8600
 20
 838.6400
 11
 619.5500
 21
 833.5400
  0
LINE
  8
200
  6
AUSGEZOGEN
 10
 637.3300
 20
 833.5400
 11
 636.6400
 21
 838.6400
  0
LINE
  8
200
  6
AUSGEZOGEN
 10
 689.9700
 20
 838.6400
 11
 690.6600
 21
 833.5400
  0
LINE
  8
200
  6
AUSGEZOGEN
 10
 584.0000
 20
 856.4600
 11
 584.6900
 21
 851.3600
  0
LINE
  8
200
  6
AUSGEZOGEN
 10
 602.4700
 20
 851.3600
 11
 601.7800
 21
 856.4600
  0
LINE
  8
200
  6
AUSGEZOGEN
 10
 708.4500
 20
 856.4600
 11
 709.1400
 21
 851.3600
  0
LINE
  8
200
  6
AUSGEZOGEN
 10
 744.0000
 20
 833.5400
 11
 743.3100
 21
 838.6400
  0
LINE
  8
200
  6
AUSGEZOGEN
 10
 460.2500
 20
 806.3800
 11
 459.5500
 21
 811.4700
  0
LINE
  8
200
  6
AUSGEZOGEN
 10
 477.3300
 20
 811.4700
 11
 478.0300
 21
 806.3800
  0
LINE
  8
200
  6
AUSGEZOGEN
 10
 495.8100
 20
 806.3800
 11
 495.1100
 21
 811.4700
  0
LINE
  8
200
  6
AUSGEZOGEN
 10
 512.8900
 20
 811.4700
 11
 513.5900
 21
 806.3800
  0
LINE
  8
200
  6
AUSGEZOGEN
 10
 531.3600
 20
 806.3800
 11
 530.6600
 21
 811.4700
  0
LINE
  8
200
  6
AUSGEZOGEN
 10
 566.2200
 20
 811.4700
 11
 566.9200
 21
 806.3800
  0
LINE
  8
200
  6
AUSGEZOGEN
 10
 441.0800
 20
 883.6200
 11
 441.7800
 21
 878.5300
  0
LINE
  8
200
  6
AUSGEZOGEN
 10
 495.1100
 20
 878.5300
 11
 494.4100
 21
 883.6200
  0
LINE
  8
200
  6
AUSGEZOGEN
 10
 512.1900
 20
 883.6200
 11
 512.8900
 21
 878.5300
  0
LINE
  8
200
  6
AUSGEZOGEN
 10
 548.4500
 20
 878.5300
 11
 547.7500
 21
 883.6200
  0
LINE
  8
200
  6
AUSGEZOGEN
 10
 565.5200
 20
 883.6200
 11
 566.2200
 21
 878.5300
  0
LINE
  8
200
  6
AUSGEZOGEN
 10
 620.2500
 20
 806.3800
 11
 619.5500
 21
 811.4700
  0
LINE
  8
200
  6
AUSGEZOGEN
 10
 637.3300
 20
 811.4700
 11
 638.0300
 21
 806.3800
  0
LINE
  8
200
  6
AUSGEZOGEN
 10
 655.8100
 20
 806.3800
 11
 655.1100
 21
 811.4700
  0
LINE
  8
200
  6
AUSGEZOGEN
 10
 672.8900
 20
 811.4700
 11
 673.5900
 21
 806.3800
  0
LINE
  8
200
  6
AUSGEZOGEN
 10
 691.3600
 20
 806.3800
 11
 690.6600
 21
 811.4700
  0
LINE
  8
200
  6
AUSGEZOGEN
 10
 726.2200
 20
 811.4700
 11
 726.9200
 21
 806.3800
  0
LINE
  8
200
  6
AUSGEZOGEN
 10
 601.0800
 20
 883.6200
 11
 601.7800
 21
 878.5300
  0
LINE
  8
200
  6
AUSGEZOGEN
 10
 655.1100
 20
 878.5300
 11
 654.4100
 21
 883.6200
  0
LINE
  8
200
  6
AUSGEZOGEN
 10
 672.1900
 20
 883.6200
 11
 672.8900
 21
 878.5300
  0
LINE
  8
200
  6
AUSGEZOGEN
 10
 708.4500
 20
 878.5300
 11
 707.7500
 21
 883.6200
  0
LINE
  8
200
  6
AUSGEZOGEN
 10
 725.5200
 20
 883.6200
 11
 726.2200
 21
 878.5300
  0
LINE
  8
200
  6
AUSGEZOGEN
 10
 424.6900
 20
 806.3800
 11
 424.0000
 21
 811.4700
  0
LINE
  8
200
  6
AUSGEZOGEN
 10
 441.7800
 20
 811.4700
 11
 442.4700
 21
 806.3800
  0
LINE
  8
200
  6
AUSGEZOGEN
 10
 549.1400
 20
 806.3800
 11
 548.4500
 21
 811.4700
  0
LINE
  8
200
  6
AUSGEZOGEN
 10
 458.8600
 20
 883.6200
 11
 459.5500
 21
 878.5300
  0
LINE
  8
200
  6
AUSGEZOGEN
 10
 477.3300
 20
 878.5300
 11
 476.6400
 21
 883.6200
  0
LINE
  8
200
  6
AUSGEZOGEN
 10
 529.9700
 20
 883.6200
 11
 530.6600
 21
 878.5300
  0
LINE
  8
200
  6
AUSGEZOGEN
 10
 584.0000
 20
 878.5300
 11
 583.3100
 21
 883.6200
  0
LINE
  8
200
  6
AUSGEZOGEN
 10
 584.6900
 20
 806.3800
 11
 584.0000
 21
 811.4700
  0
LINE
  8
200
  6
AUSGEZOGEN
 10
 601.7800
 20
 811.4700
 11
 602.4700
 21
 806.3800
  0
LINE
  8
200
  6
AUSGEZOGEN
 10
 709.1400
 20
 806.3800
 11
 708.4500
 21
 811.4700
  0
LINE
  8
200
  6
AUSGEZOGEN
 10
 618.8600
 20
 883.6200
 11
 619.5500
 21
 878.5300
  0
LINE
  8
200
  6
AUSGEZOGEN
 10
 637.3300
 20
 878.5300
 11
 636.6400
 21
 883.6200
  0
LINE
  8
200
  6
AUSGEZOGEN
 10
 689.9700
 20
 883.6200
 11
 690.6600
 21
 878.5300
  0
LINE
  8
200
  6
AUSGEZOGEN
 10
 744.0000
 20
 878.5300
 11
 743.3100
 21
 883.6200
  0
LINE
  8
200
  6
AUSGEZOGEN
 10
 424.6900
 20
 806.3800
 11
 427.2800
 21
 805.0000
  0
LINE
  8
200
  6
AUSGEZOGEN
 10
 445.0600
 20
 805.0000
 11
 442.4700
 21
 806.3800
  0
LINE
  8
200
  6
AUSGEZOGEN
 10
 462.8400
 20
 805.0000
 11
 460.2500
 21
 806.3800
  0
LINE
  8
200
  6
AUSGEZOGEN
 10
 480.6200
 20
 805.0000
 11
 478.0300
 21
 806.3800
  0
LINE
  8
200
  6
AUSGEZOGEN
 10
 533.9500
 20
 805.0000
 11
 531.3600
 21
 806.3800
  0
LINE
  8
200
  6
AUSGEZOGEN
 10
 551.7300
 20
 805.0000
 11
 549.1400
 21
 806.3800
  0
LINE
  8
200
  6
AUSGEZOGEN
 10
 456.2700
 20
 885.0000
 11
 458.8600
 21
 883.6200
  0
LINE
  8
200
  6
AUSGEZOGEN
 10
 476.6400
 20
 883.6200
 11
 474.0500
 21
 885.0000
  0
LINE
  8
200
  6
AUSGEZOGEN
 10
 529.9700
 20
 883.6200
 11
 527.3800
 21
 885.0000
  0
LINE
  8
200
  6
AUSGEZOGEN
 10
 547.7500
 20
 883.6200
 11
 545.1600
 21
 885.0000
  0
LINE
  8
200
  6
AUSGEZOGEN
 10
 583.3100
 20
 883.6200
 11
 580.7200
 21
 885.0000
  0
LINE
  8
200
  6
AUSGEZOGEN
 10
 587.2800
 20
 805.0000
 11
 584.6900
 21
 806.3800
  0
LINE
  8
200
  6
AUSGEZOGEN
 10
 605.0600
 20
 805.0000
 11
 602.4700
 21
 806.3800
  0
LINE
  8
200
  6
AUSGEZOGEN
 10
 622.8400
 20
 805.0000
 11
 620.2500
 21
 806.3800
  0
LINE
  8
200
  6
AUSGEZOGEN
 10
 640.6200
 20
 805.0000
 11
 638.0300
 21
 806.3800
  0
LINE
  8
200
  6
AUSGEZOGEN
 10
 693.9500
 20
 805.0000
 11
 691.3600
 21
 806.3800
  0
LINE
  8
200
  6
AUSGEZOGEN
 10
 711.7300
 20
 805.0000
 11
 709.1400
 21
 806.3800
  0
LINE
  8
200
  6
AUSGEZOGEN
 10
 616.2700
 20
 885.0000
 11
 618.8600
 21
 883.6200
  0
LINE
  8
200
  6
AUSGEZOGEN
 10
 636.6400
 20
 883.6200
 11
 634.0500
 21
 885.0000
  0
LINE
  8
200
  6
AUSGEZOGEN
 10
 689.9700
 20
 883.6200
 11
 687.3800
 21
 885.0000
  0
LINE
  8
200
  6
AUSGEZOGEN
 10
 707.7500
 20
 883.6200
 11
 705.1600
 21
 885.0000
  0
LINE
  8
200
  6
AUSGEZOGEN
 10
 743.3100
 20
 883.6200
 11
 740.7200
 21
 885.0000
  0
LINE
  8
200
  6
AUSGEZOGEN
 10
 709.1400
 20
 851.3600
 11
 711.7300
 21
 849.9900
  0
LINE
  8
200
  6
AUSGEZOGEN
 10
 691.3600
 20
 851.3600
 11
 693.9500
 21
 849.9900
  0
LINE
  8
200
  6
AUSGEZOGEN
 10
 638.0300
 20
 851.3600
 11
 640.6200
 21
 849.9900
  0
LINE
  8
200
  6
AUSGEZOGEN
 10
 620.2500
 20
 851.3600
 11
 622.8400
 21
 849.9900
  0
LINE
  8
200
  6
AUSGEZOGEN
 10
 602.4700
 20
 851.3600
 11
 605.0600
 21
 849.9900
  0
LINE
  8
200
  6
AUSGEZOGEN
 10
 584.6900
 20
 851.3600
 11
 587.2800
 21
 849.9900
  0
LINE
  8
200
  6
AUSGEZOGEN
 10
 549.1400
 20
 851.3600
 11
 551.7300
 21
 849.9900
  0
LINE
  8
200
  6
AUSGEZOGEN
 10
 531.3600
 20
 851.3600
 11
 533.9500
 21
 849.9900
  0
LINE
  8
200
  6
AUSGEZOGEN
 10
 478.0300
 20
 851.3600
 11
 480.6200
 21
 849.9900
  0
LINE
  8
200
  6
AUSGEZOGEN
 10
 460.2500
 20
 851.3600
 11
 462.8400
 21
 849.9900
  0
LINE
  8
200
  6
AUSGEZOGEN
 10
 442.4700
 20
 851.3600
 11
 445.0600
 21
 849.9900
  0
LINE
  8
200
  6
AUSGEZOGEN
 10
 424.6900
 20
 851.3600
 11
 427.2800
 21
 849.9900
  0
LINE
  8
200
  6
AUSGEZOGEN
 10
 441.0800
 20
 838.6400
 11
 438.5000
 21
 840.0000
  0
LINE
  8
200
  6
AUSGEZOGEN
 10
 458.8600
 20
 838.6400
 11
 456.2700
 21
 840.0000
  0
LINE
  8
200
  6
AUSGEZOGEN
 10
 476.6400
 20
 838.6400
 11
 474.0500
 21
 840.0000
  0
LINE
  8
200
  6
AUSGEZOGEN
 10
 494.4100
 20
 838.6400
 11
 491.8300
 21
 840.0000
  0
LINE
  8
200
  6
AUSGEZOGEN
 10
 512.1900
 20
 838.6400
 11
 509.6100
 21
 840.0000
  0
LINE
  8
200
  6
AUSGEZOGEN
 10
 495.8100
 20
 806.3800
 11
 498.3900
 21
 805.0000
  0
LINE
  8
200
  6
AUSGEZOGEN
 10
 529.9700
 20
 838.6400
 11
 527.3800
 21
 840.0000
  0
LINE
  8
200
  6
AUSGEZOGEN
 10
 513.5900
 20
 806.3800
 11
 516.1700
 21
 805.0000
  0
LINE
  8
200
  6
AUSGEZOGEN
 10
 547.7500
 20
 838.6400
 11
 545.1600
 21
 840.0000
  0
LINE
  8
200
  6
AUSGEZOGEN
 10
 565.5200
 20
 838.6400
 11
 562.9400
 21
 840.0000
  0
LINE
  8
200
  6
AUSGEZOGEN
 10
 583.3100
 20
 838.6400
 11
 580.7200
 21
 840.0000
  0
LINE
  8
200
  6
AUSGEZOGEN
 10
 566.9200
 20
 806.3800
 11
 569.5000
 21
 805.0000
  0
LINE
  8
200
  6
AUSGEZOGEN
 10
 438.5000
 20
 885.0000
 11
 441.0800
 21
 883.6200
  0
LINE
  8
200
  6
AUSGEZOGEN
 10
 494.4100
 20
 883.6200
 11
 491.8300
 21
 885.0000
  0
LINE
  8
200
  6
AUSGEZOGEN
 10
 512.1900
 20
 883.6200
 11
 509.6100
 21
 885.0000
  0
LINE
  8
200
  6
AUSGEZOGEN
 10
 495.8100
 20
 851.3600
 11
 498.3900
 21
 849.9900
  0
LINE
  8
200
  6
AUSGEZOGEN
 10
 516.1700
 20
 849.9900
 11
 513.5900
 21
 851.3600
  0
LINE
  8
200
  6
AUSGEZOGEN
 10
 565.5200
 20
 883.6200
 11
 562.9400
 21
 885.0000
  0
LINE
  8
200
  6
AUSGEZOGEN
 10
 569.5000
 20
 849.9900
 11
 566.9200
 21
 851.3600
  0
LINE
  8
200
  6
AUSGEZOGEN
 10
 601.0800
 20
 838.6400
 11
 598.5000
 21
 840.0000
  0
LINE
  8
200
  6
AUSGEZOGEN
 10
 618.8600
 20
 838.6400
 11
 616.2700
 21
 840.0000
  0
LINE
  8
200
  6
AUSGEZOGEN
 10
 636.6400
 20
 838.6400
 11
 634.0500
 21
 840.0000
  0
LINE
  8
200
  6
AUSGEZOGEN
 10
 654.4100
 20
 838.6400
 11
 651.8300
 21
 840.0000
  0
LINE
  8
200
  6
AUSGEZOGEN
 10
 672.1900
 20
 838.6400
 11
 669.6100
 21
 840.0000
  0
LINE
  8
200
  6
AUSGEZOGEN
 10
 655.8100
 20
 806.3800
 11
 658.3900
 21
 805.0000
  0
LINE
  8
200
  6
AUSGEZOGEN
 10
 689.9700
 20
 838.6400
 11
 687.3800
 21
 840.0000
  0
LINE
  8
200
  6
AUSGEZOGEN
 10
 673.5900
 20
 806.3800
 11
 676.1700
 21
 805.0000
  0
LINE
  8
200
  6
AUSGEZOGEN
 10
 707.7500
 20
 838.6400
 11
 705.1600
 21
 840.0000
  0
LINE
  8
200
  6
AUSGEZOGEN
 10
 725.5200
 20
 838.6400
 11
 722.9400
 21
 840.0000
  0
LINE
  8
200
  6
AUSGEZOGEN
 10
 743.3100
 20
 838.6400
 11
 740.7200
 21
 840.0000
  0
LINE
  8
200
  6
AUSGEZOGEN
 10
 726.9200
 20
 806.3800
 11
 729.5000
 21
 805.0000
  0
LINE
  8
200
  6
AUSGEZOGEN
 10
 598.5000
 20
 885.0000
 11
 601.0800
 21
 883.6200
  0
LINE
  8
200
  6
AUSGEZOGEN
 10
 654.4100
 20
 883.6200
 11
 651.8300
 21
 885.0000
  0
LINE
  8
200
  6
AUSGEZOGEN
 10
 672.1900
 20
 883.6200
 11
 669.6100
 21
 885.0000
  0
LINE
  8
200
  6
AUSGEZOGEN
 10
 655.8100
 20
 851.3600
 11
 658.3900
 21
 849.9900
  0
LINE
  8
200
  6
AUSGEZOGEN
 10
 676.1700
 20
 849.9900
 11
 673.5900
 21
 851.3600
  0
LINE
  8
200
  6
AUSGEZOGEN
 10
 725.5200
 20
 883.6200
 11
 722.9400
 21
 885.0000
  0
LINE
  8
200
  6
AUSGEZOGEN
 10
 729.5000
 20
 849.9900
 11
 726.9200
 21
 851.3600
  0
LINE
  8
200
  6
AUSGEZOGEN
 10
1324.0000
 20
 852.4000
 11
 829.0000
 21
 852.4000
  0
LINE
  8
200
  6
AUSGEZOGEN
 10
 829.0000
 20
  60.0000
 11
1324.0000
 21
  60.0000
  0
LINE
  8
200
  6
AUSGEZOGEN
 10
1324.0000
 20
 881.9000
 11
 829.0000
 21
 881.9000
  0
LINE
  8
200
  6
AUSGEZOGEN
 10
1324.0000
 20
  60.0000
 11
1324.0000
 21
 881.9000
  0
LINE
  8
200
  6
AUSGEZOGEN
 10
 829.0000
 20
 881.9000
 11
 829.0000
 21
  60.0000
  0
LINE
  8
200
  6
AUSGEZOGEN
 10
1324.0000
 20
 895.0000
 11
 829.0000
 21
 895.0000
  0
LINE
  8
200
  6
AUSGEZOGEN
 10
1324.0000
 20
 917.0000
 11
1324.0000
 21
 895.0000
  0
LINE
  8
200
  6
AUSGEZOGEN
 10
 829.0000
 20
 917.0000
 11
1324.0000
 21
 917.0000
  0
LINE
  8
200
  6
AUSGEZOGEN
 10
 829.0000
 20
 895.0000
 11
 829.0000
 21
 917.0000
  0
LINE
  8
200
  6
AUSGEZOGEN
 10
1872.0000
 20
 852.4000
 11
1377.0000
 21
 852.4000
  0
LINE
  8
200
  6
AUSGEZOGEN
 10
1377.0000
 20
  60.0000
 11
1872.0000
 21
  60.0000
  0
LINE
  8
200
  6
AUSGEZOGEN
 10
1872.0000
 20
 881.9000
 11
1377.0000
 21
 881.9000
  0
LINE
  8
200
  6
AUSGEZOGEN
 10
1872.0000
 20
  60.0000
 11
1872.0000
 21
 881.9000
  0
LINE
  8
200
  6
AUSGEZOGEN
 10
1377.0000
 20
 881.9000
 11
1377.0000
 21
  60.0000
  0
LINE
  8
200
  6
AUSGEZOGEN
 10
1872.0000
 20
 895.0000
 11
1377.0000
 21
 895.0000
  0
LINE
  8
200
  6
AUSGEZOGEN
 10
1872.0000
 20
 917.0000
 11
1872.0000
 21
 895.0000
  0
LINE
  8
200
  6
AUSGEZOGEN
 10
1377.0000
 20
 917.0000
 11
1872.0000
 21
 917.0000
  0
LINE
  8
200
  6
AUSGEZOGEN
 10
1377.0000
 20
 895.0000
 11
1377.0000
 21
 917.0000
  0
LINE
  8
200
  6
AUSGEZOGEN
 10
2422.0000
 20
 852.4000
 11
1927.0000
 21
 852.4000
  0
LINE
  8
200
  6
AUSGEZOGEN
 10
1927.0000
 20
  60.0000
 11
2422.0000
 21
  60.0000
  0
LINE
  8
200
  6
AUSGEZOGEN
 10
2422.0000
 20
 881.9000
 11
1927.0000
 21
 881.9000
  0
LINE
  8
200
  6
AUSGEZOGEN
 10
2422.0000
 20
  60.0000
 11
2422.0000
 21
 881.9000
  0
LINE
  8
200
  6
AUSGEZOGEN
 10
1927.0000
 20
 881.9000
 11
1927.0000
 21
  60.0000
  0
LINE
  8
200
  6
AUSGEZOGEN
 10
2422.0000
 20
 895.0000
 11
1927.0000
 21
 895.0000
  0
LINE
  8
200
  6
AUSGEZOGEN
 10
2422.0000
 20
 917.0000
 11
2422.0000
 21
 895.0000
  0
LINE
  8
200
  6
AUSGEZOGEN
 10
1927.0000
 20
 917.0000
 11
2422.0000
 21
 917.0000
  0
LINE
  8
200
  6
AUSGEZOGEN
 10
1927.0000
 20
 895.0000
 11
1927.0000
 21
 917.0000
  0
LINE
  8
200
  6
AUSGEZOGEN
 10
  10.0000
 20
 920.0000
 11
 790.0000
 21
 920.0000
  0
LINE
  8
200
  6
AUSGEZOGEN
 10
 790.0000
 20
 755.0000
 11
  10.0000
 21
 755.0000
  0
LINE
  8
200
  6
AUSGEZOGEN
 10
 790.0000
 20
 920.0000
 11
 790.0000
 21
 735.0000
  0
LINE
  8
200
  6
AUSGEZOGEN
 10
  10.0000
 20
 735.0000
 11
  10.0000
 21
 920.0000
  0
LINE
  8
200
  6
AUSGEZOGEN
 10
 790.0000
 20
 735.0000
 11
  10.0000
 21
 735.0000
  0
LINE
  8
200
  6
AUSGEZOGEN
 10
 417.0000
 20
  62.0000
 11
 781.0000
 21
  62.0000
  0
LINE
  8
200
  6
AUSGEZOGEN
 10
 781.0000
 20
 562.0000
 11
 417.0000
 21
 562.0000
  0
LINE
  8
200
  6
AUSGEZOGEN
 10
 417.0000
 20
  62.0000
 11
 417.0000
 21
 582.0000
  0
LINE
  8
200
  6
AUSGEZOGEN
 10
 781.0000
 20
 582.0000
 11
 417.0000
 21
 582.0000
  0
LINE
  8
200
  6
AUSGEZOGEN
 10
 781.0000
 20
  62.0000
 11
 781.0000
 21
 582.0000
  0
LINE
  8
200
  6
AUSGEZOGEN
 10
 530.0000
 20
 639.0000
 11
 680.0000
 21
 639.0000
  0
LINE
  8
200
  6
AUSGEZOGEN
 10
 530.0000
 20
 679.0000
 11
 530.0000
 21
 639.0000
  0
LINE
  8
200
  6
AUSGEZOGEN
 10
 680.0000
 20
 679.0000
 11
 530.0000
 21
 679.0000
  0
LINE
  8
200
  6
AUSGEZOGEN
 10
 680.0000
 20
 639.0000
 11
 680.0000
 21
 679.0000
  0
LINE
  8
200
  6
AUSGEZOGEN
 10
  15.0000
 20
 594.0000
 11
 785.0000
 21
 594.0000
  0
LINE
  8
200
  6
AUSGEZOGEN
 10
 785.0000
 20
 604.0000
 11
  15.0000
 21
 604.0000
  0
LINE
  8
200
  6
AUSGEZOGEN
 10
  15.0000
 20
 699.0000
 11
 785.0000
 21
 699.0000
  0
LINE
  8
200
  6
AUSGEZOGEN
 10
 785.0000
 20
 704.0000
 11
  15.0000
 21
 704.0000
  0
LINE
  8
200
  6
AUSGEZOGEN
 10
  15.0000
 20
 614.0000
 11
 785.0000
 21
 614.0000
  0
LINE
  8
200
  6
AUSGEZOGEN
 10
 785.0000
 20
 619.0000
 11
  15.0000
 21
 619.0000
  0
LINE
  8
200
  6
AUSGEZOGEN
 10
  15.0000
 20
 714.0000
 11
 785.0000
 21
 714.0000
  0
LINE
  8
200
  6
AUSGEZOGEN
 10
 785.0000
 20
 724.0000
 11
  15.0000
 21
 724.0000
  0
LINE
  8
200
  6
AUSGEZOGEN
 10
  15.0000
 20
 589.0000
 11
 785.0000
 21
 589.0000
  0
LINE
  8
200
  6
AUSGEZOGEN
 10
  15.0000
 20
 729.0000
 11
  15.0000
 21
 589.0000
  0
LINE
  8
200
  6
AUSGEZOGEN
 10
 785.0000
 20
 729.0000
 11
  15.0000
 21
 729.0000
  0
LINE
  8
200
  6
AUSGEZOGEN
 10
 785.0000
 20
 589.0000
 11
 785.0000
 21
 729.0000
  0
LINE
  8
200
  6
AUSGEZOGEN
 10
  10.0000
 20
 584.0000
 11
 790.0000
 21
 584.0000
  0
LINE
  8
200
  6
AUSGEZOGEN
 10
 790.0000
 20
 734.0000
 11
  10.0000
 21
 734.0000
  0
LINE
  8
200
  6
AUSGEZOGEN
 10
  10.0000
 20
 584.0000
 11
  10.0000
 21
 734.0000
  0
LINE
  8
200
  6
AUSGEZOGEN
 10
 790.0000
 20
 734.0000
 11
 790.0000
 21
 584.0000
  0
LINE
  8
200
  6
AUSGEZOGEN
 10
  18.0000
 20
  62.0000
 11
  18.0000
 21
 582.0000
  0
LINE
  8
200
  6
AUSGEZOGEN
 10
 327.4000
 20
 582.0000
 11
 327.4000
 21
  62.0000
  0
LINE
  8
200
  6
AUSGEZOGEN
 10
 352.9000
 20
  62.0000
 11
 352.9000
 21
 582.0000
  0
LINE
  8
200
  6
AUSGEZOGEN
 10
  18.0000
 20
  62.0000
 11
 352.9000
 21
  62.0000
  0
LINE
  8
200
  6
AUSGEZOGEN
 10
 352.9000
 20
 582.0000
 11
  18.0000
 21
 582.0000
  0
LINE
  8
200
  6
AUSGEZOGEN
 10
 360.0000
 20
  62.0000
 11
 360.0000
 21
 582.0000
  0
LINE
  8
200
  6
AUSGEZOGEN
 10
 382.0000
 20
 582.0000
 11
 382.0000
 21
  62.0000
  0
LINE
  8
200
  6
AUSGEZOGEN
 10
 360.0000
 20
  62.0000
 11
 382.0000
 21
  62.0000
  0
LINE
  8
200
  6
AUSGEZOGEN
 10
 382.0000
 20
 582.0000
 11
 360.0000
 21
 582.0000
  0
LINE
  8
200
  6
AUSGEZOGEN
 10
 800.0000
 20
  40.0000
 11
 800.0000
 21
 930.0000
  0
LINE
  8
200
  6
AUSGEZOGEN
 10
 810.0000
 20
 930.0000
 11
 810.0000
 21
  40.0000
  0
LINE
  8
200
  6
AUSGEZOGEN
 10
2450.0000
 20
  40.0000
 11
   0.0000
 21
  40.0000
  0
LINE
  8
200
  6
AUSGEZOGEN
 10
   0.0000
 20
   0.0000
 11
2450.0000
 21
   0.0000
  0
LINE
  8
200
  6
AUSGEZOGEN
 10
2450.0000
 20
 930.0000
 11
   0.0000
 21
 930.0000
  0
LINE
  8
200
  6
AUSGEZOGEN
 10
2450.0000
 20
   0.0000
 11
2450.0000
 21
 930.0000
  0
LINE
  8
200
  6
AUSGEZOGEN
 10
   0.0000
 20
 930.0000
 11
   0.0000
 21
   0.0000
  0
TEXT
  8
400
 10
3062.5000
 20
 810.0000
 40
  45.0000
  1
EZ: 230V 50Hz, Kabellänge 2,5m 0,04kW
 50
   0.0000
 41
   0.6000
  7
STANDARD
  0
TEXT
  8
410
 10
3062.5000
 20
 330.0000
 40
  45.0000
  1
TWk: DN15
 50
   0.0000
 41
   0.6000
  7
STANDARD
  0
TEXT
  8
420
 10
3062.5000
 20
 450.0000
 40
  45.0000
  1
A: DN50 Trichterablauf, unter Boden baus. syphoniert
 50
   0.0000
 41
   0.6000
  7
STANDARD
  0
TEXT
  8
440
 10
3062.5000
 20
 690.0000
 40
  45.0000
  1
KL: DN8 Saugleitung
 50
   0.0000
 41
   0.6000
  7
STANDARD
  0
TEXT
  8
440
 10
3062.5000
 20
 570.0000
 40
  45.0000
  1
KL: DN6 Flüssigkeitsleitung
 50
   0.0000
 41
   0.6000
  7
STANDARD
  0
ATTDEF
  8
550
 10
10.0
 20
100.0
 30
0.0
 40
30
  1
CCO-GTO732080-MS
  2
CCO-GTO732080-MSV
  3
HKI-Nummer
 70
1
  0
TEXT
  8
510
 10
10.0
 20
-45.0
 30
0.0
 40
30
  1
CCO-GTO732080-MS
 50
0.0
 41
1.0
  7
STANDARD
  0
ENDSEC
  0
EOF
