  0
SECTION
  2
HEADER
  9
$ACADVER
  1
AC1009
  9
$INSBASE
 10
   0.0000
 20
 700.0000
 30
    0.0
  9
$EXTMIN
 10
-210.0000
 20
-119.5000
 30
   0.0000
  9
$EXTMAX
 10
4098.0730
 20
 700.0000
 30
   0.0000
  9
$LTSCALE
 40
1.00
  9
$PSLTSCALE
 70
1
  0
ENDSEC
  0
SECTION
  2
TABLES
  0
TABLE
  2
LTYPE
 70
  5
  0
LTYPE
  2
AUSGEZOGEN
 70
 64
  3
AUSGEZOGEN
 72
 65
 73
  0
 40
0.0
  0
LTYPE
  2
PUNKTIERT
 70
 64
  3
Gepunktet
 72
 65
 73
  2
 40
30.0000
 49
0.0
 49
-30.0000
  0
LTYPE
  2
STRICHLIERT
 70
 64
  3
Strichliert
 72
 65
 73
  2
 40
80.0000
 49
50.0000
 49
-30.0000
  0
LTYPE
  2
STRICHPUNKT
 70
 64
  3
Strichpunktet
 72
 65
 73
  4
 40
160.0000
 49
100.0000
 49
-30.0000
 49
0.0
 49
-30.0000
  0
LTYPE
  2
STRICHPUNKTPUNKT
 70
 64
  3
Strichpunktpunktet
 72
 65
 73
  6
 40
190.0000
 49
100.0000
 49
-30.0000
 49
0.0
 49
-30.0000
 49
0.0
 49
-30.0000
  0
ENDTAB
  0
TABLE
  2
LAYER
 70
8
  0
LAYER
  2
550
 70
  0
 62
  2
  6
AUSGEZOGEN
  0
LAYER
  2
510
 70
  0
 62
  2
  6
AUSGEZOGEN
  0
LAYER
  2
0
 70
  0
 62
  1
  6
AUSGEZOGEN
  0
LAYER
  2
200
 70
  0
 62
  7
  6
AUSGEZOGEN
999
SWS-Layer-Line-Width
999
0.20
  0
LAYER
  2
400
 70
  0
 62
  4
  6
AUSGEZOGEN
999
SWS-Layer-Line-Width
999
0.30
  0
LAYER
  2
410
 70
  0
 62
  6
  6
AUSGEZOGEN
  0
LAYER
  2
440
 70
  0
 62
  4
  6
AUSGEZOGEN
  0
LAYER
  2
420
 70
  0
 62
  2
  6
AUSGEZOGEN
  0
ENDTAB
  0
TABLE
  2
STYLE
 70
  1
  0
STYLE
  2
STANDARD
 70
 64
 40
0.0
 41
1.0
 50
0.0
 71
  0
 42
30.0
  3
TXT.SHX
  4

  0
ENDTAB
  0
ENDSEC
  0
SECTION
  2
ENTITIES
  0
LINE
  8
400
  6
AUSGEZOGEN
 10
1850.0000
 20
 600.0000
 11
2611.5000
 21
 566.5000
  0
LINE
  8
400
  6
AUSGEZOGEN
 10
3538.7600
 20
 566.5000
 11
2611.5000
 21
 566.5000
  0
LINE
  8
400
  6
AUSGEZOGEN
 10
1850.0000
 20
 525.0000
 11
1850.0000
 21
 600.0000
  0
LINE
  8
400
  6
AUSGEZOGEN
 10
1850.0000
 20
 675.0000
 11
1850.0000
 21
 600.0000
  0
LINE
  8
400
  6
AUSGEZOGEN
 10
1775.0000
 20
 600.0000
 11
1850.0000
 21
 600.0000
  0
LINE
  8
400
  6
AUSGEZOGEN
 10
1925.0000
 20
 600.0000
 11
1850.0000
 21
 600.0000
  0
CIRCLE
  8
400
  6
AUSGEZOGEN
 10
1850.0000
 20
 600.0000
 40
  50.0000
  0
LINE
  8
410
  6
AUSGEZOGEN
 10
1850.0000
 20
 450.0000
 11
2611.5000
 21
  86.5000
  0
LINE
  8
410
  6
AUSGEZOGEN
 10
2854.7600
 20
  86.5000
 11
2611.5000
 21
  86.5000
  0
LINE
  8
410
  6
AUSGEZOGEN
 10
1850.0000
 20
 450.0000
 11
1850.0000
 21
 375.0000
  0
LINE
  8
410
  6
AUSGEZOGEN
 10
1850.0000
 20
 525.0000
 11
1850.0000
 21
 450.0000
  0
LINE
  8
410
  6
AUSGEZOGEN
 10
1775.0000
 20
 450.0000
 11
1850.0000
 21
 450.0000
  0
LINE
  8
410
  6
AUSGEZOGEN
 10
1925.0000
 20
 450.0000
 11
1850.0000
 21
 450.0000
  0
CIRCLE
  8
410
  6
AUSGEZOGEN
 10
1850.0000
 20
 450.0000
 40
  50.0000
  0
LINE
  8
420
  6
AUSGEZOGEN
 10
1850.0000
 20
 350.0000
 11
2611.5000
 21
 206.5000
  0
LINE
  8
420
  6
AUSGEZOGEN
 10
3916.4300
 20
 206.5000
 11
2611.5000
 21
 206.5000
  0
LINE
  8
420
  6
AUSGEZOGEN
 10
1850.0000
 20
 350.0000
 11
1850.0000
 21
 275.0000
  0
LINE
  8
420
  6
AUSGEZOGEN
 10
1850.0000
 20
 425.0000
 11
1850.0000
 21
 350.0000
  0
LINE
  8
420
  6
AUSGEZOGEN
 10
1775.0000
 20
 350.0000
 11
1850.0000
 21
 350.0000
  0
LINE
  8
420
  6
AUSGEZOGEN
 10
1925.0000
 20
 350.0000
 11
1850.0000
 21
 350.0000
  0
CIRCLE
  8
420
  6
AUSGEZOGEN
 10
1850.0000
 20
 350.0000
 40
  50.0000
  0
LINE
  8
440
  6
AUSGEZOGEN
 10
1850.0000
 20
 275.0000
 11
2611.5000
 21
 446.5000
  0
LINE
  8
440
  6
AUSGEZOGEN
 10
3088.5300
 20
 446.5000
 11
2611.5000
 21
 446.5000
  0
LINE
  8
440
  6
AUSGEZOGEN
 10
1850.0000
 20
 200.0000
 11
1850.0000
 21
 275.0000
  0
LINE
  8
440
  6
AUSGEZOGEN
 10
1850.0000
 20
 350.0000
 11
1850.0000
 21
 275.0000
  0
LINE
  8
440
  6
AUSGEZOGEN
 10
1775.0000
 20
 275.0000
 11
1850.0000
 21
 275.0000
  0
LINE
  8
440
  6
AUSGEZOGEN
 10
1925.0000
 20
 275.0000
 11
1850.0000
 21
 275.0000
  0
CIRCLE
  8
440
  6
AUSGEZOGEN
 10
1850.0000
 20
 275.0000
 40
  50.0000
  0
LINE
  8
440
  6
AUSGEZOGEN
 10
1850.0000
 20
 225.0000
 11
2611.5000
 21
 326.5000
  0
LINE
  8
440
  6
AUSGEZOGEN
 10
3255.1100
 20
 326.5000
 11
2611.5000
 21
 326.5000
  0
LINE
  8
440
  6
AUSGEZOGEN
 10
1850.0000
 20
 150.0000
 11
1850.0000
 21
 225.0000
  0
LINE
  8
440
  6
AUSGEZOGEN
 10
1850.0000
 20
 300.0000
 11
1850.0000
 21
 225.0000
  0
LINE
  8
440
  6
AUSGEZOGEN
 10
1775.0000
 20
 225.0000
 11
1850.0000
 21
 225.0000
  0
LINE
  8
440
  6
AUSGEZOGEN
 10
1925.0000
 20
 225.0000
 11
1850.0000
 21
 225.0000
  0
CIRCLE
  8
440
  6
AUSGEZOGEN
 10
1850.0000
 20
 225.0000
 40
  50.0000
  0
LINE
  8
200
  6
AUSGEZOGEN
 10
1687.0000
 20
 569.1600
 11
1687.0000
 21
 560.8400
  0
LINE
  8
200
  6
AUSGEZOGEN
 10
1682.8400
 20
 553.1600
 11
1687.0000
 21
 560.8400
  0
LINE
  8
200
  6
AUSGEZOGEN
 10
1675.1600
 20
 549.0000
 11
1682.8400
 21
 553.1600
  0
LINE
  8
200
  6
AUSGEZOGEN
 10
1666.8400
 20
 549.0000
 11
1675.1600
 21
 549.0000
  0
LINE
  8
200
  6
AUSGEZOGEN
 10
1659.1600
 20
 553.1600
 11
1666.8400
 21
 549.0000
  0
LINE
  8
200
  6
AUSGEZOGEN
 10
1655.0000
 20
 560.8400
 11
1659.1600
 21
 553.1600
  0
LINE
  8
200
  6
AUSGEZOGEN
 10
1659.1600
 20
 576.8400
 11
1655.0000
 21
 569.1600
  0
LINE
  8
200
  6
AUSGEZOGEN
 10
1666.8400
 20
 581.0000
 11
1659.1600
 21
 576.8400
  0
LINE
  8
200
  6
AUSGEZOGEN
 10
1682.8400
 20
 576.8400
 11
1675.1600
 21
 581.0000
  0
LINE
  8
200
  6
AUSGEZOGEN
 10
1687.0000
 20
 569.1600
 11
1682.8400
 21
 576.8400
  0
LINE
  8
200
  6
AUSGEZOGEN
 10
1655.0000
 20
 560.8400
 11
1655.0000
 21
 569.1600
  0
LINE
  8
200
  6
AUSGEZOGEN
 10
1675.1600
 20
 581.0000
 11
1666.8400
 21
 581.0000
  0
LINE
  8
200
  6
AUSGEZOGEN
 10
1569.5000
 20
  86.5000
 11
1576.0000
 21
  98.5000
  0
LINE
  8
200
  6
AUSGEZOGEN
 10
1557.5000
 20
  80.0000
 11
1569.5000
 21
  86.5000
  0
LINE
  8
200
  6
AUSGEZOGEN
 10
 582.5000
 20
  86.5000
 11
 594.5000
 21
  80.0000
  0
LINE
  8
200
  6
AUSGEZOGEN
 10
 576.0000
 20
  98.5000
 11
 582.5000
 21
  86.5000
  0
LINE
  8
200
  6
AUSGEZOGEN
 10
 576.0000
 20
 361.5000
 11
 576.0000
 21
  98.5000
  0
LINE
  8
200
  6
AUSGEZOGEN
 10
 582.5000
 20
 373.5000
 11
 576.0000
 21
 361.5000
  0
LINE
  8
200
  6
AUSGEZOGEN
 10
 594.5000
 20
 380.0000
 11
 582.5000
 21
 373.5000
  0
LINE
  8
200
  6
AUSGEZOGEN
 10
1557.5000
 20
 380.0000
 11
 594.5000
 21
 380.0000
  0
LINE
  8
200
  6
AUSGEZOGEN
 10
1569.5000
 20
 373.5000
 11
1557.5000
 21
 380.0000
  0
LINE
  8
200
  6
AUSGEZOGEN
 10
1576.0000
 20
 361.5000
 11
1569.5000
 21
 373.5000
  0
LINE
  8
200
  6
AUSGEZOGEN
 10
 621.0000
 20
 345.8600
 11
 621.0000
 21
 354.1400
  0
LINE
  8
200
  6
AUSGEZOGEN
 10
 606.8600
 20
 360.0000
 11
 615.1400
 21
 360.0000
  0
LINE
  8
200
  6
AUSGEZOGEN
 10
 601.0000
 20
 345.8600
 11
 601.0000
 21
 354.1400
  0
LINE
  8
200
  6
AUSGEZOGEN
 10
 615.1400
 20
 340.0000
 11
 606.8600
 21
 340.0000
  0
LINE
  8
200
  6
AUSGEZOGEN
 10
1041.0000
 20
 354.1400
 11
1041.0000
 21
 345.8600
  0
LINE
  8
200
  6
AUSGEZOGEN
 10
1026.8600
 20
 360.0000
 11
1035.1400
 21
 360.0000
  0
LINE
  8
200
  6
AUSGEZOGEN
 10
1021.0000
 20
 345.8600
 11
1021.0000
 21
 354.1400
  0
LINE
  8
200
  6
AUSGEZOGEN
 10
1035.1400
 20
 340.0000
 11
1026.8600
 21
 340.0000
  0
LINE
  8
200
  6
AUSGEZOGEN
 10
1011.0000
 20
 354.1400
 11
1011.0000
 21
 345.8600
  0
LINE
  8
200
  6
AUSGEZOGEN
 10
 996.8600
 20
 360.0000
 11
1005.1400
 21
 360.0000
  0
LINE
  8
200
  6
AUSGEZOGEN
 10
 991.0000
 20
 345.8600
 11
 991.0000
 21
 354.1400
  0
LINE
  8
200
  6
AUSGEZOGEN
 10
1005.1400
 20
 340.0000
 11
 996.8600
 21
 340.0000
  0
LINE
  8
200
  6
AUSGEZOGEN
 10
 981.0000
 20
 354.1400
 11
 981.0000
 21
 345.8600
  0
LINE
  8
200
  6
AUSGEZOGEN
 10
 966.8600
 20
 360.0000
 11
 975.1400
 21
 360.0000
  0
LINE
  8
200
  6
AUSGEZOGEN
 10
 961.0000
 20
 345.8600
 11
 961.0000
 21
 354.1400
  0
LINE
  8
200
  6
AUSGEZOGEN
 10
 975.1400
 20
 340.0000
 11
 966.8600
 21
 340.0000
  0
LINE
  8
200
  6
AUSGEZOGEN
 10
 951.0000
 20
 354.1400
 11
 951.0000
 21
 345.8600
  0
LINE
  8
200
  6
AUSGEZOGEN
 10
 936.8600
 20
 360.0000
 11
 945.1400
 21
 360.0000
  0
LINE
  8
200
  6
AUSGEZOGEN
 10
 931.0000
 20
 345.8600
 11
 931.0000
 21
 354.1400
  0
LINE
  8
200
  6
AUSGEZOGEN
 10
 945.1400
 20
 340.0000
 11
 936.8600
 21
 340.0000
  0
LINE
  8
200
  6
AUSGEZOGEN
 10
 921.0000
 20
 354.1400
 11
 921.0000
 21
 345.8600
  0
LINE
  8
200
  6
AUSGEZOGEN
 10
 906.8600
 20
 360.0000
 11
 915.1400
 21
 360.0000
  0
LINE
  8
200
  6
AUSGEZOGEN
 10
 901.0000
 20
 345.8600
 11
 901.0000
 21
 354.1400
  0
LINE
  8
200
  6
AUSGEZOGEN
 10
 915.1400
 20
 340.0000
 11
 906.8600
 21
 340.0000
  0
LINE
  8
200
  6
AUSGEZOGEN
 10
 891.0000
 20
 354.1400
 11
 891.0000
 21
 345.8600
  0
LINE
  8
200
  6
AUSGEZOGEN
 10
 876.8600
 20
 360.0000
 11
 885.1400
 21
 360.0000
  0
LINE
  8
200
  6
AUSGEZOGEN
 10
 871.0000
 20
 345.8600
 11
 871.0000
 21
 354.1400
  0
LINE
  8
200
  6
AUSGEZOGEN
 10
 885.1400
 20
 340.0000
 11
 876.8600
 21
 340.0000
  0
LINE
  8
200
  6
AUSGEZOGEN
 10
 861.0000
 20
 354.1400
 11
 861.0000
 21
 345.8600
  0
LINE
  8
200
  6
AUSGEZOGEN
 10
 846.8600
 20
 360.0000
 11
 855.1400
 21
 360.0000
  0
LINE
  8
200
  6
AUSGEZOGEN
 10
 841.0000
 20
 345.8600
 11
 841.0000
 21
 354.1400
  0
LINE
  8
200
  6
AUSGEZOGEN
 10
 855.1400
 20
 340.0000
 11
 846.8600
 21
 340.0000
  0
LINE
  8
200
  6
AUSGEZOGEN
 10
 831.0000
 20
 354.1400
 11
 831.0000
 21
 345.8600
  0
LINE
  8
200
  6
AUSGEZOGEN
 10
 816.8600
 20
 360.0000
 11
 825.1400
 21
 360.0000
  0
LINE
  8
200
  6
AUSGEZOGEN
 10
 811.0000
 20
 345.8600
 11
 811.0000
 21
 354.1400
  0
LINE
  8
200
  6
AUSGEZOGEN
 10
 825.1400
 20
 340.0000
 11
 816.8600
 21
 340.0000
  0
LINE
  8
200
  6
AUSGEZOGEN
 10
 801.0000
 20
 354.1400
 11
 801.0000
 21
 345.8600
  0
LINE
  8
200
  6
AUSGEZOGEN
 10
 786.8600
 20
 360.0000
 11
 795.1400
 21
 360.0000
  0
LINE
  8
200
  6
AUSGEZOGEN
 10
 781.0000
 20
 345.8600
 11
 781.0000
 21
 354.1400
  0
LINE
  8
200
  6
AUSGEZOGEN
 10
 795.1400
 20
 340.0000
 11
 786.8600
 21
 340.0000
  0
LINE
  8
200
  6
AUSGEZOGEN
 10
 771.0000
 20
 354.1400
 11
 771.0000
 21
 345.8600
  0
LINE
  8
200
  6
AUSGEZOGEN
 10
 756.8600
 20
 360.0000
 11
 765.1400
 21
 360.0000
  0
LINE
  8
200
  6
AUSGEZOGEN
 10
 751.0000
 20
 345.8600
 11
 751.0000
 21
 354.1400
  0
LINE
  8
200
  6
AUSGEZOGEN
 10
 765.1400
 20
 340.0000
 11
 756.8600
 21
 340.0000
  0
LINE
  8
200
  6
AUSGEZOGEN
 10
 741.0000
 20
 354.1400
 11
 741.0000
 21
 345.8600
  0
LINE
  8
200
  6
AUSGEZOGEN
 10
 726.8600
 20
 360.0000
 11
 735.1400
 21
 360.0000
  0
LINE
  8
200
  6
AUSGEZOGEN
 10
 721.0000
 20
 345.8600
 11
 721.0000
 21
 354.1400
  0
LINE
  8
200
  6
AUSGEZOGEN
 10
 735.1400
 20
 340.0000
 11
 726.8600
 21
 340.0000
  0
LINE
  8
200
  6
AUSGEZOGEN
 10
 711.0000
 20
 354.1400
 11
 711.0000
 21
 345.8600
  0
LINE
  8
200
  6
AUSGEZOGEN
 10
 696.8600
 20
 360.0000
 11
 705.1400
 21
 360.0000
  0
LINE
  8
200
  6
AUSGEZOGEN
 10
 691.0000
 20
 345.8600
 11
 691.0000
 21
 354.1400
  0
LINE
  8
200
  6
AUSGEZOGEN
 10
 705.1400
 20
 340.0000
 11
 696.8600
 21
 340.0000
  0
LINE
  8
200
  6
AUSGEZOGEN
 10
 681.0000
 20
 354.1400
 11
 681.0000
 21
 345.8600
  0
LINE
  8
200
  6
AUSGEZOGEN
 10
 666.8600
 20
 360.0000
 11
 675.1400
 21
 360.0000
  0
LINE
  8
200
  6
AUSGEZOGEN
 10
 661.0000
 20
 345.8600
 11
 661.0000
 21
 354.1400
  0
LINE
  8
200
  6
AUSGEZOGEN
 10
 675.1400
 20
 340.0000
 11
 666.8600
 21
 340.0000
  0
LINE
  8
200
  6
AUSGEZOGEN
 10
 651.0000
 20
 354.1400
 11
 651.0000
 21
 345.8600
  0
LINE
  8
200
  6
AUSGEZOGEN
 10
 636.8600
 20
 360.0000
 11
 645.1400
 21
 360.0000
  0
LINE
  8
200
  6
AUSGEZOGEN
 10
 631.0000
 20
 345.8600
 11
 631.0000
 21
 354.1400
  0
LINE
  8
200
  6
AUSGEZOGEN
 10
 645.1400
 20
 340.0000
 11
 636.8600
 21
 340.0000
  0
LINE
  8
200
  6
AUSGEZOGEN
 10
 621.0000
 20
 315.8600
 11
 621.0000
 21
 324.1400
  0
LINE
  8
200
  6
AUSGEZOGEN
 10
 606.8600
 20
 330.0000
 11
 615.1400
 21
 330.0000
  0
LINE
  8
200
  6
AUSGEZOGEN
 10
 601.0000
 20
 315.8600
 11
 601.0000
 21
 324.1400
  0
LINE
  8
200
  6
AUSGEZOGEN
 10
 615.1400
 20
 310.0000
 11
 606.8600
 21
 310.0000
  0
LINE
  8
200
  6
AUSGEZOGEN
 10
1041.0000
 20
 324.1400
 11
1041.0000
 21
 315.8600
  0
LINE
  8
200
  6
AUSGEZOGEN
 10
1026.8600
 20
 330.0000
 11
1035.1400
 21
 330.0000
  0
LINE
  8
200
  6
AUSGEZOGEN
 10
1021.0000
 20
 315.8600
 11
1021.0000
 21
 324.1400
  0
LINE
  8
200
  6
AUSGEZOGEN
 10
1035.1400
 20
 310.0000
 11
1026.8600
 21
 310.0000
  0
LINE
  8
200
  6
AUSGEZOGEN
 10
1011.0000
 20
 324.1400
 11
1011.0000
 21
 315.8600
  0
LINE
  8
200
  6
AUSGEZOGEN
 10
 996.8600
 20
 330.0000
 11
1005.1400
 21
 330.0000
  0
LINE
  8
200
  6
AUSGEZOGEN
 10
 991.0000
 20
 315.8600
 11
 991.0000
 21
 324.1400
  0
LINE
  8
200
  6
AUSGEZOGEN
 10
1005.1400
 20
 310.0000
 11
 996.8600
 21
 310.0000
  0
LINE
  8
200
  6
AUSGEZOGEN
 10
 981.0000
 20
 324.1400
 11
 981.0000
 21
 315.8600
  0
LINE
  8
200
  6
AUSGEZOGEN
 10
 966.8600
 20
 330.0000
 11
 975.1400
 21
 330.0000
  0
LINE
  8
200
  6
AUSGEZOGEN
 10
 961.0000
 20
 315.8600
 11
 961.0000
 21
 324.1400
  0
LINE
  8
200
  6
AUSGEZOGEN
 10
 975.1400
 20
 310.0000
 11
 966.8600
 21
 310.0000
  0
LINE
  8
200
  6
AUSGEZOGEN
 10
 951.0000
 20
 324.1400
 11
 951.0000
 21
 315.8600
  0
LINE
  8
200
  6
AUSGEZOGEN
 10
 936.8600
 20
 330.0000
 11
 945.1400
 21
 330.0000
  0
LINE
  8
200
  6
AUSGEZOGEN
 10
 931.0000
 20
 315.8600
 11
 931.0000
 21
 324.1400
  0
LINE
  8
200
  6
AUSGEZOGEN
 10
 945.1400
 20
 310.0000
 11
 936.8600
 21
 310.0000
  0
LINE
  8
200
  6
AUSGEZOGEN
 10
 921.0000
 20
 324.1400
 11
 921.0000
 21
 315.8600
  0
LINE
  8
200
  6
AUSGEZOGEN
 10
 906.8600
 20
 330.0000
 11
 915.1400
 21
 330.0000
  0
LINE
  8
200
  6
AUSGEZOGEN
 10
 901.0000
 20
 315.8600
 11
 901.0000
 21
 324.1400
  0
LINE
  8
200
  6
AUSGEZOGEN
 10
 915.1400
 20
 310.0000
 11
 906.8600
 21
 310.0000
  0
LINE
  8
200
  6
AUSGEZOGEN
 10
 891.0000
 20
 324.1400
 11
 891.0000
 21
 315.8600
  0
LINE
  8
200
  6
AUSGEZOGEN
 10
 876.8600
 20
 330.0000
 11
 885.1400
 21
 330.0000
  0
LINE
  8
200
  6
AUSGEZOGEN
 10
 871.0000
 20
 315.8600
 11
 871.0000
 21
 324.1400
  0
LINE
  8
200
  6
AUSGEZOGEN
 10
 885.1400
 20
 310.0000
 11
 876.8600
 21
 310.0000
  0
LINE
  8
200
  6
AUSGEZOGEN
 10
 861.0000
 20
 324.1400
 11
 861.0000
 21
 315.8600
  0
LINE
  8
200
  6
AUSGEZOGEN
 10
 846.8600
 20
 330.0000
 11
 855.1400
 21
 330.0000
  0
LINE
  8
200
  6
AUSGEZOGEN
 10
 841.0000
 20
 315.8600
 11
 841.0000
 21
 324.1400
  0
LINE
  8
200
  6
AUSGEZOGEN
 10
 855.1400
 20
 310.0000
 11
 846.8600
 21
 310.0000
  0
LINE
  8
200
  6
AUSGEZOGEN
 10
 831.0000
 20
 324.1400
 11
 831.0000
 21
 315.8600
  0
LINE
  8
200
  6
AUSGEZOGEN
 10
 816.8600
 20
 330.0000
 11
 825.1400
 21
 330.0000
  0
LINE
  8
200
  6
AUSGEZOGEN
 10
 811.0000
 20
 315.8600
 11
 811.0000
 21
 324.1400
  0
LINE
  8
200
  6
AUSGEZOGEN
 10
 825.1400
 20
 310.0000
 11
 816.8600
 21
 310.0000
  0
LINE
  8
200
  6
AUSGEZOGEN
 10
 801.0000
 20
 324.1400
 11
 801.0000
 21
 315.8600
  0
LINE
  8
200
  6
AUSGEZOGEN
 10
 786.8600
 20
 330.0000
 11
 795.1400
 21
 330.0000
  0
LINE
  8
200
  6
AUSGEZOGEN
 10
 781.0000
 20
 315.8600
 11
 781.0000
 21
 324.1400
  0
LINE
  8
200
  6
AUSGEZOGEN
 10
 795.1400
 20
 310.0000
 11
 786.8600
 21
 310.0000
  0
LINE
  8
200
  6
AUSGEZOGEN
 10
 771.0000
 20
 324.1400
 11
 771.0000
 21
 315.8600
  0
LINE
  8
200
  6
AUSGEZOGEN
 10
 756.8600
 20
 330.0000
 11
 765.1400
 21
 330.0000
  0
LINE
  8
200
  6
AUSGEZOGEN
 10
 751.0000
 20
 315.8600
 11
 751.0000
 21
 324.1400
  0
LINE
  8
200
  6
AUSGEZOGEN
 10
 765.1400
 20
 310.0000
 11
 756.8600
 21
 310.0000
  0
LINE
  8
200
  6
AUSGEZOGEN
 10
 741.0000
 20
 324.1400
 11
 741.0000
 21
 315.8600
  0
LINE
  8
200
  6
AUSGEZOGEN
 10
 726.8600
 20
 330.0000
 11
 735.1400
 21
 330.0000
  0
LINE
  8
200
  6
AUSGEZOGEN
 10
 721.0000
 20
 315.8600
 11
 721.0000
 21
 324.1400
  0
LINE
  8
200
  6
AUSGEZOGEN
 10
 735.1400
 20
 310.0000
 11
 726.8600
 21
 310.0000
  0
LINE
  8
200
  6
AUSGEZOGEN
 10
 711.0000
 20
 324.1400
 11
 711.0000
 21
 315.8600
  0
LINE
  8
200
  6
AUSGEZOGEN
 10
 696.8600
 20
 330.0000
 11
 705.1400
 21
 330.0000
  0
LINE
  8
200
  6
AUSGEZOGEN
 10
 691.0000
 20
 315.8600
 11
 691.0000
 21
 324.1400
  0
LINE
  8
200
  6
AUSGEZOGEN
 10
 705.1400
 20
 310.0000
 11
 696.8600
 21
 310.0000
  0
LINE
  8
200
  6
AUSGEZOGEN
 10
 681.0000
 20
 324.1400
 11
 681.0000
 21
 315.8600
  0
LINE
  8
200
  6
AUSGEZOGEN
 10
 666.8600
 20
 330.0000
 11
 675.1400
 21
 330.0000
  0
LINE
  8
200
  6
AUSGEZOGEN
 10
 661.0000
 20
 315.8600
 11
 661.0000
 21
 324.1400
  0
LINE
  8
200
  6
AUSGEZOGEN
 10
 675.1400
 20
 310.0000
 11
 666.8600
 21
 310.0000
  0
LINE
  8
200
  6
AUSGEZOGEN
 10
 651.0000
 20
 324.1400
 11
 651.0000
 21
 315.8600
  0
LINE
  8
200
  6
AUSGEZOGEN
 10
 636.8600
 20
 330.0000
 11
 645.1400
 21
 330.0000
  0
LINE
  8
200
  6
AUSGEZOGEN
 10
 631.0000
 20
 315.8600
 11
 631.0000
 21
 324.1400
  0
LINE
  8
200
  6
AUSGEZOGEN
 10
 645.1400
 20
 310.0000
 11
 636.8600
 21
 310.0000
  0
LINE
  8
200
  6
AUSGEZOGEN
 10
 621.0000
 20
 285.8600
 11
 621.0000
 21
 294.1400
  0
LINE
  8
200
  6
AUSGEZOGEN
 10
 606.8600
 20
 300.0000
 11
 615.1400
 21
 300.0000
  0
LINE
  8
200
  6
AUSGEZOGEN
 10
 601.0000
 20
 285.8600
 11
 601.0000
 21
 294.1400
  0
LINE
  8
200
  6
AUSGEZOGEN
 10
 615.1400
 20
 280.0000
 11
 606.8600
 21
 280.0000
  0
LINE
  8
200
  6
AUSGEZOGEN
 10
1041.0000
 20
 294.1400
 11
1041.0000
 21
 285.8600
  0
LINE
  8
200
  6
AUSGEZOGEN
 10
1026.8600
 20
 300.0000
 11
1035.1400
 21
 300.0000
  0
LINE
  8
200
  6
AUSGEZOGEN
 10
1021.0000
 20
 285.8600
 11
1021.0000
 21
 294.1400
  0
LINE
  8
200
  6
AUSGEZOGEN
 10
1035.1400
 20
 280.0000
 11
1026.8600
 21
 280.0000
  0
LINE
  8
200
  6
AUSGEZOGEN
 10
1011.0000
 20
 294.1400
 11
1011.0000
 21
 285.8600
  0
LINE
  8
200
  6
AUSGEZOGEN
 10
 996.8600
 20
 300.0000
 11
1005.1400
 21
 300.0000
  0
LINE
  8
200
  6
AUSGEZOGEN
 10
 991.0000
 20
 285.8600
 11
 991.0000
 21
 294.1400
  0
LINE
  8
200
  6
AUSGEZOGEN
 10
1005.1400
 20
 280.0000
 11
 996.8600
 21
 280.0000
  0
LINE
  8
200
  6
AUSGEZOGEN
 10
 981.0000
 20
 294.1400
 11
 981.0000
 21
 285.8600
  0
LINE
  8
200
  6
AUSGEZOGEN
 10
 966.8600
 20
 300.0000
 11
 975.1400
 21
 300.0000
  0
LINE
  8
200
  6
AUSGEZOGEN
 10
 961.0000
 20
 285.8600
 11
 961.0000
 21
 294.1400
  0
LINE
  8
200
  6
AUSGEZOGEN
 10
 975.1400
 20
 280.0000
 11
 966.8600
 21
 280.0000
  0
LINE
  8
200
  6
AUSGEZOGEN
 10
 951.0000
 20
 294.1400
 11
 951.0000
 21
 285.8600
  0
LINE
  8
200
  6
AUSGEZOGEN
 10
 936.8600
 20
 300.0000
 11
 945.1400
 21
 300.0000
  0
LINE
  8
200
  6
AUSGEZOGEN
 10
 931.0000
 20
 285.8600
 11
 931.0000
 21
 294.1400
  0
LINE
  8
200
  6
AUSGEZOGEN
 10
 945.1400
 20
 280.0000
 11
 936.8600
 21
 280.0000
  0
LINE
  8
200
  6
AUSGEZOGEN
 10
 921.0000
 20
 294.1400
 11
 921.0000
 21
 285.8600
  0
LINE
  8
200
  6
AUSGEZOGEN
 10
 906.8600
 20
 300.0000
 11
 915.1400
 21
 300.0000
  0
LINE
  8
200
  6
AUSGEZOGEN
 10
 901.0000
 20
 285.8600
 11
 901.0000
 21
 294.1400
  0
LINE
  8
200
  6
AUSGEZOGEN
 10
 915.1400
 20
 280.0000
 11
 906.8600
 21
 280.0000
  0
LINE
  8
200
  6
AUSGEZOGEN
 10
 891.0000
 20
 294.1400
 11
 891.0000
 21
 285.8600
  0
LINE
  8
200
  6
AUSGEZOGEN
 10
 876.8600
 20
 300.0000
 11
 885.1400
 21
 300.0000
  0
LINE
  8
200
  6
AUSGEZOGEN
 10
 871.0000
 20
 285.8600
 11
 871.0000
 21
 294.1400
  0
LINE
  8
200
  6
AUSGEZOGEN
 10
 885.1400
 20
 280.0000
 11
 876.8600
 21
 280.0000
  0
LINE
  8
200
  6
AUSGEZOGEN
 10
 861.0000
 20
 294.1400
 11
 861.0000
 21
 285.8600
  0
LINE
  8
200
  6
AUSGEZOGEN
 10
 846.8600
 20
 300.0000
 11
 855.1400
 21
 300.0000
  0
LINE
  8
200
  6
AUSGEZOGEN
 10
 841.0000
 20
 285.8600
 11
 841.0000
 21
 294.1400
  0
LINE
  8
200
  6
AUSGEZOGEN
 10
 855.1400
 20
 280.0000
 11
 846.8600
 21
 280.0000
  0
LINE
  8
200
  6
AUSGEZOGEN
 10
 831.0000
 20
 294.1400
 11
 831.0000
 21
 285.8600
  0
LINE
  8
200
  6
AUSGEZOGEN
 10
 816.8600
 20
 300.0000
 11
 825.1400
 21
 300.0000
  0
LINE
  8
200
  6
AUSGEZOGEN
 10
 811.0000
 20
 285.8600
 11
 811.0000
 21
 294.1400
  0
LINE
  8
200
  6
AUSGEZOGEN
 10
 825.1400
 20
 280.0000
 11
 816.8600
 21
 280.0000
  0
LINE
  8
200
  6
AUSGEZOGEN
 10
 801.0000
 20
 294.1400
 11
 801.0000
 21
 285.8600
  0
LINE
  8
200
  6
AUSGEZOGEN
 10
 786.8600
 20
 300.0000
 11
 795.1400
 21
 300.0000
  0
LINE
  8
200
  6
AUSGEZOGEN
 10
 781.0000
 20
 285.8600
 11
 781.0000
 21
 294.1400
  0
LINE
  8
200
  6
AUSGEZOGEN
 10
 795.1400
 20
 280.0000
 11
 786.8600
 21
 280.0000
  0
LINE
  8
200
  6
AUSGEZOGEN
 10
 771.0000
 20
 294.1400
 11
 771.0000
 21
 285.8600
  0
LINE
  8
200
  6
AUSGEZOGEN
 10
 756.8600
 20
 300.0000
 11
 765.1400
 21
 300.0000
  0
LINE
  8
200
  6
AUSGEZOGEN
 10
 751.0000
 20
 285.8600
 11
 751.0000
 21
 294.1400
  0
LINE
  8
200
  6
AUSGEZOGEN
 10
 765.1400
 20
 280.0000
 11
 756.8600
 21
 280.0000
  0
LINE
  8
200
  6
AUSGEZOGEN
 10
 741.0000
 20
 294.1400
 11
 741.0000
 21
 285.8600
  0
LINE
  8
200
  6
AUSGEZOGEN
 10
 726.8600
 20
 300.0000
 11
 735.1400
 21
 300.0000
  0
LINE
  8
200
  6
AUSGEZOGEN
 10
 721.0000
 20
 285.8600
 11
 721.0000
 21
 294.1400
  0
LINE
  8
200
  6
AUSGEZOGEN
 10
 735.1400
 20
 280.0000
 11
 726.8600
 21
 280.0000
  0
LINE
  8
200
  6
AUSGEZOGEN
 10
 711.0000
 20
 294.1400
 11
 711.0000
 21
 285.8600
  0
LINE
  8
200
  6
AUSGEZOGEN
 10
 696.8600
 20
 300.0000
 11
 705.1400
 21
 300.0000
  0
LINE
  8
200
  6
AUSGEZOGEN
 10
 691.0000
 20
 285.8600
 11
 691.0000
 21
 294.1400
  0
LINE
  8
200
  6
AUSGEZOGEN
 10
 705.1400
 20
 280.0000
 11
 696.8600
 21
 280.0000
  0
LINE
  8
200
  6
AUSGEZOGEN
 10
 681.0000
 20
 294.1400
 11
 681.0000
 21
 285.8600
  0
LINE
  8
200
  6
AUSGEZOGEN
 10
 666.8600
 20
 300.0000
 11
 675.1400
 21
 300.0000
  0
LINE
  8
200
  6
AUSGEZOGEN
 10
 661.0000
 20
 285.8600
 11
 661.0000
 21
 294.1400
  0
LINE
  8
200
  6
AUSGEZOGEN
 10
 675.1400
 20
 280.0000
 11
 666.8600
 21
 280.0000
  0
LINE
  8
200
  6
AUSGEZOGEN
 10
 651.0000
 20
 294.1400
 11
 651.0000
 21
 285.8600
  0
LINE
  8
200
  6
AUSGEZOGEN
 10
 636.8600
 20
 300.0000
 11
 645.1400
 21
 300.0000
  0
LINE
  8
200
  6
AUSGEZOGEN
 10
 631.0000
 20
 285.8600
 11
 631.0000
 21
 294.1400
  0
LINE
  8
200
  6
AUSGEZOGEN
 10
 645.1400
 20
 280.0000
 11
 636.8600
 21
 280.0000
  0
LINE
  8
200
  6
AUSGEZOGEN
 10
1041.0000
 20
 105.8600
 11
1041.0000
 21
 114.1400
  0
LINE
  8
200
  6
AUSGEZOGEN
 10
1026.8600
 20
 120.0000
 11
1035.1400
 21
 120.0000
  0
LINE
  8
200
  6
AUSGEZOGEN
 10
1021.0000
 20
 105.8600
 11
1021.0000
 21
 114.1400
  0
LINE
  8
200
  6
AUSGEZOGEN
 10
1035.1400
 20
 100.0000
 11
1026.8600
 21
 100.0000
  0
LINE
  8
200
  6
AUSGEZOGEN
 10
1011.0000
 20
 114.1400
 11
1011.0000
 21
 105.8600
  0
LINE
  8
200
  6
AUSGEZOGEN
 10
 996.8600
 20
 120.0000
 11
1005.1400
 21
 120.0000
  0
LINE
  8
200
  6
AUSGEZOGEN
 10
 991.0000
 20
 105.8600
 11
 991.0000
 21
 114.1400
  0
LINE
  8
200
  6
AUSGEZOGEN
 10
1005.1400
 20
 100.0000
 11
 996.8600
 21
 100.0000
  0
LINE
  8
200
  6
AUSGEZOGEN
 10
 981.0000
 20
 114.1400
 11
 981.0000
 21
 105.8600
  0
LINE
  8
200
  6
AUSGEZOGEN
 10
 966.8600
 20
 120.0000
 11
 975.1400
 21
 120.0000
  0
LINE
  8
200
  6
AUSGEZOGEN
 10
 961.0000
 20
 105.8600
 11
 961.0000
 21
 114.1400
  0
LINE
  8
200
  6
AUSGEZOGEN
 10
 975.1400
 20
 100.0000
 11
 966.8600
 21
 100.0000
  0
LINE
  8
200
  6
AUSGEZOGEN
 10
 951.0000
 20
 114.1400
 11
 951.0000
 21
 105.8600
  0
LINE
  8
200
  6
AUSGEZOGEN
 10
 936.8600
 20
 120.0000
 11
 945.1400
 21
 120.0000
  0
LINE
  8
200
  6
AUSGEZOGEN
 10
 931.0000
 20
 105.8600
 11
 931.0000
 21
 114.1400
  0
LINE
  8
200
  6
AUSGEZOGEN
 10
 945.1400
 20
 100.0000
 11
 936.8600
 21
 100.0000
  0
LINE
  8
200
  6
AUSGEZOGEN
 10
 921.0000
 20
 114.1400
 11
 921.0000
 21
 105.8600
  0
LINE
  8
200
  6
AUSGEZOGEN
 10
 906.8600
 20
 120.0000
 11
 915.1400
 21
 120.0000
  0
LINE
  8
200
  6
AUSGEZOGEN
 10
 901.0000
 20
 105.8600
 11
 901.0000
 21
 114.1400
  0
LINE
  8
200
  6
AUSGEZOGEN
 10
 915.1400
 20
 100.0000
 11
 906.8600
 21
 100.0000
  0
LINE
  8
200
  6
AUSGEZOGEN
 10
 891.0000
 20
 114.1400
 11
 891.0000
 21
 105.8600
  0
LINE
  8
200
  6
AUSGEZOGEN
 10
 876.8600
 20
 120.0000
 11
 885.1400
 21
 120.0000
  0
LINE
  8
200
  6
AUSGEZOGEN
 10
 871.0000
 20
 105.8600
 11
 871.0000
 21
 114.1400
  0
LINE
  8
200
  6
AUSGEZOGEN
 10
 885.1400
 20
 100.0000
 11
 876.8600
 21
 100.0000
  0
LINE
  8
200
  6
AUSGEZOGEN
 10
 861.0000
 20
 114.1400
 11
 861.0000
 21
 105.8600
  0
LINE
  8
200
  6
AUSGEZOGEN
 10
 846.8600
 20
 120.0000
 11
 855.1400
 21
 120.0000
  0
LINE
  8
200
  6
AUSGEZOGEN
 10
 841.0000
 20
 105.8600
 11
 841.0000
 21
 114.1400
  0
LINE
  8
200
  6
AUSGEZOGEN
 10
 855.1400
 20
 100.0000
 11
 846.8600
 21
 100.0000
  0
LINE
  8
200
  6
AUSGEZOGEN
 10
 831.0000
 20
 114.1400
 11
 831.0000
 21
 105.8600
  0
LINE
  8
200
  6
AUSGEZOGEN
 10
 816.8600
 20
 120.0000
 11
 825.1400
 21
 120.0000
  0
LINE
  8
200
  6
AUSGEZOGEN
 10
 811.0000
 20
 105.8600
 11
 811.0000
 21
 114.1400
  0
LINE
  8
200
  6
AUSGEZOGEN
 10
 825.1400
 20
 100.0000
 11
 816.8600
 21
 100.0000
  0
LINE
  8
200
  6
AUSGEZOGEN
 10
 801.0000
 20
 114.1400
 11
 801.0000
 21
 105.8600
  0
LINE
  8
200
  6
AUSGEZOGEN
 10
 786.8600
 20
 120.0000
 11
 795.1400
 21
 120.0000
  0
LINE
  8
200
  6
AUSGEZOGEN
 10
 781.0000
 20
 105.8600
 11
 781.0000
 21
 114.1400
  0
LINE
  8
200
  6
AUSGEZOGEN
 10
 795.1400
 20
 100.0000
 11
 786.8600
 21
 100.0000
  0
LINE
  8
200
  6
AUSGEZOGEN
 10
 771.0000
 20
 114.1400
 11
 771.0000
 21
 105.8600
  0
LINE
  8
200
  6
AUSGEZOGEN
 10
 756.8600
 20
 120.0000
 11
 765.1400
 21
 120.0000
  0
LINE
  8
200
  6
AUSGEZOGEN
 10
 751.0000
 20
 105.8600
 11
 751.0000
 21
 114.1400
  0
LINE
  8
200
  6
AUSGEZOGEN
 10
 765.1400
 20
 100.0000
 11
 756.8600
 21
 100.0000
  0
LINE
  8
200
  6
AUSGEZOGEN
 10
 741.0000
 20
 114.1400
 11
 741.0000
 21
 105.8600
  0
LINE
  8
200
  6
AUSGEZOGEN
 10
 726.8600
 20
 120.0000
 11
 735.1400
 21
 120.0000
  0
LINE
  8
200
  6
AUSGEZOGEN
 10
 721.0000
 20
 105.8600
 11
 721.0000
 21
 114.1400
  0
LINE
  8
200
  6
AUSGEZOGEN
 10
 735.1400
 20
 100.0000
 11
 726.8600
 21
 100.0000
  0
LINE
  8
200
  6
AUSGEZOGEN
 10
 711.0000
 20
 114.1400
 11
 711.0000
 21
 105.8600
  0
LINE
  8
200
  6
AUSGEZOGEN
 10
 696.8600
 20
 120.0000
 11
 705.1400
 21
 120.0000
  0
LINE
  8
200
  6
AUSGEZOGEN
 10
 691.0000
 20
 105.8600
 11
 691.0000
 21
 114.1400
  0
LINE
  8
200
  6
AUSGEZOGEN
 10
 705.1400
 20
 100.0000
 11
 696.8600
 21
 100.0000
  0
LINE
  8
200
  6
AUSGEZOGEN
 10
 681.0000
 20
 114.1400
 11
 681.0000
 21
 105.8600
  0
LINE
  8
200
  6
AUSGEZOGEN
 10
 666.8600
 20
 120.0000
 11
 675.1400
 21
 120.0000
  0
LINE
  8
200
  6
AUSGEZOGEN
 10
 661.0000
 20
 105.8600
 11
 661.0000
 21
 114.1400
  0
LINE
  8
200
  6
AUSGEZOGEN
 10
 675.1400
 20
 100.0000
 11
 666.8600
 21
 100.0000
  0
LINE
  8
200
  6
AUSGEZOGEN
 10
 651.0000
 20
 114.1400
 11
 651.0000
 21
 105.8600
  0
LINE
  8
200
  6
AUSGEZOGEN
 10
 636.8600
 20
 120.0000
 11
 645.1400
 21
 120.0000
  0
LINE
  8
200
  6
AUSGEZOGEN
 10
 631.0000
 20
 105.8600
 11
 631.0000
 21
 114.1400
  0
LINE
  8
200
  6
AUSGEZOGEN
 10
 645.1400
 20
 100.0000
 11
 636.8600
 21
 100.0000
  0
LINE
  8
200
  6
AUSGEZOGEN
 10
 621.0000
 20
 114.1400
 11
 621.0000
 21
 105.8600
  0
LINE
  8
200
  6
AUSGEZOGEN
 10
 606.8600
 20
 120.0000
 11
 615.1400
 21
 120.0000
  0
LINE
  8
200
  6
AUSGEZOGEN
 10
 601.0000
 20
 105.8600
 11
 601.0000
 21
 114.1400
  0
LINE
  8
200
  6
AUSGEZOGEN
 10
 615.1400
 20
 100.0000
 11
 606.8600
 21
 100.0000
  0
LINE
  8
200
  6
AUSGEZOGEN
 10
 621.0000
 20
 144.1400
 11
 621.0000
 21
 135.8600
  0
LINE
  8
200
  6
AUSGEZOGEN
 10
 606.8600
 20
 150.0000
 11
 615.1400
 21
 150.0000
  0
LINE
  8
200
  6
AUSGEZOGEN
 10
 601.0000
 20
 135.8600
 11
 601.0000
 21
 144.1400
  0
LINE
  8
200
  6
AUSGEZOGEN
 10
 615.1400
 20
 130.0000
 11
 606.8600
 21
 130.0000
  0
LINE
  8
200
  6
AUSGEZOGEN
 10
 621.0000
 20
 174.1400
 11
 621.0000
 21
 165.8600
  0
LINE
  8
200
  6
AUSGEZOGEN
 10
 606.8600
 20
 180.0000
 11
 615.1400
 21
 180.0000
  0
LINE
  8
200
  6
AUSGEZOGEN
 10
 601.0000
 20
 165.8600
 11
 601.0000
 21
 174.1400
  0
LINE
  8
200
  6
AUSGEZOGEN
 10
 615.1400
 20
 160.0000
 11
 606.8600
 21
 160.0000
  0
LINE
  8
200
  6
AUSGEZOGEN
 10
 621.0000
 20
 204.1400
 11
 621.0000
 21
 195.8600
  0
LINE
  8
200
  6
AUSGEZOGEN
 10
 606.8600
 20
 210.0000
 11
 615.1400
 21
 210.0000
  0
LINE
  8
200
  6
AUSGEZOGEN
 10
 601.0000
 20
 195.8600
 11
 601.0000
 21
 204.1400
  0
LINE
  8
200
  6
AUSGEZOGEN
 10
 615.1400
 20
 190.0000
 11
 606.8600
 21
 190.0000
  0
LINE
  8
200
  6
AUSGEZOGEN
 10
 621.0000
 20
 234.1400
 11
 621.0000
 21
 225.8600
  0
LINE
  8
200
  6
AUSGEZOGEN
 10
 606.8600
 20
 240.0000
 11
 615.1400
 21
 240.0000
  0
LINE
  8
200
  6
AUSGEZOGEN
 10
 601.0000
 20
 225.8600
 11
 601.0000
 21
 234.1400
  0
LINE
  8
200
  6
AUSGEZOGEN
 10
 615.1400
 20
 220.0000
 11
 606.8600
 21
 220.0000
  0
LINE
  8
200
  6
AUSGEZOGEN
 10
1041.0000
 20
 135.8600
 11
1041.0000
 21
 144.1400
  0
LINE
  8
200
  6
AUSGEZOGEN
 10
1026.8600
 20
 150.0000
 11
1035.1400
 21
 150.0000
  0
LINE
  8
200
  6
AUSGEZOGEN
 10
1021.0000
 20
 135.8600
 11
1021.0000
 21
 144.1400
  0
LINE
  8
200
  6
AUSGEZOGEN
 10
1035.1400
 20
 130.0000
 11
1026.8600
 21
 130.0000
  0
LINE
  8
200
  6
AUSGEZOGEN
 10
1011.0000
 20
 144.1400
 11
1011.0000
 21
 135.8600
  0
LINE
  8
200
  6
AUSGEZOGEN
 10
 996.8600
 20
 150.0000
 11
1005.1400
 21
 150.0000
  0
LINE
  8
200
  6
AUSGEZOGEN
 10
 991.0000
 20
 135.8600
 11
 991.0000
 21
 144.1400
  0
LINE
  8
200
  6
AUSGEZOGEN
 10
1005.1400
 20
 130.0000
 11
 996.8600
 21
 130.0000
  0
LINE
  8
200
  6
AUSGEZOGEN
 10
 981.0000
 20
 144.1400
 11
 981.0000
 21
 135.8600
  0
LINE
  8
200
  6
AUSGEZOGEN
 10
 966.8600
 20
 150.0000
 11
 975.1400
 21
 150.0000
  0
LINE
  8
200
  6
AUSGEZOGEN
 10
 961.0000
 20
 135.8600
 11
 961.0000
 21
 144.1400
  0
LINE
  8
200
  6
AUSGEZOGEN
 10
 975.1400
 20
 130.0000
 11
 966.8600
 21
 130.0000
  0
LINE
  8
200
  6
AUSGEZOGEN
 10
 951.0000
 20
 144.1400
 11
 951.0000
 21
 135.8600
  0
LINE
  8
200
  6
AUSGEZOGEN
 10
 936.8600
 20
 150.0000
 11
 945.1400
 21
 150.0000
  0
LINE
  8
200
  6
AUSGEZOGEN
 10
 931.0000
 20
 135.8600
 11
 931.0000
 21
 144.1400
  0
LINE
  8
200
  6
AUSGEZOGEN
 10
 945.1400
 20
 130.0000
 11
 936.8600
 21
 130.0000
  0
LINE
  8
200
  6
AUSGEZOGEN
 10
 921.0000
 20
 144.1400
 11
 921.0000
 21
 135.8600
  0
LINE
  8
200
  6
AUSGEZOGEN
 10
 906.8600
 20
 150.0000
 11
 915.1400
 21
 150.0000
  0
LINE
  8
200
  6
AUSGEZOGEN
 10
 901.0000
 20
 135.8600
 11
 901.0000
 21
 144.1400
  0
LINE
  8
200
  6
AUSGEZOGEN
 10
 915.1400
 20
 130.0000
 11
 906.8600
 21
 130.0000
  0
LINE
  8
200
  6
AUSGEZOGEN
 10
 891.0000
 20
 144.1400
 11
 891.0000
 21
 135.8600
  0
LINE
  8
200
  6
AUSGEZOGEN
 10
 876.8600
 20
 150.0000
 11
 885.1400
 21
 150.0000
  0
LINE
  8
200
  6
AUSGEZOGEN
 10
 871.0000
 20
 135.8600
 11
 871.0000
 21
 144.1400
  0
LINE
  8
200
  6
AUSGEZOGEN
 10
 885.1400
 20
 130.0000
 11
 876.8600
 21
 130.0000
  0
LINE
  8
200
  6
AUSGEZOGEN
 10
 861.0000
 20
 144.1400
 11
 861.0000
 21
 135.8600
  0
LINE
  8
200
  6
AUSGEZOGEN
 10
 846.8600
 20
 150.0000
 11
 855.1400
 21
 150.0000
  0
LINE
  8
200
  6
AUSGEZOGEN
 10
 841.0000
 20
 135.8600
 11
 841.0000
 21
 144.1400
  0
LINE
  8
200
  6
AUSGEZOGEN
 10
 855.1400
 20
 130.0000
 11
 846.8600
 21
 130.0000
  0
LINE
  8
200
  6
AUSGEZOGEN
 10
 831.0000
 20
 144.1400
 11
 831.0000
 21
 135.8600
  0
LINE
  8
200
  6
AUSGEZOGEN
 10
 816.8600
 20
 150.0000
 11
 825.1400
 21
 150.0000
  0
LINE
  8
200
  6
AUSGEZOGEN
 10
 811.0000
 20
 135.8600
 11
 811.0000
 21
 144.1400
  0
LINE
  8
200
  6
AUSGEZOGEN
 10
 825.1400
 20
 130.0000
 11
 816.8600
 21
 130.0000
  0
LINE
  8
200
  6
AUSGEZOGEN
 10
 801.0000
 20
 144.1400
 11
 801.0000
 21
 135.8600
  0
LINE
  8
200
  6
AUSGEZOGEN
 10
 786.8600
 20
 150.0000
 11
 795.1400
 21
 150.0000
  0
LINE
  8
200
  6
AUSGEZOGEN
 10
 781.0000
 20
 135.8600
 11
 781.0000
 21
 144.1400
  0
LINE
  8
200
  6
AUSGEZOGEN
 10
 795.1400
 20
 130.0000
 11
 786.8600
 21
 130.0000
  0
LINE
  8
200
  6
AUSGEZOGEN
 10
 771.0000
 20
 144.1400
 11
 771.0000
 21
 135.8600
  0
LINE
  8
200
  6
AUSGEZOGEN
 10
 756.8600
 20
 150.0000
 11
 765.1400
 21
 150.0000
  0
LINE
  8
200
  6
AUSGEZOGEN
 10
 751.0000
 20
 135.8600
 11
 751.0000
 21
 144.1400
  0
LINE
  8
200
  6
AUSGEZOGEN
 10
 765.1400
 20
 130.0000
 11
 756.8600
 21
 130.0000
  0
LINE
  8
200
  6
AUSGEZOGEN
 10
 741.0000
 20
 144.1400
 11
 741.0000
 21
 135.8600
  0
LINE
  8
200
  6
AUSGEZOGEN
 10
 726.8600
 20
 150.0000
 11
 735.1400
 21
 150.0000
  0
LINE
  8
200
  6
AUSGEZOGEN
 10
 721.0000
 20
 135.8600
 11
 721.0000
 21
 144.1400
  0
LINE
  8
200
  6
AUSGEZOGEN
 10
 735.1400
 20
 130.0000
 11
 726.8600
 21
 130.0000
  0
LINE
  8
200
  6
AUSGEZOGEN
 10
 711.0000
 20
 144.1400
 11
 711.0000
 21
 135.8600
  0
LINE
  8
200
  6
AUSGEZOGEN
 10
 696.8600
 20
 150.0000
 11
 705.1400
 21
 150.0000
  0
LINE
  8
200
  6
AUSGEZOGEN
 10
 691.0000
 20
 135.8600
 11
 691.0000
 21
 144.1400
  0
LINE
  8
200
  6
AUSGEZOGEN
 10
 705.1400
 20
 130.0000
 11
 696.8600
 21
 130.0000
  0
LINE
  8
200
  6
AUSGEZOGEN
 10
 681.0000
 20
 144.1400
 11
 681.0000
 21
 135.8600
  0
LINE
  8
200
  6
AUSGEZOGEN
 10
 666.8600
 20
 150.0000
 11
 675.1400
 21
 150.0000
  0
LINE
  8
200
  6
AUSGEZOGEN
 10
 661.0000
 20
 135.8600
 11
 661.0000
 21
 144.1400
  0
LINE
  8
200
  6
AUSGEZOGEN
 10
 675.1400
 20
 130.0000
 11
 666.8600
 21
 130.0000
  0
LINE
  8
200
  6
AUSGEZOGEN
 10
 651.0000
 20
 144.1400
 11
 651.0000
 21
 135.8600
  0
LINE
  8
200
  6
AUSGEZOGEN
 10
 636.8600
 20
 150.0000
 11
 645.1400
 21
 150.0000
  0
LINE
  8
200
  6
AUSGEZOGEN
 10
 631.0000
 20
 135.8600
 11
 631.0000
 21
 144.1400
  0
LINE
  8
200
  6
AUSGEZOGEN
 10
 645.1400
 20
 130.0000
 11
 636.8600
 21
 130.0000
  0
LINE
  8
200
  6
AUSGEZOGEN
 10
1041.0000
 20
 174.1400
 11
1041.0000
 21
 165.8600
  0
LINE
  8
200
  6
AUSGEZOGEN
 10
1026.8600
 20
 180.0000
 11
1035.1400
 21
 180.0000
  0
LINE
  8
200
  6
AUSGEZOGEN
 10
1021.0000
 20
 165.8600
 11
1021.0000
 21
 174.1400
  0
LINE
  8
200
  6
AUSGEZOGEN
 10
1035.1400
 20
 160.0000
 11
1026.8600
 21
 160.0000
  0
LINE
  8
200
  6
AUSGEZOGEN
 10
1011.0000
 20
 174.1400
 11
1011.0000
 21
 165.8600
  0
LINE
  8
200
  6
AUSGEZOGEN
 10
 996.8600
 20
 180.0000
 11
1005.1400
 21
 180.0000
  0
LINE
  8
200
  6
AUSGEZOGEN
 10
 991.0000
 20
 165.8600
 11
 991.0000
 21
 174.1400
  0
LINE
  8
200
  6
AUSGEZOGEN
 10
1005.1400
 20
 160.0000
 11
 996.8600
 21
 160.0000
  0
LINE
  8
200
  6
AUSGEZOGEN
 10
 981.0000
 20
 174.1400
 11
 981.0000
 21
 165.8600
  0
LINE
  8
200
  6
AUSGEZOGEN
 10
 966.8600
 20
 180.0000
 11
 975.1400
 21
 180.0000
  0
LINE
  8
200
  6
AUSGEZOGEN
 10
 961.0000
 20
 165.8600
 11
 961.0000
 21
 174.1400
  0
LINE
  8
200
  6
AUSGEZOGEN
 10
 975.1400
 20
 160.0000
 11
 966.8600
 21
 160.0000
  0
LINE
  8
200
  6
AUSGEZOGEN
 10
 951.0000
 20
 174.1400
 11
 951.0000
 21
 165.8600
  0
LINE
  8
200
  6
AUSGEZOGEN
 10
 936.8600
 20
 180.0000
 11
 945.1400
 21
 180.0000
  0
LINE
  8
200
  6
AUSGEZOGEN
 10
 931.0000
 20
 165.8600
 11
 931.0000
 21
 174.1400
  0
LINE
  8
200
  6
AUSGEZOGEN
 10
 945.1400
 20
 160.0000
 11
 936.8600
 21
 160.0000
  0
LINE
  8
200
  6
AUSGEZOGEN
 10
 921.0000
 20
 174.1400
 11
 921.0000
 21
 165.8600
  0
LINE
  8
200
  6
AUSGEZOGEN
 10
 906.8600
 20
 180.0000
 11
 915.1400
 21
 180.0000
  0
LINE
  8
200
  6
AUSGEZOGEN
 10
 901.0000
 20
 165.8600
 11
 901.0000
 21
 174.1400
  0
LINE
  8
200
  6
AUSGEZOGEN
 10
 915.1400
 20
 160.0000
 11
 906.8600
 21
 160.0000
  0
LINE
  8
200
  6
AUSGEZOGEN
 10
 891.0000
 20
 174.1400
 11
 891.0000
 21
 165.8600
  0
LINE
  8
200
  6
AUSGEZOGEN
 10
 876.8600
 20
 180.0000
 11
 885.1400
 21
 180.0000
  0
LINE
  8
200
  6
AUSGEZOGEN
 10
 871.0000
 20
 165.8600
 11
 871.0000
 21
 174.1400
  0
LINE
  8
200
  6
AUSGEZOGEN
 10
 885.1400
 20
 160.0000
 11
 876.8600
 21
 160.0000
  0
LINE
  8
200
  6
AUSGEZOGEN
 10
 861.0000
 20
 174.1400
 11
 861.0000
 21
 165.8600
  0
LINE
  8
200
  6
AUSGEZOGEN
 10
 846.8600
 20
 180.0000
 11
 855.1400
 21
 180.0000
  0
LINE
  8
200
  6
AUSGEZOGEN
 10
 841.0000
 20
 165.8600
 11
 841.0000
 21
 174.1400
  0
LINE
  8
200
  6
AUSGEZOGEN
 10
 855.1400
 20
 160.0000
 11
 846.8600
 21
 160.0000
  0
LINE
  8
200
  6
AUSGEZOGEN
 10
 831.0000
 20
 174.1400
 11
 831.0000
 21
 165.8600
  0
LINE
  8
200
  6
AUSGEZOGEN
 10
 816.8600
 20
 180.0000
 11
 825.1400
 21
 180.0000
  0
LINE
  8
200
  6
AUSGEZOGEN
 10
 811.0000
 20
 165.8600
 11
 811.0000
 21
 174.1400
  0
LINE
  8
200
  6
AUSGEZOGEN
 10
 825.1400
 20
 160.0000
 11
 816.8600
 21
 160.0000
  0
LINE
  8
200
  6
AUSGEZOGEN
 10
 801.0000
 20
 174.1400
 11
 801.0000
 21
 165.8600
  0
LINE
  8
200
  6
AUSGEZOGEN
 10
 786.8600
 20
 180.0000
 11
 795.1400
 21
 180.0000
  0
LINE
  8
200
  6
AUSGEZOGEN
 10
 781.0000
 20
 165.8600
 11
 781.0000
 21
 174.1400
  0
LINE
  8
200
  6
AUSGEZOGEN
 10
 795.1400
 20
 160.0000
 11
 786.8600
 21
 160.0000
  0
LINE
  8
200
  6
AUSGEZOGEN
 10
 771.0000
 20
 174.1400
 11
 771.0000
 21
 165.8600
  0
LINE
  8
200
  6
AUSGEZOGEN
 10
 756.8600
 20
 180.0000
 11
 765.1400
 21
 180.0000
  0
LINE
  8
200
  6
AUSGEZOGEN
 10
 751.0000
 20
 165.8600
 11
 751.0000
 21
 174.1400
  0
LINE
  8
200
  6
AUSGEZOGEN
 10
 765.1400
 20
 160.0000
 11
 756.8600
 21
 160.0000
  0
LINE
  8
200
  6
AUSGEZOGEN
 10
 741.0000
 20
 174.1400
 11
 741.0000
 21
 165.8600
  0
LINE
  8
200
  6
AUSGEZOGEN
 10
 726.8600
 20
 180.0000
 11
 735.1400
 21
 180.0000
  0
LINE
  8
200
  6
AUSGEZOGEN
 10
 721.0000
 20
 165.8600
 11
 721.0000
 21
 174.1400
  0
LINE
  8
200
  6
AUSGEZOGEN
 10
 735.1400
 20
 160.0000
 11
 726.8600
 21
 160.0000
  0
LINE
  8
200
  6
AUSGEZOGEN
 10
 711.0000
 20
 174.1400
 11
 711.0000
 21
 165.8600
  0
LINE
  8
200
  6
AUSGEZOGEN
 10
 696.8600
 20
 180.0000
 11
 705.1400
 21
 180.0000
  0
LINE
  8
200
  6
AUSGEZOGEN
 10
 691.0000
 20
 165.8600
 11
 691.0000
 21
 174.1400
  0
LINE
  8
200
  6
AUSGEZOGEN
 10
 705.1400
 20
 160.0000
 11
 696.8600
 21
 160.0000
  0
LINE
  8
200
  6
AUSGEZOGEN
 10
 681.0000
 20
 174.1400
 11
 681.0000
 21
 165.8600
  0
LINE
  8
200
  6
AUSGEZOGEN
 10
 666.8600
 20
 180.0000
 11
 675.1400
 21
 180.0000
  0
LINE
  8
200
  6
AUSGEZOGEN
 10
 661.0000
 20
 165.8600
 11
 661.0000
 21
 174.1400
  0
LINE
  8
200
  6
AUSGEZOGEN
 10
 675.1400
 20
 160.0000
 11
 666.8600
 21
 160.0000
  0
LINE
  8
200
  6
AUSGEZOGEN
 10
 651.0000
 20
 174.1400
 11
 651.0000
 21
 165.8600
  0
LINE
  8
200
  6
AUSGEZOGEN
 10
 636.8600
 20
 180.0000
 11
 645.1400
 21
 180.0000
  0
LINE
  8
200
  6
AUSGEZOGEN
 10
 631.0000
 20
 165.8600
 11
 631.0000
 21
 174.1400
  0
LINE
  8
200
  6
AUSGEZOGEN
 10
 645.1400
 20
 160.0000
 11
 636.8600
 21
 160.0000
  0
LINE
  8
200
  6
AUSGEZOGEN
 10
1041.0000
 20
 204.1400
 11
1041.0000
 21
 195.8600
  0
LINE
  8
200
  6
AUSGEZOGEN
 10
1026.8600
 20
 210.0000
 11
1035.1400
 21
 210.0000
  0
LINE
  8
200
  6
AUSGEZOGEN
 10
1021.0000
 20
 195.8600
 11
1021.0000
 21
 204.1400
  0
LINE
  8
200
  6
AUSGEZOGEN
 10
1035.1400
 20
 190.0000
 11
1026.8600
 21
 190.0000
  0
LINE
  8
200
  6
AUSGEZOGEN
 10
1011.0000
 20
 204.1400
 11
1011.0000
 21
 195.8600
  0
LINE
  8
200
  6
AUSGEZOGEN
 10
 996.8600
 20
 210.0000
 11
1005.1400
 21
 210.0000
  0
LINE
  8
200
  6
AUSGEZOGEN
 10
 991.0000
 20
 195.8600
 11
 991.0000
 21
 204.1400
  0
LINE
  8
200
  6
AUSGEZOGEN
 10
1005.1400
 20
 190.0000
 11
 996.8600
 21
 190.0000
  0
LINE
  8
200
  6
AUSGEZOGEN
 10
 981.0000
 20
 204.1400
 11
 981.0000
 21
 195.8600
  0
LINE
  8
200
  6
AUSGEZOGEN
 10
 966.8600
 20
 210.0000
 11
 975.1400
 21
 210.0000
  0
LINE
  8
200
  6
AUSGEZOGEN
 10
 961.0000
 20
 195.8600
 11
 961.0000
 21
 204.1400
  0
LINE
  8
200
  6
AUSGEZOGEN
 10
 975.1400
 20
 190.0000
 11
 966.8600
 21
 190.0000
  0
LINE
  8
200
  6
AUSGEZOGEN
 10
 951.0000
 20
 204.1400
 11
 951.0000
 21
 195.8600
  0
LINE
  8
200
  6
AUSGEZOGEN
 10
 936.8600
 20
 210.0000
 11
 945.1400
 21
 210.0000
  0
LINE
  8
200
  6
AUSGEZOGEN
 10
 931.0000
 20
 195.8600
 11
 931.0000
 21
 204.1400
  0
LINE
  8
200
  6
AUSGEZOGEN
 10
 945.1400
 20
 190.0000
 11
 936.8600
 21
 190.0000
  0
LINE
  8
200
  6
AUSGEZOGEN
 10
 921.0000
 20
 204.1400
 11
 921.0000
 21
 195.8600
  0
LINE
  8
200
  6
AUSGEZOGEN
 10
 906.8600
 20
 210.0000
 11
 915.1400
 21
 210.0000
  0
LINE
  8
200
  6
AUSGEZOGEN
 10
 901.0000
 20
 195.8600
 11
 901.0000
 21
 204.1400
  0
LINE
  8
200
  6
AUSGEZOGEN
 10
 915.1400
 20
 190.0000
 11
 906.8600
 21
 190.0000
  0
LINE
  8
200
  6
AUSGEZOGEN
 10
 891.0000
 20
 204.1400
 11
 891.0000
 21
 195.8600
  0
LINE
  8
200
  6
AUSGEZOGEN
 10
 876.8600
 20
 210.0000
 11
 885.1400
 21
 210.0000
  0
LINE
  8
200
  6
AUSGEZOGEN
 10
 871.0000
 20
 195.8600
 11
 871.0000
 21
 204.1400
  0
LINE
  8
200
  6
AUSGEZOGEN
 10
 885.1400
 20
 190.0000
 11
 876.8600
 21
 190.0000
  0
LINE
  8
200
  6
AUSGEZOGEN
 10
 861.0000
 20
 204.1400
 11
 861.0000
 21
 195.8600
  0
LINE
  8
200
  6
AUSGEZOGEN
 10
 846.8600
 20
 210.0000
 11
 855.1400
 21
 210.0000
  0
LINE
  8
200
  6
AUSGEZOGEN
 10
 841.0000
 20
 195.8600
 11
 841.0000
 21
 204.1400
  0
LINE
  8
200
  6
AUSGEZOGEN
 10
 855.1400
 20
 190.0000
 11
 846.8600
 21
 190.0000
  0
LINE
  8
200
  6
AUSGEZOGEN
 10
 831.0000
 20
 204.1400
 11
 831.0000
 21
 195.8600
  0
LINE
  8
200
  6
AUSGEZOGEN
 10
 816.8600
 20
 210.0000
 11
 825.1400
 21
 210.0000
  0
LINE
  8
200
  6
AUSGEZOGEN
 10
 811.0000
 20
 195.8600
 11
 811.0000
 21
 204.1400
  0
LINE
  8
200
  6
AUSGEZOGEN
 10
 825.1400
 20
 190.0000
 11
 816.8600
 21
 190.0000
  0
LINE
  8
200
  6
AUSGEZOGEN
 10
 801.0000
 20
 204.1400
 11
 801.0000
 21
 195.8600
  0
LINE
  8
200
  6
AUSGEZOGEN
 10
 786.8600
 20
 210.0000
 11
 795.1400
 21
 210.0000
  0
LINE
  8
200
  6
AUSGEZOGEN
 10
 781.0000
 20
 195.8600
 11
 781.0000
 21
 204.1400
  0
LINE
  8
200
  6
AUSGEZOGEN
 10
 795.1400
 20
 190.0000
 11
 786.8600
 21
 190.0000
  0
LINE
  8
200
  6
AUSGEZOGEN
 10
 771.0000
 20
 204.1400
 11
 771.0000
 21
 195.8600
  0
LINE
  8
200
  6
AUSGEZOGEN
 10
 756.8600
 20
 210.0000
 11
 765.1400
 21
 210.0000
  0
LINE
  8
200
  6
AUSGEZOGEN
 10
 751.0000
 20
 195.8600
 11
 751.0000
 21
 204.1400
  0
LINE
  8
200
  6
AUSGEZOGEN
 10
 765.1400
 20
 190.0000
 11
 756.8600
 21
 190.0000
  0
LINE
  8
200
  6
AUSGEZOGEN
 10
 741.0000
 20
 204.1400
 11
 741.0000
 21
 195.8600
  0
LINE
  8
200
  6
AUSGEZOGEN
 10
 726.8600
 20
 210.0000
 11
 735.1400
 21
 210.0000
  0
LINE
  8
200
  6
AUSGEZOGEN
 10
 721.0000
 20
 195.8600
 11
 721.0000
 21
 204.1400
  0
LINE
  8
200
  6
AUSGEZOGEN
 10
 735.1400
 20
 190.0000
 11
 726.8600
 21
 190.0000
  0
LINE
  8
200
  6
AUSGEZOGEN
 10
 711.0000
 20
 204.1400
 11
 711.0000
 21
 195.8600
  0
LINE
  8
200
  6
AUSGEZOGEN
 10
 696.8600
 20
 210.0000
 11
 705.1400
 21
 210.0000
  0
LINE
  8
200
  6
AUSGEZOGEN
 10
 691.0000
 20
 195.8600
 11
 691.0000
 21
 204.1400
  0
LINE
  8
200
  6
AUSGEZOGEN
 10
 705.1400
 20
 190.0000
 11
 696.8600
 21
 190.0000
  0
LINE
  8
200
  6
AUSGEZOGEN
 10
 681.0000
 20
 204.1400
 11
 681.0000
 21
 195.8600
  0
LINE
  8
200
  6
AUSGEZOGEN
 10
 666.8600
 20
 210.0000
 11
 675.1400
 21
 210.0000
  0
LINE
  8
200
  6
AUSGEZOGEN
 10
 661.0000
 20
 195.8600
 11
 661.0000
 21
 204.1400
  0
LINE
  8
200
  6
AUSGEZOGEN
 10
 675.1400
 20
 190.0000
 11
 666.8600
 21
 190.0000
  0
LINE
  8
200
  6
AUSGEZOGEN
 10
 651.0000
 20
 204.1400
 11
 651.0000
 21
 195.8600
  0
LINE
  8
200
  6
AUSGEZOGEN
 10
 636.8600
 20
 210.0000
 11
 645.1400
 21
 210.0000
  0
LINE
  8
200
  6
AUSGEZOGEN
 10
 631.0000
 20
 195.8600
 11
 631.0000
 21
 204.1400
  0
LINE
  8
200
  6
AUSGEZOGEN
 10
 645.1400
 20
 190.0000
 11
 636.8600
 21
 190.0000
  0
LINE
  8
200
  6
AUSGEZOGEN
 10
1041.0000
 20
 234.1400
 11
1041.0000
 21
 225.8600
  0
LINE
  8
200
  6
AUSGEZOGEN
 10
1026.8600
 20
 240.0000
 11
1035.1400
 21
 240.0000
  0
LINE
  8
200
  6
AUSGEZOGEN
 10
1021.0000
 20
 225.8600
 11
1021.0000
 21
 234.1400
  0
LINE
  8
200
  6
AUSGEZOGEN
 10
1035.1400
 20
 220.0000
 11
1026.8600
 21
 220.0000
  0
LINE
  8
200
  6
AUSGEZOGEN
 10
1011.0000
 20
 234.1400
 11
1011.0000
 21
 225.8600
  0
LINE
  8
200
  6
AUSGEZOGEN
 10
 996.8600
 20
 240.0000
 11
1005.1400
 21
 240.0000
  0
LINE
  8
200
  6
AUSGEZOGEN
 10
 991.0000
 20
 225.8600
 11
 991.0000
 21
 234.1400
  0
LINE
  8
200
  6
AUSGEZOGEN
 10
1005.1400
 20
 220.0000
 11
 996.8600
 21
 220.0000
  0
LINE
  8
200
  6
AUSGEZOGEN
 10
 981.0000
 20
 234.1400
 11
 981.0000
 21
 225.8600
  0
LINE
  8
200
  6
AUSGEZOGEN
 10
 966.8600
 20
 240.0000
 11
 975.1400
 21
 240.0000
  0
LINE
  8
200
  6
AUSGEZOGEN
 10
 961.0000
 20
 225.8600
 11
 961.0000
 21
 234.1400
  0
LINE
  8
200
  6
AUSGEZOGEN
 10
 975.1400
 20
 220.0000
 11
 966.8600
 21
 220.0000
  0
LINE
  8
200
  6
AUSGEZOGEN
 10
 951.0000
 20
 234.1400
 11
 951.0000
 21
 225.8600
  0
LINE
  8
200
  6
AUSGEZOGEN
 10
 936.8600
 20
 240.0000
 11
 945.1400
 21
 240.0000
  0
LINE
  8
200
  6
AUSGEZOGEN
 10
 931.0000
 20
 225.8600
 11
 931.0000
 21
 234.1400
  0
LINE
  8
200
  6
AUSGEZOGEN
 10
 945.1400
 20
 220.0000
 11
 936.8600
 21
 220.0000
  0
LINE
  8
200
  6
AUSGEZOGEN
 10
 921.0000
 20
 234.1400
 11
 921.0000
 21
 225.8600
  0
LINE
  8
200
  6
AUSGEZOGEN
 10
 906.8600
 20
 240.0000
 11
 915.1400
 21
 240.0000
  0
LINE
  8
200
  6
AUSGEZOGEN
 10
 901.0000
 20
 225.8600
 11
 901.0000
 21
 234.1400
  0
LINE
  8
200
  6
AUSGEZOGEN
 10
 915.1400
 20
 220.0000
 11
 906.8600
 21
 220.0000
  0
LINE
  8
200
  6
AUSGEZOGEN
 10
 891.0000
 20
 234.1400
 11
 891.0000
 21
 225.8600
  0
LINE
  8
200
  6
AUSGEZOGEN
 10
 876.8600
 20
 240.0000
 11
 885.1400
 21
 240.0000
  0
LINE
  8
200
  6
AUSGEZOGEN
 10
 871.0000
 20
 225.8600
 11
 871.0000
 21
 234.1400
  0
LINE
  8
200
  6
AUSGEZOGEN
 10
 885.1400
 20
 220.0000
 11
 876.8600
 21
 220.0000
  0
LINE
  8
200
  6
AUSGEZOGEN
 10
 861.0000
 20
 234.1400
 11
 861.0000
 21
 225.8600
  0
LINE
  8
200
  6
AUSGEZOGEN
 10
 846.8600
 20
 240.0000
 11
 855.1400
 21
 240.0000
  0
LINE
  8
200
  6
AUSGEZOGEN
 10
 841.0000
 20
 225.8600
 11
 841.0000
 21
 234.1400
  0
LINE
  8
200
  6
AUSGEZOGEN
 10
 855.1400
 20
 220.0000
 11
 846.8600
 21
 220.0000
  0
LINE
  8
200
  6
AUSGEZOGEN
 10
 831.0000
 20
 234.1400
 11
 831.0000
 21
 225.8600
  0
LINE
  8
200
  6
AUSGEZOGEN
 10
 816.8600
 20
 240.0000
 11
 825.1400
 21
 240.0000
  0
LINE
  8
200
  6
AUSGEZOGEN
 10
 811.0000
 20
 225.8600
 11
 811.0000
 21
 234.1400
  0
LINE
  8
200
  6
AUSGEZOGEN
 10
 825.1400
 20
 220.0000
 11
 816.8600
 21
 220.0000
  0
LINE
  8
200
  6
AUSGEZOGEN
 10
 801.0000
 20
 234.1400
 11
 801.0000
 21
 225.8600
  0
LINE
  8
200
  6
AUSGEZOGEN
 10
 786.8600
 20
 240.0000
 11
 795.1400
 21
 240.0000
  0
LINE
  8
200
  6
AUSGEZOGEN
 10
 781.0000
 20
 225.8600
 11
 781.0000
 21
 234.1400
  0
LINE
  8
200
  6
AUSGEZOGEN
 10
 795.1400
 20
 220.0000
 11
 786.8600
 21
 220.0000
  0
LINE
  8
200
  6
AUSGEZOGEN
 10
 771.0000
 20
 234.1400
 11
 771.0000
 21
 225.8600
  0
LINE
  8
200
  6
AUSGEZOGEN
 10
 756.8600
 20
 240.0000
 11
 765.1400
 21
 240.0000
  0
LINE
  8
200
  6
AUSGEZOGEN
 10
 751.0000
 20
 225.8600
 11
 751.0000
 21
 234.1400
  0
LINE
  8
200
  6
AUSGEZOGEN
 10
 765.1400
 20
 220.0000
 11
 756.8600
 21
 220.0000
  0
LINE
  8
200
  6
AUSGEZOGEN
 10
 741.0000
 20
 234.1400
 11
 741.0000
 21
 225.8600
  0
LINE
  8
200
  6
AUSGEZOGEN
 10
 726.8600
 20
 240.0000
 11
 735.1400
 21
 240.0000
  0
LINE
  8
200
  6
AUSGEZOGEN
 10
 721.0000
 20
 225.8600
 11
 721.0000
 21
 234.1400
  0
LINE
  8
200
  6
AUSGEZOGEN
 10
 735.1400
 20
 220.0000
 11
 726.8600
 21
 220.0000
  0
LINE
  8
200
  6
AUSGEZOGEN
 10
 711.0000
 20
 234.1400
 11
 711.0000
 21
 225.8600
  0
LINE
  8
200
  6
AUSGEZOGEN
 10
 696.8600
 20
 240.0000
 11
 705.1400
 21
 240.0000
  0
LINE
  8
200
  6
AUSGEZOGEN
 10
 691.0000
 20
 225.8600
 11
 691.0000
 21
 234.1400
  0
LINE
  8
200
  6
AUSGEZOGEN
 10
 705.1400
 20
 220.0000
 11
 696.8600
 21
 220.0000
  0
LINE
  8
200
  6
AUSGEZOGEN
 10
 681.0000
 20
 234.1400
 11
 681.0000
 21
 225.8600
  0
LINE
  8
200
  6
AUSGEZOGEN
 10
 666.8600
 20
 240.0000
 11
 675.1400
 21
 240.0000
  0
LINE
  8
200
  6
AUSGEZOGEN
 10
 661.0000
 20
 225.8600
 11
 661.0000
 21
 234.1400
  0
LINE
  8
200
  6
AUSGEZOGEN
 10
 675.1400
 20
 220.0000
 11
 666.8600
 21
 220.0000
  0
LINE
  8
200
  6
AUSGEZOGEN
 10
 651.0000
 20
 234.1400
 11
 651.0000
 21
 225.8600
  0
LINE
  8
200
  6
AUSGEZOGEN
 10
 636.8600
 20
 240.0000
 11
 645.1400
 21
 240.0000
  0
LINE
  8
200
  6
AUSGEZOGEN
 10
 631.0000
 20
 225.8600
 11
 631.0000
 21
 234.1400
  0
LINE
  8
200
  6
AUSGEZOGEN
 10
 645.1400
 20
 220.0000
 11
 636.8600
 21
 220.0000
  0
LINE
  8
200
  6
AUSGEZOGEN
 10
 621.0000
 20
 264.1400
 11
 621.0000
 21
 255.8600
  0
LINE
  8
200
  6
AUSGEZOGEN
 10
 606.8600
 20
 270.0000
 11
 615.1400
 21
 270.0000
  0
LINE
  8
200
  6
AUSGEZOGEN
 10
 601.0000
 20
 255.8600
 11
 601.0000
 21
 264.1400
  0
LINE
  8
200
  6
AUSGEZOGEN
 10
 615.1400
 20
 250.0000
 11
 606.8600
 21
 250.0000
  0
LINE
  8
200
  6
AUSGEZOGEN
 10
1041.0000
 20
 264.1400
 11
1041.0000
 21
 255.8600
  0
LINE
  8
200
  6
AUSGEZOGEN
 10
1026.8600
 20
 270.0000
 11
1035.1400
 21
 270.0000
  0
LINE
  8
200
  6
AUSGEZOGEN
 10
1021.0000
 20
 255.8600
 11
1021.0000
 21
 264.1400
  0
LINE
  8
200
  6
AUSGEZOGEN
 10
1035.1400
 20
 250.0000
 11
1026.8600
 21
 250.0000
  0
LINE
  8
200
  6
AUSGEZOGEN
 10
1011.0000
 20
 264.1400
 11
1011.0000
 21
 255.8600
  0
LINE
  8
200
  6
AUSGEZOGEN
 10
 996.8600
 20
 270.0000
 11
1005.1400
 21
 270.0000
  0
LINE
  8
200
  6
AUSGEZOGEN
 10
 991.0000
 20
 255.8600
 11
 991.0000
 21
 264.1400
  0
LINE
  8
200
  6
AUSGEZOGEN
 10
1005.1400
 20
 250.0000
 11
 996.8600
 21
 250.0000
  0
LINE
  8
200
  6
AUSGEZOGEN
 10
 981.0000
 20
 264.1400
 11
 981.0000
 21
 255.8600
  0
LINE
  8
200
  6
AUSGEZOGEN
 10
 966.8600
 20
 270.0000
 11
 975.1400
 21
 270.0000
  0
LINE
  8
200
  6
AUSGEZOGEN
 10
 961.0000
 20
 255.8600
 11
 961.0000
 21
 264.1400
  0
LINE
  8
200
  6
AUSGEZOGEN
 10
 975.1400
 20
 250.0000
 11
 966.8600
 21
 250.0000
  0
LINE
  8
200
  6
AUSGEZOGEN
 10
 951.0000
 20
 264.1400
 11
 951.0000
 21
 255.8600
  0
LINE
  8
200
  6
AUSGEZOGEN
 10
 936.8600
 20
 270.0000
 11
 945.1400
 21
 270.0000
  0
LINE
  8
200
  6
AUSGEZOGEN
 10
 931.0000
 20
 255.8600
 11
 931.0000
 21
 264.1400
  0
LINE
  8
200
  6
AUSGEZOGEN
 10
 945.1400
 20
 250.0000
 11
 936.8600
 21
 250.0000
  0
LINE
  8
200
  6
AUSGEZOGEN
 10
 921.0000
 20
 264.1400
 11
 921.0000
 21
 255.8600
  0
LINE
  8
200
  6
AUSGEZOGEN
 10
 906.8600
 20
 270.0000
 11
 915.1400
 21
 270.0000
  0
LINE
  8
200
  6
AUSGEZOGEN
 10
 901.0000
 20
 255.8600
 11
 901.0000
 21
 264.1400
  0
LINE
  8
200
  6
AUSGEZOGEN
 10
 915.1400
 20
 250.0000
 11
 906.8600
 21
 250.0000
  0
LINE
  8
200
  6
AUSGEZOGEN
 10
 891.0000
 20
 264.1400
 11
 891.0000
 21
 255.8600
  0
LINE
  8
200
  6
AUSGEZOGEN
 10
 876.8600
 20
 270.0000
 11
 885.1400
 21
 270.0000
  0
LINE
  8
200
  6
AUSGEZOGEN
 10
 871.0000
 20
 255.8600
 11
 871.0000
 21
 264.1400
  0
LINE
  8
200
  6
AUSGEZOGEN
 10
 885.1400
 20
 250.0000
 11
 876.8600
 21
 250.0000
  0
LINE
  8
200
  6
AUSGEZOGEN
 10
 861.0000
 20
 264.1400
 11
 861.0000
 21
 255.8600
  0
LINE
  8
200
  6
AUSGEZOGEN
 10
 846.8600
 20
 270.0000
 11
 855.1400
 21
 270.0000
  0
LINE
  8
200
  6
AUSGEZOGEN
 10
 841.0000
 20
 255.8600
 11
 841.0000
 21
 264.1400
  0
LINE
  8
200
  6
AUSGEZOGEN
 10
 855.1400
 20
 250.0000
 11
 846.8600
 21
 250.0000
  0
LINE
  8
200
  6
AUSGEZOGEN
 10
 831.0000
 20
 264.1400
 11
 831.0000
 21
 255.8600
  0
LINE
  8
200
  6
AUSGEZOGEN
 10
 816.8600
 20
 270.0000
 11
 825.1400
 21
 270.0000
  0
LINE
  8
200
  6
AUSGEZOGEN
 10
 811.0000
 20
 255.8600
 11
 811.0000
 21
 264.1400
  0
LINE
  8
200
  6
AUSGEZOGEN
 10
 825.1400
 20
 250.0000
 11
 816.8600
 21
 250.0000
  0
LINE
  8
200
  6
AUSGEZOGEN
 10
 801.0000
 20
 264.1400
 11
 801.0000
 21
 255.8600
  0
LINE
  8
200
  6
AUSGEZOGEN
 10
 786.8600
 20
 270.0000
 11
 795.1400
 21
 270.0000
  0
LINE
  8
200
  6
AUSGEZOGEN
 10
 781.0000
 20
 255.8600
 11
 781.0000
 21
 264.1400
  0
LINE
  8
200
  6
AUSGEZOGEN
 10
 795.1400
 20
 250.0000
 11
 786.8600
 21
 250.0000
  0
LINE
  8
200
  6
AUSGEZOGEN
 10
 771.0000
 20
 264.1400
 11
 771.0000
 21
 255.8600
  0
LINE
  8
200
  6
AUSGEZOGEN
 10
 756.8600
 20
 270.0000
 11
 765.1400
 21
 270.0000
  0
LINE
  8
200
  6
AUSGEZOGEN
 10
 751.0000
 20
 255.8600
 11
 751.0000
 21
 264.1400
  0
LINE
  8
200
  6
AUSGEZOGEN
 10
 765.1400
 20
 250.0000
 11
 756.8600
 21
 250.0000
  0
LINE
  8
200
  6
AUSGEZOGEN
 10
 741.0000
 20
 264.1400
 11
 741.0000
 21
 255.8600
  0
LINE
  8
200
  6
AUSGEZOGEN
 10
 726.8600
 20
 270.0000
 11
 735.1400
 21
 270.0000
  0
LINE
  8
200
  6
AUSGEZOGEN
 10
 721.0000
 20
 255.8600
 11
 721.0000
 21
 264.1400
  0
LINE
  8
200
  6
AUSGEZOGEN
 10
 735.1400
 20
 250.0000
 11
 726.8600
 21
 250.0000
  0
LINE
  8
200
  6
AUSGEZOGEN
 10
 711.0000
 20
 264.1400
 11
 711.0000
 21
 255.8600
  0
LINE
  8
200
  6
AUSGEZOGEN
 10
 696.8600
 20
 270.0000
 11
 705.1400
 21
 270.0000
  0
LINE
  8
200
  6
AUSGEZOGEN
 10
 691.0000
 20
 255.8600
 11
 691.0000
 21
 264.1400
  0
LINE
  8
200
  6
AUSGEZOGEN
 10
 705.1400
 20
 250.0000
 11
 696.8600
 21
 250.0000
  0
LINE
  8
200
  6
AUSGEZOGEN
 10
 681.0000
 20
 264.1400
 11
 681.0000
 21
 255.8600
  0
LINE
  8
200
  6
AUSGEZOGEN
 10
 666.8600
 20
 270.0000
 11
 675.1400
 21
 270.0000
  0
LINE
  8
200
  6
AUSGEZOGEN
 10
 661.0000
 20
 255.8600
 11
 661.0000
 21
 264.1400
  0
LINE
  8
200
  6
AUSGEZOGEN
 10
 675.1400
 20
 250.0000
 11
 666.8600
 21
 250.0000
  0
LINE
  8
200
  6
AUSGEZOGEN
 10
 651.0000
 20
 264.1400
 11
 651.0000
 21
 255.8600
  0
LINE
  8
200
  6
AUSGEZOGEN
 10
 636.8600
 20
 270.0000
 11
 645.1400
 21
 270.0000
  0
LINE
  8
200
  6
AUSGEZOGEN
 10
 631.0000
 20
 255.8600
 11
 631.0000
 21
 264.1400
  0
LINE
  8
200
  6
AUSGEZOGEN
 10
 645.1400
 20
 250.0000
 11
 636.8600
 21
 250.0000
  0
LINE
  8
200
  6
AUSGEZOGEN
 10
1551.0000
 20
 354.1400
 11
1551.0000
 21
 345.8600
  0
LINE
  8
200
  6
AUSGEZOGEN
 10
1536.8600
 20
 360.0000
 11
1545.1400
 21
 360.0000
  0
LINE
  8
200
  6
AUSGEZOGEN
 10
1531.0000
 20
 345.8600
 11
1531.0000
 21
 354.1400
  0
LINE
  8
200
  6
AUSGEZOGEN
 10
1545.1400
 20
 340.0000
 11
1536.8600
 21
 340.0000
  0
LINE
  8
200
  6
AUSGEZOGEN
 10
1521.0000
 20
 354.1400
 11
1521.0000
 21
 345.8600
  0
LINE
  8
200
  6
AUSGEZOGEN
 10
1506.8600
 20
 360.0000
 11
1515.1400
 21
 360.0000
  0
LINE
  8
200
  6
AUSGEZOGEN
 10
1501.0000
 20
 345.8600
 11
1501.0000
 21
 354.1400
  0
LINE
  8
200
  6
AUSGEZOGEN
 10
1515.1400
 20
 340.0000
 11
1506.8600
 21
 340.0000
  0
LINE
  8
200
  6
AUSGEZOGEN
 10
1491.0000
 20
 354.1400
 11
1491.0000
 21
 345.8600
  0
LINE
  8
200
  6
AUSGEZOGEN
 10
1476.8600
 20
 360.0000
 11
1485.1400
 21
 360.0000
  0
LINE
  8
200
  6
AUSGEZOGEN
 10
1471.0000
 20
 345.8600
 11
1471.0000
 21
 354.1400
  0
LINE
  8
200
  6
AUSGEZOGEN
 10
1485.1400
 20
 340.0000
 11
1476.8600
 21
 340.0000
  0
LINE
  8
200
  6
AUSGEZOGEN
 10
1461.0000
 20
 354.1400
 11
1461.0000
 21
 345.8600
  0
LINE
  8
200
  6
AUSGEZOGEN
 10
1446.8600
 20
 360.0000
 11
1455.1400
 21
 360.0000
  0
LINE
  8
200
  6
AUSGEZOGEN
 10
1441.0000
 20
 345.8600
 11
1441.0000
 21
 354.1400
  0
LINE
  8
200
  6
AUSGEZOGEN
 10
1455.1400
 20
 340.0000
 11
1446.8600
 21
 340.0000
  0
LINE
  8
200
  6
AUSGEZOGEN
 10
1431.0000
 20
 354.1400
 11
1431.0000
 21
 345.8600
  0
LINE
  8
200
  6
AUSGEZOGEN
 10
1416.8600
 20
 360.0000
 11
1425.1400
 21
 360.0000
  0
LINE
  8
200
  6
AUSGEZOGEN
 10
1411.0000
 20
 345.8600
 11
1411.0000
 21
 354.1400
  0
LINE
  8
200
  6
AUSGEZOGEN
 10
1425.1400
 20
 340.0000
 11
1416.8600
 21
 340.0000
  0
LINE
  8
200
  6
AUSGEZOGEN
 10
1401.0000
 20
 354.1400
 11
1401.0000
 21
 345.8600
  0
LINE
  8
200
  6
AUSGEZOGEN
 10
1386.8600
 20
 360.0000
 11
1395.1400
 21
 360.0000
  0
LINE
  8
200
  6
AUSGEZOGEN
 10
1381.0000
 20
 345.8600
 11
1381.0000
 21
 354.1400
  0
LINE
  8
200
  6
AUSGEZOGEN
 10
1395.1400
 20
 340.0000
 11
1386.8600
 21
 340.0000
  0
LINE
  8
200
  6
AUSGEZOGEN
 10
1371.0000
 20
 354.1400
 11
1371.0000
 21
 345.8600
  0
LINE
  8
200
  6
AUSGEZOGEN
 10
1356.8600
 20
 360.0000
 11
1365.1400
 21
 360.0000
  0
LINE
  8
200
  6
AUSGEZOGEN
 10
1351.0000
 20
 345.8600
 11
1351.0000
 21
 354.1400
  0
LINE
  8
200
  6
AUSGEZOGEN
 10
1365.1400
 20
 340.0000
 11
1356.8600
 21
 340.0000
  0
LINE
  8
200
  6
AUSGEZOGEN
 10
1341.0000
 20
 354.1400
 11
1341.0000
 21
 345.8600
  0
LINE
  8
200
  6
AUSGEZOGEN
 10
1326.8600
 20
 360.0000
 11
1335.1400
 21
 360.0000
  0
LINE
  8
200
  6
AUSGEZOGEN
 10
1321.0000
 20
 345.8600
 11
1321.0000
 21
 354.1400
  0
LINE
  8
200
  6
AUSGEZOGEN
 10
1335.1400
 20
 340.0000
 11
1326.8600
 21
 340.0000
  0
LINE
  8
200
  6
AUSGEZOGEN
 10
1311.0000
 20
 354.1400
 11
1311.0000
 21
 345.8600
  0
LINE
  8
200
  6
AUSGEZOGEN
 10
1296.8600
 20
 360.0000
 11
1305.1400
 21
 360.0000
  0
LINE
  8
200
  6
AUSGEZOGEN
 10
1291.0000
 20
 345.8600
 11
1291.0000
 21
 354.1400
  0
LINE
  8
200
  6
AUSGEZOGEN
 10
1305.1400
 20
 340.0000
 11
1296.8600
 21
 340.0000
  0
LINE
  8
200
  6
AUSGEZOGEN
 10
1281.0000
 20
 354.1400
 11
1281.0000
 21
 345.8600
  0
LINE
  8
200
  6
AUSGEZOGEN
 10
1266.8600
 20
 360.0000
 11
1275.1400
 21
 360.0000
  0
LINE
  8
200
  6
AUSGEZOGEN
 10
1261.0000
 20
 345.8600
 11
1261.0000
 21
 354.1400
  0
LINE
  8
200
  6
AUSGEZOGEN
 10
1275.1400
 20
 340.0000
 11
1266.8600
 21
 340.0000
  0
LINE
  8
200
  6
AUSGEZOGEN
 10
1251.0000
 20
 354.1400
 11
1251.0000
 21
 345.8600
  0
LINE
  8
200
  6
AUSGEZOGEN
 10
1236.8600
 20
 360.0000
 11
1245.1400
 21
 360.0000
  0
LINE
  8
200
  6
AUSGEZOGEN
 10
1231.0000
 20
 345.8600
 11
1231.0000
 21
 354.1400
  0
LINE
  8
200
  6
AUSGEZOGEN
 10
1245.1400
 20
 340.0000
 11
1236.8600
 21
 340.0000
  0
LINE
  8
200
  6
AUSGEZOGEN
 10
1221.0000
 20
 354.1400
 11
1221.0000
 21
 345.8600
  0
LINE
  8
200
  6
AUSGEZOGEN
 10
1206.8600
 20
 360.0000
 11
1215.1400
 21
 360.0000
  0
LINE
  8
200
  6
AUSGEZOGEN
 10
1201.0000
 20
 345.8600
 11
1201.0000
 21
 354.1400
  0
LINE
  8
200
  6
AUSGEZOGEN
 10
1215.1400
 20
 340.0000
 11
1206.8600
 21
 340.0000
  0
LINE
  8
200
  6
AUSGEZOGEN
 10
1191.0000
 20
 354.1400
 11
1191.0000
 21
 345.8600
  0
LINE
  8
200
  6
AUSGEZOGEN
 10
1176.8600
 20
 360.0000
 11
1185.1400
 21
 360.0000
  0
LINE
  8
200
  6
AUSGEZOGEN
 10
1171.0000
 20
 345.8600
 11
1171.0000
 21
 354.1400
  0
LINE
  8
200
  6
AUSGEZOGEN
 10
1185.1400
 20
 340.0000
 11
1176.8600
 21
 340.0000
  0
LINE
  8
200
  6
AUSGEZOGEN
 10
1161.0000
 20
 354.1400
 11
1161.0000
 21
 345.8600
  0
LINE
  8
200
  6
AUSGEZOGEN
 10
1146.8600
 20
 360.0000
 11
1155.1400
 21
 360.0000
  0
LINE
  8
200
  6
AUSGEZOGEN
 10
1141.0000
 20
 345.8600
 11
1141.0000
 21
 354.1400
  0
LINE
  8
200
  6
AUSGEZOGEN
 10
1155.1400
 20
 340.0000
 11
1146.8600
 21
 340.0000
  0
LINE
  8
200
  6
AUSGEZOGEN
 10
1131.0000
 20
 354.1400
 11
1131.0000
 21
 345.8600
  0
LINE
  8
200
  6
AUSGEZOGEN
 10
1116.8600
 20
 360.0000
 11
1125.1400
 21
 360.0000
  0
LINE
  8
200
  6
AUSGEZOGEN
 10
1111.0000
 20
 345.8600
 11
1111.0000
 21
 354.1400
  0
LINE
  8
200
  6
AUSGEZOGEN
 10
1125.1400
 20
 340.0000
 11
1116.8600
 21
 340.0000
  0
LINE
  8
200
  6
AUSGEZOGEN
 10
1101.0000
 20
 354.1400
 11
1101.0000
 21
 345.8600
  0
LINE
  8
200
  6
AUSGEZOGEN
 10
1086.8600
 20
 360.0000
 11
1095.1400
 21
 360.0000
  0
LINE
  8
200
  6
AUSGEZOGEN
 10
1081.0000
 20
 345.8600
 11
1081.0000
 21
 354.1400
  0
LINE
  8
200
  6
AUSGEZOGEN
 10
1095.1400
 20
 340.0000
 11
1086.8600
 21
 340.0000
  0
LINE
  8
200
  6
AUSGEZOGEN
 10
1071.0000
 20
 354.1400
 11
1071.0000
 21
 345.8600
  0
LINE
  8
200
  6
AUSGEZOGEN
 10
1056.8600
 20
 360.0000
 11
1065.1400
 21
 360.0000
  0
LINE
  8
200
  6
AUSGEZOGEN
 10
1051.0000
 20
 345.8600
 11
1051.0000
 21
 354.1400
  0
LINE
  8
200
  6
AUSGEZOGEN
 10
1065.1400
 20
 340.0000
 11
1056.8600
 21
 340.0000
  0
LINE
  8
200
  6
AUSGEZOGEN
 10
1551.0000
 20
 315.8600
 11
1551.0000
 21
 324.1400
  0
LINE
  8
200
  6
AUSGEZOGEN
 10
1536.8600
 20
 330.0000
 11
1545.1400
 21
 330.0000
  0
LINE
  8
200
  6
AUSGEZOGEN
 10
1531.0000
 20
 315.8600
 11
1531.0000
 21
 324.1400
  0
LINE
  8
200
  6
AUSGEZOGEN
 10
1545.1400
 20
 310.0000
 11
1536.8600
 21
 310.0000
  0
LINE
  8
200
  6
AUSGEZOGEN
 10
1521.0000
 20
 324.1400
 11
1521.0000
 21
 315.8600
  0
LINE
  8
200
  6
AUSGEZOGEN
 10
1506.8600
 20
 330.0000
 11
1515.1400
 21
 330.0000
  0
LINE
  8
200
  6
AUSGEZOGEN
 10
1501.0000
 20
 315.8600
 11
1501.0000
 21
 324.1400
  0
LINE
  8
200
  6
AUSGEZOGEN
 10
1515.1400
 20
 310.0000
 11
1506.8600
 21
 310.0000
  0
LINE
  8
200
  6
AUSGEZOGEN
 10
1491.0000
 20
 324.1400
 11
1491.0000
 21
 315.8600
  0
LINE
  8
200
  6
AUSGEZOGEN
 10
1476.8600
 20
 330.0000
 11
1485.1400
 21
 330.0000
  0
LINE
  8
200
  6
AUSGEZOGEN
 10
1471.0000
 20
 315.8600
 11
1471.0000
 21
 324.1400
  0
LINE
  8
200
  6
AUSGEZOGEN
 10
1485.1400
 20
 310.0000
 11
1476.8600
 21
 310.0000
  0
LINE
  8
200
  6
AUSGEZOGEN
 10
1461.0000
 20
 324.1400
 11
1461.0000
 21
 315.8600
  0
LINE
  8
200
  6
AUSGEZOGEN
 10
1446.8600
 20
 330.0000
 11
1455.1400
 21
 330.0000
  0
LINE
  8
200
  6
AUSGEZOGEN
 10
1441.0000
 20
 315.8600
 11
1441.0000
 21
 324.1400
  0
LINE
  8
200
  6
AUSGEZOGEN
 10
1455.1400
 20
 310.0000
 11
1446.8600
 21
 310.0000
  0
LINE
  8
200
  6
AUSGEZOGEN
 10
1431.0000
 20
 324.1400
 11
1431.0000
 21
 315.8600
  0
LINE
  8
200
  6
AUSGEZOGEN
 10
1416.8600
 20
 330.0000
 11
1425.1400
 21
 330.0000
  0
LINE
  8
200
  6
AUSGEZOGEN
 10
1411.0000
 20
 315.8600
 11
1411.0000
 21
 324.1400
  0
LINE
  8
200
  6
AUSGEZOGEN
 10
1425.1400
 20
 310.0000
 11
1416.8600
 21
 310.0000
  0
LINE
  8
200
  6
AUSGEZOGEN
 10
1401.0000
 20
 324.1400
 11
1401.0000
 21
 315.8600
  0
LINE
  8
200
  6
AUSGEZOGEN
 10
1386.8600
 20
 330.0000
 11
1395.1400
 21
 330.0000
  0
LINE
  8
200
  6
AUSGEZOGEN
 10
1381.0000
 20
 315.8600
 11
1381.0000
 21
 324.1400
  0
LINE
  8
200
  6
AUSGEZOGEN
 10
1395.1400
 20
 310.0000
 11
1386.8600
 21
 310.0000
  0
LINE
  8
200
  6
AUSGEZOGEN
 10
1371.0000
 20
 324.1400
 11
1371.0000
 21
 315.8600
  0
LINE
  8
200
  6
AUSGEZOGEN
 10
1356.8600
 20
 330.0000
 11
1365.1400
 21
 330.0000
  0
LINE
  8
200
  6
AUSGEZOGEN
 10
1351.0000
 20
 315.8600
 11
1351.0000
 21
 324.1400
  0
LINE
  8
200
  6
AUSGEZOGEN
 10
1365.1400
 20
 310.0000
 11
1356.8600
 21
 310.0000
  0
LINE
  8
200
  6
AUSGEZOGEN
 10
1341.0000
 20
 324.1400
 11
1341.0000
 21
 315.8600
  0
LINE
  8
200
  6
AUSGEZOGEN
 10
1326.8600
 20
 330.0000
 11
1335.1400
 21
 330.0000
  0
LINE
  8
200
  6
AUSGEZOGEN
 10
1321.0000
 20
 315.8600
 11
1321.0000
 21
 324.1400
  0
LINE
  8
200
  6
AUSGEZOGEN
 10
1335.1400
 20
 310.0000
 11
1326.8600
 21
 310.0000
  0
LINE
  8
200
  6
AUSGEZOGEN
 10
1311.0000
 20
 324.1400
 11
1311.0000
 21
 315.8600
  0
LINE
  8
200
  6
AUSGEZOGEN
 10
1296.8600
 20
 330.0000
 11
1305.1400
 21
 330.0000
  0
LINE
  8
200
  6
AUSGEZOGEN
 10
1291.0000
 20
 315.8600
 11
1291.0000
 21
 324.1400
  0
LINE
  8
200
  6
AUSGEZOGEN
 10
1305.1400
 20
 310.0000
 11
1296.8600
 21
 310.0000
  0
LINE
  8
200
  6
AUSGEZOGEN
 10
1281.0000
 20
 324.1400
 11
1281.0000
 21
 315.8600
  0
LINE
  8
200
  6
AUSGEZOGEN
 10
1266.8600
 20
 330.0000
 11
1275.1400
 21
 330.0000
  0
LINE
  8
200
  6
AUSGEZOGEN
 10
1261.0000
 20
 315.8600
 11
1261.0000
 21
 324.1400
  0
LINE
  8
200
  6
AUSGEZOGEN
 10
1275.1400
 20
 310.0000
 11
1266.8600
 21
 310.0000
  0
LINE
  8
200
  6
AUSGEZOGEN
 10
1251.0000
 20
 324.1400
 11
1251.0000
 21
 315.8600
  0
LINE
  8
200
  6
AUSGEZOGEN
 10
1236.8600
 20
 330.0000
 11
1245.1400
 21
 330.0000
  0
LINE
  8
200
  6
AUSGEZOGEN
 10
1231.0000
 20
 315.8600
 11
1231.0000
 21
 324.1400
  0
LINE
  8
200
  6
AUSGEZOGEN
 10
1245.1400
 20
 310.0000
 11
1236.8600
 21
 310.0000
  0
LINE
  8
200
  6
AUSGEZOGEN
 10
1221.0000
 20
 324.1400
 11
1221.0000
 21
 315.8600
  0
LINE
  8
200
  6
AUSGEZOGEN
 10
1206.8600
 20
 330.0000
 11
1215.1400
 21
 330.0000
  0
LINE
  8
200
  6
AUSGEZOGEN
 10
1201.0000
 20
 315.8600
 11
1201.0000
 21
 324.1400
  0
LINE
  8
200
  6
AUSGEZOGEN
 10
1215.1400
 20
 310.0000
 11
1206.8600
 21
 310.0000
  0
LINE
  8
200
  6
AUSGEZOGEN
 10
1191.0000
 20
 324.1400
 11
1191.0000
 21
 315.8600
  0
LINE
  8
200
  6
AUSGEZOGEN
 10
1176.8600
 20
 330.0000
 11
1185.1400
 21
 330.0000
  0
LINE
  8
200
  6
AUSGEZOGEN
 10
1171.0000
 20
 315.8600
 11
1171.0000
 21
 324.1400
  0
LINE
  8
200
  6
AUSGEZOGEN
 10
1185.1400
 20
 310.0000
 11
1176.8600
 21
 310.0000
  0
LINE
  8
200
  6
AUSGEZOGEN
 10
1161.0000
 20
 324.1400
 11
1161.0000
 21
 315.8600
  0
LINE
  8
200
  6
AUSGEZOGEN
 10
1146.8600
 20
 330.0000
 11
1155.1400
 21
 330.0000
  0
LINE
  8
200
  6
AUSGEZOGEN
 10
1141.0000
 20
 315.8600
 11
1141.0000
 21
 324.1400
  0
LINE
  8
200
  6
AUSGEZOGEN
 10
1155.1400
 20
 310.0000
 11
1146.8600
 21
 310.0000
  0
LINE
  8
200
  6
AUSGEZOGEN
 10
1131.0000
 20
 324.1400
 11
1131.0000
 21
 315.8600
  0
LINE
  8
200
  6
AUSGEZOGEN
 10
1116.8600
 20
 330.0000
 11
1125.1400
 21
 330.0000
  0
LINE
  8
200
  6
AUSGEZOGEN
 10
1111.0000
 20
 315.8600
 11
1111.0000
 21
 324.1400
  0
LINE
  8
200
  6
AUSGEZOGEN
 10
1125.1400
 20
 310.0000
 11
1116.8600
 21
 310.0000
  0
LINE
  8
200
  6
AUSGEZOGEN
 10
1101.0000
 20
 324.1400
 11
1101.0000
 21
 315.8600
  0
LINE
  8
200
  6
AUSGEZOGEN
 10
1086.8600
 20
 330.0000
 11
1095.1400
 21
 330.0000
  0
LINE
  8
200
  6
AUSGEZOGEN
 10
1081.0000
 20
 315.8600
 11
1081.0000
 21
 324.1400
  0
LINE
  8
200
  6
AUSGEZOGEN
 10
1095.1400
 20
 310.0000
 11
1086.8600
 21
 310.0000
  0
LINE
  8
200
  6
AUSGEZOGEN
 10
1071.0000
 20
 324.1400
 11
1071.0000
 21
 315.8600
  0
LINE
  8
200
  6
AUSGEZOGEN
 10
1056.8600
 20
 330.0000
 11
1065.1400
 21
 330.0000
  0
LINE
  8
200
  6
AUSGEZOGEN
 10
1051.0000
 20
 315.8600
 11
1051.0000
 21
 324.1400
  0
LINE
  8
200
  6
AUSGEZOGEN
 10
1065.1400
 20
 310.0000
 11
1056.8600
 21
 310.0000
  0
LINE
  8
200
  6
AUSGEZOGEN
 10
1551.0000
 20
 285.8600
 11
1551.0000
 21
 294.1400
  0
LINE
  8
200
  6
AUSGEZOGEN
 10
1536.8600
 20
 300.0000
 11
1545.1400
 21
 300.0000
  0
LINE
  8
200
  6
AUSGEZOGEN
 10
1531.0000
 20
 285.8600
 11
1531.0000
 21
 294.1400
  0
LINE
  8
200
  6
AUSGEZOGEN
 10
1545.1400
 20
 280.0000
 11
1536.8600
 21
 280.0000
  0
LINE
  8
200
  6
AUSGEZOGEN
 10
1521.0000
 20
 294.1400
 11
1521.0000
 21
 285.8600
  0
LINE
  8
200
  6
AUSGEZOGEN
 10
1506.8600
 20
 300.0000
 11
1515.1400
 21
 300.0000
  0
LINE
  8
200
  6
AUSGEZOGEN
 10
1501.0000
 20
 285.8600
 11
1501.0000
 21
 294.1400
  0
LINE
  8
200
  6
AUSGEZOGEN
 10
1515.1400
 20
 280.0000
 11
1506.8600
 21
 280.0000
  0
LINE
  8
200
  6
AUSGEZOGEN
 10
1491.0000
 20
 294.1400
 11
1491.0000
 21
 285.8600
  0
LINE
  8
200
  6
AUSGEZOGEN
 10
1476.8600
 20
 300.0000
 11
1485.1400
 21
 300.0000
  0
LINE
  8
200
  6
AUSGEZOGEN
 10
1471.0000
 20
 285.8600
 11
1471.0000
 21
 294.1400
  0
LINE
  8
200
  6
AUSGEZOGEN
 10
1485.1400
 20
 280.0000
 11
1476.8600
 21
 280.0000
  0
LINE
  8
200
  6
AUSGEZOGEN
 10
1461.0000
 20
 294.1400
 11
1461.0000
 21
 285.8600
  0
LINE
  8
200
  6
AUSGEZOGEN
 10
1446.8600
 20
 300.0000
 11
1455.1400
 21
 300.0000
  0
LINE
  8
200
  6
AUSGEZOGEN
 10
1441.0000
 20
 285.8600
 11
1441.0000
 21
 294.1400
  0
LINE
  8
200
  6
AUSGEZOGEN
 10
1455.1400
 20
 280.0000
 11
1446.8600
 21
 280.0000
  0
LINE
  8
200
  6
AUSGEZOGEN
 10
1431.0000
 20
 294.1400
 11
1431.0000
 21
 285.8600
  0
LINE
  8
200
  6
AUSGEZOGEN
 10
1416.8600
 20
 300.0000
 11
1425.1400
 21
 300.0000
  0
LINE
  8
200
  6
AUSGEZOGEN
 10
1411.0000
 20
 285.8600
 11
1411.0000
 21
 294.1400
  0
LINE
  8
200
  6
AUSGEZOGEN
 10
1425.1400
 20
 280.0000
 11
1416.8600
 21
 280.0000
  0
LINE
  8
200
  6
AUSGEZOGEN
 10
1401.0000
 20
 294.1400
 11
1401.0000
 21
 285.8600
  0
LINE
  8
200
  6
AUSGEZOGEN
 10
1386.8600
 20
 300.0000
 11
1395.1400
 21
 300.0000
  0
LINE
  8
200
  6
AUSGEZOGEN
 10
1381.0000
 20
 285.8600
 11
1381.0000
 21
 294.1400
  0
LINE
  8
200
  6
AUSGEZOGEN
 10
1395.1400
 20
 280.0000
 11
1386.8600
 21
 280.0000
  0
LINE
  8
200
  6
AUSGEZOGEN
 10
1371.0000
 20
 294.1400
 11
1371.0000
 21
 285.8600
  0
LINE
  8
200
  6
AUSGEZOGEN
 10
1356.8600
 20
 300.0000
 11
1365.1400
 21
 300.0000
  0
LINE
  8
200
  6
AUSGEZOGEN
 10
1351.0000
 20
 285.8600
 11
1351.0000
 21
 294.1400
  0
LINE
  8
200
  6
AUSGEZOGEN
 10
1365.1400
 20
 280.0000
 11
1356.8600
 21
 280.0000
  0
LINE
  8
200
  6
AUSGEZOGEN
 10
1341.0000
 20
 294.1400
 11
1341.0000
 21
 285.8600
  0
LINE
  8
200
  6
AUSGEZOGEN
 10
1326.8600
 20
 300.0000
 11
1335.1400
 21
 300.0000
  0
LINE
  8
200
  6
AUSGEZOGEN
 10
1321.0000
 20
 285.8600
 11
1321.0000
 21
 294.1400
  0
LINE
  8
200
  6
AUSGEZOGEN
 10
1335.1400
 20
 280.0000
 11
1326.8600
 21
 280.0000
  0
LINE
  8
200
  6
AUSGEZOGEN
 10
1311.0000
 20
 294.1400
 11
1311.0000
 21
 285.8600
  0
LINE
  8
200
  6
AUSGEZOGEN
 10
1296.8600
 20
 300.0000
 11
1305.1400
 21
 300.0000
  0
LINE
  8
200
  6
AUSGEZOGEN
 10
1291.0000
 20
 285.8600
 11
1291.0000
 21
 294.1400
  0
LINE
  8
200
  6
AUSGEZOGEN
 10
1305.1400
 20
 280.0000
 11
1296.8600
 21
 280.0000
  0
LINE
  8
200
  6
AUSGEZOGEN
 10
1281.0000
 20
 294.1400
 11
1281.0000
 21
 285.8600
  0
LINE
  8
200
  6
AUSGEZOGEN
 10
1266.8600
 20
 300.0000
 11
1275.1400
 21
 300.0000
  0
LINE
  8
200
  6
AUSGEZOGEN
 10
1261.0000
 20
 285.8600
 11
1261.0000
 21
 294.1400
  0
LINE
  8
200
  6
AUSGEZOGEN
 10
1275.1400
 20
 280.0000
 11
1266.8600
 21
 280.0000
  0
LINE
  8
200
  6
AUSGEZOGEN
 10
1251.0000
 20
 294.1400
 11
1251.0000
 21
 285.8600
  0
LINE
  8
200
  6
AUSGEZOGEN
 10
1236.8600
 20
 300.0000
 11
1245.1400
 21
 300.0000
  0
LINE
  8
200
  6
AUSGEZOGEN
 10
1231.0000
 20
 285.8600
 11
1231.0000
 21
 294.1400
  0
LINE
  8
200
  6
AUSGEZOGEN
 10
1245.1400
 20
 280.0000
 11
1236.8600
 21
 280.0000
  0
LINE
  8
200
  6
AUSGEZOGEN
 10
1221.0000
 20
 294.1400
 11
1221.0000
 21
 285.8600
  0
LINE
  8
200
  6
AUSGEZOGEN
 10
1206.8600
 20
 300.0000
 11
1215.1400
 21
 300.0000
  0
LINE
  8
200
  6
AUSGEZOGEN
 10
1201.0000
 20
 285.8600
 11
1201.0000
 21
 294.1400
  0
LINE
  8
200
  6
AUSGEZOGEN
 10
1215.1400
 20
 280.0000
 11
1206.8600
 21
 280.0000
  0
LINE
  8
200
  6
AUSGEZOGEN
 10
1191.0000
 20
 294.1400
 11
1191.0000
 21
 285.8600
  0
LINE
  8
200
  6
AUSGEZOGEN
 10
1176.8600
 20
 300.0000
 11
1185.1400
 21
 300.0000
  0
LINE
  8
200
  6
AUSGEZOGEN
 10
1171.0000
 20
 285.8600
 11
1171.0000
 21
 294.1400
  0
LINE
  8
200
  6
AUSGEZOGEN
 10
1185.1400
 20
 280.0000
 11
1176.8600
 21
 280.0000
  0
LINE
  8
200
  6
AUSGEZOGEN
 10
1161.0000
 20
 294.1400
 11
1161.0000
 21
 285.8600
  0
LINE
  8
200
  6
AUSGEZOGEN
 10
1146.8600
 20
 300.0000
 11
1155.1400
 21
 300.0000
  0
LINE
  8
200
  6
AUSGEZOGEN
 10
1141.0000
 20
 285.8600
 11
1141.0000
 21
 294.1400
  0
LINE
  8
200
  6
AUSGEZOGEN
 10
1155.1400
 20
 280.0000
 11
1146.8600
 21
 280.0000
  0
LINE
  8
200
  6
AUSGEZOGEN
 10
1131.0000
 20
 294.1400
 11
1131.0000
 21
 285.8600
  0
LINE
  8
200
  6
AUSGEZOGEN
 10
1116.8600
 20
 300.0000
 11
1125.1400
 21
 300.0000
  0
LINE
  8
200
  6
AUSGEZOGEN
 10
1111.0000
 20
 285.8600
 11
1111.0000
 21
 294.1400
  0
LINE
  8
200
  6
AUSGEZOGEN
 10
1125.1400
 20
 280.0000
 11
1116.8600
 21
 280.0000
  0
LINE
  8
200
  6
AUSGEZOGEN
 10
1101.0000
 20
 294.1400
 11
1101.0000
 21
 285.8600
  0
LINE
  8
200
  6
AUSGEZOGEN
 10
1086.8600
 20
 300.0000
 11
1095.1400
 21
 300.0000
  0
LINE
  8
200
  6
AUSGEZOGEN
 10
1081.0000
 20
 285.8600
 11
1081.0000
 21
 294.1400
  0
LINE
  8
200
  6
AUSGEZOGEN
 10
1095.1400
 20
 280.0000
 11
1086.8600
 21
 280.0000
  0
LINE
  8
200
  6
AUSGEZOGEN
 10
1071.0000
 20
 294.1400
 11
1071.0000
 21
 285.8600
  0
LINE
  8
200
  6
AUSGEZOGEN
 10
1056.8600
 20
 300.0000
 11
1065.1400
 21
 300.0000
  0
LINE
  8
200
  6
AUSGEZOGEN
 10
1051.0000
 20
 285.8600
 11
1051.0000
 21
 294.1400
  0
LINE
  8
200
  6
AUSGEZOGEN
 10
1065.1400
 20
 280.0000
 11
1056.8600
 21
 280.0000
  0
LINE
  8
200
  6
AUSGEZOGEN
 10
1551.0000
 20
 105.8600
 11
1551.0000
 21
 114.1400
  0
LINE
  8
200
  6
AUSGEZOGEN
 10
1536.8600
 20
 120.0000
 11
1545.1400
 21
 120.0000
  0
LINE
  8
200
  6
AUSGEZOGEN
 10
1531.0000
 20
 105.8600
 11
1531.0000
 21
 114.1400
  0
LINE
  8
200
  6
AUSGEZOGEN
 10
1545.1400
 20
 100.0000
 11
1536.8600
 21
 100.0000
  0
LINE
  8
200
  6
AUSGEZOGEN
 10
1521.0000
 20
 114.1400
 11
1521.0000
 21
 105.8600
  0
LINE
  8
200
  6
AUSGEZOGEN
 10
1506.8600
 20
 120.0000
 11
1515.1400
 21
 120.0000
  0
LINE
  8
200
  6
AUSGEZOGEN
 10
1501.0000
 20
 105.8600
 11
1501.0000
 21
 114.1400
  0
LINE
  8
200
  6
AUSGEZOGEN
 10
1515.1400
 20
 100.0000
 11
1506.8600
 21
 100.0000
  0
LINE
  8
200
  6
AUSGEZOGEN
 10
1491.0000
 20
 114.1400
 11
1491.0000
 21
 105.8600
  0
LINE
  8
200
  6
AUSGEZOGEN
 10
1476.8600
 20
 120.0000
 11
1485.1400
 21
 120.0000
  0
LINE
  8
200
  6
AUSGEZOGEN
 10
1471.0000
 20
 105.8600
 11
1471.0000
 21
 114.1400
  0
LINE
  8
200
  6
AUSGEZOGEN
 10
1485.1400
 20
 100.0000
 11
1476.8600
 21
 100.0000
  0
LINE
  8
200
  6
AUSGEZOGEN
 10
1461.0000
 20
 114.1400
 11
1461.0000
 21
 105.8600
  0
LINE
  8
200
  6
AUSGEZOGEN
 10
1446.8600
 20
 120.0000
 11
1455.1400
 21
 120.0000
  0
LINE
  8
200
  6
AUSGEZOGEN
 10
1441.0000
 20
 105.8600
 11
1441.0000
 21
 114.1400
  0
LINE
  8
200
  6
AUSGEZOGEN
 10
1455.1400
 20
 100.0000
 11
1446.8600
 21
 100.0000
  0
LINE
  8
200
  6
AUSGEZOGEN
 10
1431.0000
 20
 114.1400
 11
1431.0000
 21
 105.8600
  0
LINE
  8
200
  6
AUSGEZOGEN
 10
1416.8600
 20
 120.0000
 11
1425.1400
 21
 120.0000
  0
LINE
  8
200
  6
AUSGEZOGEN
 10
1411.0000
 20
 105.8600
 11
1411.0000
 21
 114.1400
  0
LINE
  8
200
  6
AUSGEZOGEN
 10
1425.1400
 20
 100.0000
 11
1416.8600
 21
 100.0000
  0
LINE
  8
200
  6
AUSGEZOGEN
 10
1401.0000
 20
 114.1400
 11
1401.0000
 21
 105.8600
  0
LINE
  8
200
  6
AUSGEZOGEN
 10
1386.8600
 20
 120.0000
 11
1395.1400
 21
 120.0000
  0
LINE
  8
200
  6
AUSGEZOGEN
 10
1381.0000
 20
 105.8600
 11
1381.0000
 21
 114.1400
  0
LINE
  8
200
  6
AUSGEZOGEN
 10
1395.1400
 20
 100.0000
 11
1386.8600
 21
 100.0000
  0
LINE
  8
200
  6
AUSGEZOGEN
 10
1371.0000
 20
 114.1400
 11
1371.0000
 21
 105.8600
  0
LINE
  8
200
  6
AUSGEZOGEN
 10
1356.8600
 20
 120.0000
 11
1365.1400
 21
 120.0000
  0
LINE
  8
200
  6
AUSGEZOGEN
 10
1351.0000
 20
 105.8600
 11
1351.0000
 21
 114.1400
  0
LINE
  8
200
  6
AUSGEZOGEN
 10
1365.1400
 20
 100.0000
 11
1356.8600
 21
 100.0000
  0
LINE
  8
200
  6
AUSGEZOGEN
 10
1341.0000
 20
 114.1400
 11
1341.0000
 21
 105.8600
  0
LINE
  8
200
  6
AUSGEZOGEN
 10
1326.8600
 20
 120.0000
 11
1335.1400
 21
 120.0000
  0
LINE
  8
200
  6
AUSGEZOGEN
 10
1321.0000
 20
 105.8600
 11
1321.0000
 21
 114.1400
  0
LINE
  8
200
  6
AUSGEZOGEN
 10
1335.1400
 20
 100.0000
 11
1326.8600
 21
 100.0000
  0
LINE
  8
200
  6
AUSGEZOGEN
 10
1311.0000
 20
 114.1400
 11
1311.0000
 21
 105.8600
  0
LINE
  8
200
  6
AUSGEZOGEN
 10
1296.8600
 20
 120.0000
 11
1305.1400
 21
 120.0000
  0
LINE
  8
200
  6
AUSGEZOGEN
 10
1291.0000
 20
 105.8600
 11
1291.0000
 21
 114.1400
  0
LINE
  8
200
  6
AUSGEZOGEN
 10
1305.1400
 20
 100.0000
 11
1296.8600
 21
 100.0000
  0
LINE
  8
200
  6
AUSGEZOGEN
 10
1281.0000
 20
 114.1400
 11
1281.0000
 21
 105.8600
  0
LINE
  8
200
  6
AUSGEZOGEN
 10
1266.8600
 20
 120.0000
 11
1275.1400
 21
 120.0000
  0
LINE
  8
200
  6
AUSGEZOGEN
 10
1261.0000
 20
 105.8600
 11
1261.0000
 21
 114.1400
  0
LINE
  8
200
  6
AUSGEZOGEN
 10
1275.1400
 20
 100.0000
 11
1266.8600
 21
 100.0000
  0
LINE
  8
200
  6
AUSGEZOGEN
 10
1251.0000
 20
 114.1400
 11
1251.0000
 21
 105.8600
  0
LINE
  8
200
  6
AUSGEZOGEN
 10
1236.8600
 20
 120.0000
 11
1245.1400
 21
 120.0000
  0
LINE
  8
200
  6
AUSGEZOGEN
 10
1231.0000
 20
 105.8600
 11
1231.0000
 21
 114.1400
  0
LINE
  8
200
  6
AUSGEZOGEN
 10
1245.1400
 20
 100.0000
 11
1236.8600
 21
 100.0000
  0
LINE
  8
200
  6
AUSGEZOGEN
 10
1221.0000
 20
 114.1400
 11
1221.0000
 21
 105.8600
  0
LINE
  8
200
  6
AUSGEZOGEN
 10
1206.8600
 20
 120.0000
 11
1215.1400
 21
 120.0000
  0
LINE
  8
200
  6
AUSGEZOGEN
 10
1201.0000
 20
 105.8600
 11
1201.0000
 21
 114.1400
  0
LINE
  8
200
  6
AUSGEZOGEN
 10
1215.1400
 20
 100.0000
 11
1206.8600
 21
 100.0000
  0
LINE
  8
200
  6
AUSGEZOGEN
 10
1191.0000
 20
 114.1400
 11
1191.0000
 21
 105.8600
  0
LINE
  8
200
  6
AUSGEZOGEN
 10
1176.8600
 20
 120.0000
 11
1185.1400
 21
 120.0000
  0
LINE
  8
200
  6
AUSGEZOGEN
 10
1171.0000
 20
 105.8600
 11
1171.0000
 21
 114.1400
  0
LINE
  8
200
  6
AUSGEZOGEN
 10
1185.1400
 20
 100.0000
 11
1176.8600
 21
 100.0000
  0
LINE
  8
200
  6
AUSGEZOGEN
 10
1161.0000
 20
 114.1400
 11
1161.0000
 21
 105.8600
  0
LINE
  8
200
  6
AUSGEZOGEN
 10
1146.8600
 20
 120.0000
 11
1155.1400
 21
 120.0000
  0
LINE
  8
200
  6
AUSGEZOGEN
 10
1141.0000
 20
 105.8600
 11
1141.0000
 21
 114.1400
  0
LINE
  8
200
  6
AUSGEZOGEN
 10
1155.1400
 20
 100.0000
 11
1146.8600
 21
 100.0000
  0
LINE
  8
200
  6
AUSGEZOGEN
 10
1131.0000
 20
 114.1400
 11
1131.0000
 21
 105.8600
  0
LINE
  8
200
  6
AUSGEZOGEN
 10
1116.8600
 20
 120.0000
 11
1125.1400
 21
 120.0000
  0
LINE
  8
200
  6
AUSGEZOGEN
 10
1111.0000
 20
 105.8600
 11
1111.0000
 21
 114.1400
  0
LINE
  8
200
  6
AUSGEZOGEN
 10
1125.1400
 20
 100.0000
 11
1116.8600
 21
 100.0000
  0
LINE
  8
200
  6
AUSGEZOGEN
 10
1101.0000
 20
 114.1400
 11
1101.0000
 21
 105.8600
  0
LINE
  8
200
  6
AUSGEZOGEN
 10
1086.8600
 20
 120.0000
 11
1095.1400
 21
 120.0000
  0
LINE
  8
200
  6
AUSGEZOGEN
 10
1081.0000
 20
 105.8600
 11
1081.0000
 21
 114.1400
  0
LINE
  8
200
  6
AUSGEZOGEN
 10
1095.1400
 20
 100.0000
 11
1086.8600
 21
 100.0000
  0
LINE
  8
200
  6
AUSGEZOGEN
 10
1071.0000
 20
 114.1400
 11
1071.0000
 21
 105.8600
  0
LINE
  8
200
  6
AUSGEZOGEN
 10
1056.8600
 20
 120.0000
 11
1065.1400
 21
 120.0000
  0
LINE
  8
200
  6
AUSGEZOGEN
 10
1051.0000
 20
 105.8600
 11
1051.0000
 21
 114.1400
  0
LINE
  8
200
  6
AUSGEZOGEN
 10
1065.1400
 20
 100.0000
 11
1056.8600
 21
 100.0000
  0
LINE
  8
200
  6
AUSGEZOGEN
 10
1551.0000
 20
 144.1400
 11
1551.0000
 21
 135.8600
  0
LINE
  8
200
  6
AUSGEZOGEN
 10
1536.8600
 20
 150.0000
 11
1545.1400
 21
 150.0000
  0
LINE
  8
200
  6
AUSGEZOGEN
 10
1531.0000
 20
 135.8600
 11
1531.0000
 21
 144.1400
  0
LINE
  8
200
  6
AUSGEZOGEN
 10
1545.1400
 20
 130.0000
 11
1536.8600
 21
 130.0000
  0
LINE
  8
200
  6
AUSGEZOGEN
 10
1521.0000
 20
 144.1400
 11
1521.0000
 21
 135.8600
  0
LINE
  8
200
  6
AUSGEZOGEN
 10
1506.8600
 20
 150.0000
 11
1515.1400
 21
 150.0000
  0
LINE
  8
200
  6
AUSGEZOGEN
 10
1501.0000
 20
 135.8600
 11
1501.0000
 21
 144.1400
  0
LINE
  8
200
  6
AUSGEZOGEN
 10
1515.1400
 20
 130.0000
 11
1506.8600
 21
 130.0000
  0
LINE
  8
200
  6
AUSGEZOGEN
 10
1491.0000
 20
 144.1400
 11
1491.0000
 21
 135.8600
  0
LINE
  8
200
  6
AUSGEZOGEN
 10
1476.8600
 20
 150.0000
 11
1485.1400
 21
 150.0000
  0
LINE
  8
200
  6
AUSGEZOGEN
 10
1471.0000
 20
 135.8600
 11
1471.0000
 21
 144.1400
  0
LINE
  8
200
  6
AUSGEZOGEN
 10
1485.1400
 20
 130.0000
 11
1476.8600
 21
 130.0000
  0
LINE
  8
200
  6
AUSGEZOGEN
 10
1461.0000
 20
 144.1400
 11
1461.0000
 21
 135.8600
  0
LINE
  8
200
  6
AUSGEZOGEN
 10
1446.8600
 20
 150.0000
 11
1455.1400
 21
 150.0000
  0
LINE
  8
200
  6
AUSGEZOGEN
 10
1441.0000
 20
 135.8600
 11
1441.0000
 21
 144.1400
  0
LINE
  8
200
  6
AUSGEZOGEN
 10
1455.1400
 20
 130.0000
 11
1446.8600
 21
 130.0000
  0
LINE
  8
200
  6
AUSGEZOGEN
 10
1431.0000
 20
 144.1400
 11
1431.0000
 21
 135.8600
  0
LINE
  8
200
  6
AUSGEZOGEN
 10
1416.8600
 20
 150.0000
 11
1425.1400
 21
 150.0000
  0
LINE
  8
200
  6
AUSGEZOGEN
 10
1411.0000
 20
 135.8600
 11
1411.0000
 21
 144.1400
  0
LINE
  8
200
  6
AUSGEZOGEN
 10
1425.1400
 20
 130.0000
 11
1416.8600
 21
 130.0000
  0
LINE
  8
200
  6
AUSGEZOGEN
 10
1401.0000
 20
 144.1400
 11
1401.0000
 21
 135.8600
  0
LINE
  8
200
  6
AUSGEZOGEN
 10
1386.8600
 20
 150.0000
 11
1395.1400
 21
 150.0000
  0
LINE
  8
200
  6
AUSGEZOGEN
 10
1381.0000
 20
 135.8600
 11
1381.0000
 21
 144.1400
  0
LINE
  8
200
  6
AUSGEZOGEN
 10
1395.1400
 20
 130.0000
 11
1386.8600
 21
 130.0000
  0
LINE
  8
200
  6
AUSGEZOGEN
 10
1371.0000
 20
 144.1400
 11
1371.0000
 21
 135.8600
  0
LINE
  8
200
  6
AUSGEZOGEN
 10
1356.8600
 20
 150.0000
 11
1365.1400
 21
 150.0000
  0
LINE
  8
200
  6
AUSGEZOGEN
 10
1351.0000
 20
 135.8600
 11
1351.0000
 21
 144.1400
  0
LINE
  8
200
  6
AUSGEZOGEN
 10
1365.1400
 20
 130.0000
 11
1356.8600
 21
 130.0000
  0
LINE
  8
200
  6
AUSGEZOGEN
 10
1341.0000
 20
 144.1400
 11
1341.0000
 21
 135.8600
  0
LINE
  8
200
  6
AUSGEZOGEN
 10
1326.8600
 20
 150.0000
 11
1335.1400
 21
 150.0000
  0
LINE
  8
200
  6
AUSGEZOGEN
 10
1321.0000
 20
 135.8600
 11
1321.0000
 21
 144.1400
  0
LINE
  8
200
  6
AUSGEZOGEN
 10
1335.1400
 20
 130.0000
 11
1326.8600
 21
 130.0000
  0
LINE
  8
200
  6
AUSGEZOGEN
 10
1311.0000
 20
 144.1400
 11
1311.0000
 21
 135.8600
  0
LINE
  8
200
  6
AUSGEZOGEN
 10
1296.8600
 20
 150.0000
 11
1305.1400
 21
 150.0000
  0
LINE
  8
200
  6
AUSGEZOGEN
 10
1291.0000
 20
 135.8600
 11
1291.0000
 21
 144.1400
  0
LINE
  8
200
  6
AUSGEZOGEN
 10
1305.1400
 20
 130.0000
 11
1296.8600
 21
 130.0000
  0
LINE
  8
200
  6
AUSGEZOGEN
 10
1281.0000
 20
 144.1400
 11
1281.0000
 21
 135.8600
  0
LINE
  8
200
  6
AUSGEZOGEN
 10
1266.8600
 20
 150.0000
 11
1275.1400
 21
 150.0000
  0
LINE
  8
200
  6
AUSGEZOGEN
 10
1261.0000
 20
 135.8600
 11
1261.0000
 21
 144.1400
  0
LINE
  8
200
  6
AUSGEZOGEN
 10
1275.1400
 20
 130.0000
 11
1266.8600
 21
 130.0000
  0
LINE
  8
200
  6
AUSGEZOGEN
 10
1251.0000
 20
 144.1400
 11
1251.0000
 21
 135.8600
  0
LINE
  8
200
  6
AUSGEZOGEN
 10
1236.8600
 20
 150.0000
 11
1245.1400
 21
 150.0000
  0
LINE
  8
200
  6
AUSGEZOGEN
 10
1231.0000
 20
 135.8600
 11
1231.0000
 21
 144.1400
  0
LINE
  8
200
  6
AUSGEZOGEN
 10
1245.1400
 20
 130.0000
 11
1236.8600
 21
 130.0000
  0
LINE
  8
200
  6
AUSGEZOGEN
 10
1221.0000
 20
 144.1400
 11
1221.0000
 21
 135.8600
  0
LINE
  8
200
  6
AUSGEZOGEN
 10
1206.8600
 20
 150.0000
 11
1215.1400
 21
 150.0000
  0
LINE
  8
200
  6
AUSGEZOGEN
 10
1201.0000
 20
 135.8600
 11
1201.0000
 21
 144.1400
  0
LINE
  8
200
  6
AUSGEZOGEN
 10
1215.1400
 20
 130.0000
 11
1206.8600
 21
 130.0000
  0
LINE
  8
200
  6
AUSGEZOGEN
 10
1191.0000
 20
 144.1400
 11
1191.0000
 21
 135.8600
  0
LINE
  8
200
  6
AUSGEZOGEN
 10
1176.8600
 20
 150.0000
 11
1185.1400
 21
 150.0000
  0
LINE
  8
200
  6
AUSGEZOGEN
 10
1171.0000
 20
 135.8600
 11
1171.0000
 21
 144.1400
  0
LINE
  8
200
  6
AUSGEZOGEN
 10
1185.1400
 20
 130.0000
 11
1176.8600
 21
 130.0000
  0
LINE
  8
200
  6
AUSGEZOGEN
 10
1161.0000
 20
 144.1400
 11
1161.0000
 21
 135.8600
  0
LINE
  8
200
  6
AUSGEZOGEN
 10
1146.8600
 20
 150.0000
 11
1155.1400
 21
 150.0000
  0
LINE
  8
200
  6
AUSGEZOGEN
 10
1141.0000
 20
 135.8600
 11
1141.0000
 21
 144.1400
  0
LINE
  8
200
  6
AUSGEZOGEN
 10
1155.1400
 20
 130.0000
 11
1146.8600
 21
 130.0000
  0
LINE
  8
200
  6
AUSGEZOGEN
 10
1131.0000
 20
 144.1400
 11
1131.0000
 21
 135.8600
  0
LINE
  8
200
  6
AUSGEZOGEN
 10
1116.8600
 20
 150.0000
 11
1125.1400
 21
 150.0000
  0
LINE
  8
200
  6
AUSGEZOGEN
 10
1111.0000
 20
 135.8600
 11
1111.0000
 21
 144.1400
  0
LINE
  8
200
  6
AUSGEZOGEN
 10
1125.1400
 20
 130.0000
 11
1116.8600
 21
 130.0000
  0
LINE
  8
200
  6
AUSGEZOGEN
 10
1101.0000
 20
 144.1400
 11
1101.0000
 21
 135.8600
  0
LINE
  8
200
  6
AUSGEZOGEN
 10
1086.8600
 20
 150.0000
 11
1095.1400
 21
 150.0000
  0
LINE
  8
200
  6
AUSGEZOGEN
 10
1081.0000
 20
 135.8600
 11
1081.0000
 21
 144.1400
  0
LINE
  8
200
  6
AUSGEZOGEN
 10
1095.1400
 20
 130.0000
 11
1086.8600
 21
 130.0000
  0
LINE
  8
200
  6
AUSGEZOGEN
 10
1071.0000
 20
 144.1400
 11
1071.0000
 21
 135.8600
  0
LINE
  8
200
  6
AUSGEZOGEN
 10
1056.8600
 20
 150.0000
 11
1065.1400
 21
 150.0000
  0
LINE
  8
200
  6
AUSGEZOGEN
 10
1051.0000
 20
 135.8600
 11
1051.0000
 21
 144.1400
  0
LINE
  8
200
  6
AUSGEZOGEN
 10
1065.1400
 20
 130.0000
 11
1056.8600
 21
 130.0000
  0
LINE
  8
200
  6
AUSGEZOGEN
 10
1551.0000
 20
 174.1400
 11
1551.0000
 21
 165.8600
  0
LINE
  8
200
  6
AUSGEZOGEN
 10
1536.8600
 20
 180.0000
 11
1545.1400
 21
 180.0000
  0
LINE
  8
200
  6
AUSGEZOGEN
 10
1531.0000
 20
 165.8600
 11
1531.0000
 21
 174.1400
  0
LINE
  8
200
  6
AUSGEZOGEN
 10
1545.1400
 20
 160.0000
 11
1536.8600
 21
 160.0000
  0
LINE
  8
200
  6
AUSGEZOGEN
 10
1521.0000
 20
 174.1400
 11
1521.0000
 21
 165.8600
  0
LINE
  8
200
  6
AUSGEZOGEN
 10
1506.8600
 20
 180.0000
 11
1515.1400
 21
 180.0000
  0
LINE
  8
200
  6
AUSGEZOGEN
 10
1501.0000
 20
 165.8600
 11
1501.0000
 21
 174.1400
  0
LINE
  8
200
  6
AUSGEZOGEN
 10
1515.1400
 20
 160.0000
 11
1506.8600
 21
 160.0000
  0
LINE
  8
200
  6
AUSGEZOGEN
 10
1491.0000
 20
 174.1400
 11
1491.0000
 21
 165.8600
  0
LINE
  8
200
  6
AUSGEZOGEN
 10
1476.8600
 20
 180.0000
 11
1485.1400
 21
 180.0000
  0
LINE
  8
200
  6
AUSGEZOGEN
 10
1471.0000
 20
 165.8600
 11
1471.0000
 21
 174.1400
  0
LINE
  8
200
  6
AUSGEZOGEN
 10
1485.1400
 20
 160.0000
 11
1476.8600
 21
 160.0000
  0
LINE
  8
200
  6
AUSGEZOGEN
 10
1461.0000
 20
 174.1400
 11
1461.0000
 21
 165.8600
  0
LINE
  8
200
  6
AUSGEZOGEN
 10
1446.8600
 20
 180.0000
 11
1455.1400
 21
 180.0000
  0
LINE
  8
200
  6
AUSGEZOGEN
 10
1441.0000
 20
 165.8600
 11
1441.0000
 21
 174.1400
  0
LINE
  8
200
  6
AUSGEZOGEN
 10
1455.1400
 20
 160.0000
 11
1446.8600
 21
 160.0000
  0
LINE
  8
200
  6
AUSGEZOGEN
 10
1431.0000
 20
 174.1400
 11
1431.0000
 21
 165.8600
  0
LINE
  8
200
  6
AUSGEZOGEN
 10
1416.8600
 20
 180.0000
 11
1425.1400
 21
 180.0000
  0
LINE
  8
200
  6
AUSGEZOGEN
 10
1411.0000
 20
 165.8600
 11
1411.0000
 21
 174.1400
  0
LINE
  8
200
  6
AUSGEZOGEN
 10
1425.1400
 20
 160.0000
 11
1416.8600
 21
 160.0000
  0
LINE
  8
200
  6
AUSGEZOGEN
 10
1401.0000
 20
 174.1400
 11
1401.0000
 21
 165.8600
  0
LINE
  8
200
  6
AUSGEZOGEN
 10
1386.8600
 20
 180.0000
 11
1395.1400
 21
 180.0000
  0
LINE
  8
200
  6
AUSGEZOGEN
 10
1381.0000
 20
 165.8600
 11
1381.0000
 21
 174.1400
  0
LINE
  8
200
  6
AUSGEZOGEN
 10
1395.1400
 20
 160.0000
 11
1386.8600
 21
 160.0000
  0
LINE
  8
200
  6
AUSGEZOGEN
 10
1371.0000
 20
 174.1400
 11
1371.0000
 21
 165.8600
  0
LINE
  8
200
  6
AUSGEZOGEN
 10
1356.8600
 20
 180.0000
 11
1365.1400
 21
 180.0000
  0
LINE
  8
200
  6
AUSGEZOGEN
 10
1351.0000
 20
 165.8600
 11
1351.0000
 21
 174.1400
  0
LINE
  8
200
  6
AUSGEZOGEN
 10
1365.1400
 20
 160.0000
 11
1356.8600
 21
 160.0000
  0
LINE
  8
200
  6
AUSGEZOGEN
 10
1341.0000
 20
 174.1400
 11
1341.0000
 21
 165.8600
  0
LINE
  8
200
  6
AUSGEZOGEN
 10
1326.8600
 20
 180.0000
 11
1335.1400
 21
 180.0000
  0
LINE
  8
200
  6
AUSGEZOGEN
 10
1321.0000
 20
 165.8600
 11
1321.0000
 21
 174.1400
  0
LINE
  8
200
  6
AUSGEZOGEN
 10
1335.1400
 20
 160.0000
 11
1326.8600
 21
 160.0000
  0
LINE
  8
200
  6
AUSGEZOGEN
 10
1311.0000
 20
 174.1400
 11
1311.0000
 21
 165.8600
  0
LINE
  8
200
  6
AUSGEZOGEN
 10
1296.8600
 20
 180.0000
 11
1305.1400
 21
 180.0000
  0
LINE
  8
200
  6
AUSGEZOGEN
 10
1291.0000
 20
 165.8600
 11
1291.0000
 21
 174.1400
  0
LINE
  8
200
  6
AUSGEZOGEN
 10
1305.1400
 20
 160.0000
 11
1296.8600
 21
 160.0000
  0
LINE
  8
200
  6
AUSGEZOGEN
 10
1281.0000
 20
 174.1400
 11
1281.0000
 21
 165.8600
  0
LINE
  8
200
  6
AUSGEZOGEN
 10
1266.8600
 20
 180.0000
 11
1275.1400
 21
 180.0000
  0
LINE
  8
200
  6
AUSGEZOGEN
 10
1261.0000
 20
 165.8600
 11
1261.0000
 21
 174.1400
  0
LINE
  8
200
  6
AUSGEZOGEN
 10
1275.1400
 20
 160.0000
 11
1266.8600
 21
 160.0000
  0
LINE
  8
200
  6
AUSGEZOGEN
 10
1251.0000
 20
 174.1400
 11
1251.0000
 21
 165.8600
  0
LINE
  8
200
  6
AUSGEZOGEN
 10
1236.8600
 20
 180.0000
 11
1245.1400
 21
 180.0000
  0
LINE
  8
200
  6
AUSGEZOGEN
 10
1231.0000
 20
 165.8600
 11
1231.0000
 21
 174.1400
  0
LINE
  8
200
  6
AUSGEZOGEN
 10
1245.1400
 20
 160.0000
 11
1236.8600
 21
 160.0000
  0
LINE
  8
200
  6
AUSGEZOGEN
 10
1221.0000
 20
 174.1400
 11
1221.0000
 21
 165.8600
  0
LINE
  8
200
  6
AUSGEZOGEN
 10
1206.8600
 20
 180.0000
 11
1215.1400
 21
 180.0000
  0
LINE
  8
200
  6
AUSGEZOGEN
 10
1201.0000
 20
 165.8600
 11
1201.0000
 21
 174.1400
  0
LINE
  8
200
  6
AUSGEZOGEN
 10
1215.1400
 20
 160.0000
 11
1206.8600
 21
 160.0000
  0
LINE
  8
200
  6
AUSGEZOGEN
 10
1191.0000
 20
 174.1400
 11
1191.0000
 21
 165.8600
  0
LINE
  8
200
  6
AUSGEZOGEN
 10
1176.8600
 20
 180.0000
 11
1185.1400
 21
 180.0000
  0
LINE
  8
200
  6
AUSGEZOGEN
 10
1171.0000
 20
 165.8600
 11
1171.0000
 21
 174.1400
  0
LINE
  8
200
  6
AUSGEZOGEN
 10
1185.1400
 20
 160.0000
 11
1176.8600
 21
 160.0000
  0
LINE
  8
200
  6
AUSGEZOGEN
 10
1161.0000
 20
 174.1400
 11
1161.0000
 21
 165.8600
  0
LINE
  8
200
  6
AUSGEZOGEN
 10
1146.8600
 20
 180.0000
 11
1155.1400
 21
 180.0000
  0
LINE
  8
200
  6
AUSGEZOGEN
 10
1141.0000
 20
 165.8600
 11
1141.0000
 21
 174.1400
  0
LINE
  8
200
  6
AUSGEZOGEN
 10
1155.1400
 20
 160.0000
 11
1146.8600
 21
 160.0000
  0
LINE
  8
200
  6
AUSGEZOGEN
 10
1131.0000
 20
 174.1400
 11
1131.0000
 21
 165.8600
  0
LINE
  8
200
  6
AUSGEZOGEN
 10
1116.8600
 20
 180.0000
 11
1125.1400
 21
 180.0000
  0
LINE
  8
200
  6
AUSGEZOGEN
 10
1111.0000
 20
 165.8600
 11
1111.0000
 21
 174.1400
  0
LINE
  8
200
  6
AUSGEZOGEN
 10
1125.1400
 20
 160.0000
 11
1116.8600
 21
 160.0000
  0
LINE
  8
200
  6
AUSGEZOGEN
 10
1101.0000
 20
 174.1400
 11
1101.0000
 21
 165.8600
  0
LINE
  8
200
  6
AUSGEZOGEN
 10
1086.8600
 20
 180.0000
 11
1095.1400
 21
 180.0000
  0
LINE
  8
200
  6
AUSGEZOGEN
 10
1081.0000
 20
 165.8600
 11
1081.0000
 21
 174.1400
  0
LINE
  8
200
  6
AUSGEZOGEN
 10
1095.1400
 20
 160.0000
 11
1086.8600
 21
 160.0000
  0
LINE
  8
200
  6
AUSGEZOGEN
 10
1071.0000
 20
 174.1400
 11
1071.0000
 21
 165.8600
  0
LINE
  8
200
  6
AUSGEZOGEN
 10
1056.8600
 20
 180.0000
 11
1065.1400
 21
 180.0000
  0
LINE
  8
200
  6
AUSGEZOGEN
 10
1051.0000
 20
 165.8600
 11
1051.0000
 21
 174.1400
  0
LINE
  8
200
  6
AUSGEZOGEN
 10
1065.1400
 20
 160.0000
 11
1056.8600
 21
 160.0000
  0
LINE
  8
200
  6
AUSGEZOGEN
 10
1551.0000
 20
 204.1400
 11
1551.0000
 21
 195.8600
  0
LINE
  8
200
  6
AUSGEZOGEN
 10
1536.8600
 20
 210.0000
 11
1545.1400
 21
 210.0000
  0
LINE
  8
200
  6
AUSGEZOGEN
 10
1531.0000
 20
 195.8600
 11
1531.0000
 21
 204.1400
  0
LINE
  8
200
  6
AUSGEZOGEN
 10
1545.1400
 20
 190.0000
 11
1536.8600
 21
 190.0000
  0
LINE
  8
200
  6
AUSGEZOGEN
 10
1521.0000
 20
 204.1400
 11
1521.0000
 21
 195.8600
  0
LINE
  8
200
  6
AUSGEZOGEN
 10
1506.8600
 20
 210.0000
 11
1515.1400
 21
 210.0000
  0
LINE
  8
200
  6
AUSGEZOGEN
 10
1501.0000
 20
 195.8600
 11
1501.0000
 21
 204.1400
  0
LINE
  8
200
  6
AUSGEZOGEN
 10
1515.1400
 20
 190.0000
 11
1506.8600
 21
 190.0000
  0
LINE
  8
200
  6
AUSGEZOGEN
 10
1491.0000
 20
 204.1400
 11
1491.0000
 21
 195.8600
  0
LINE
  8
200
  6
AUSGEZOGEN
 10
1476.8600
 20
 210.0000
 11
1485.1400
 21
 210.0000
  0
LINE
  8
200
  6
AUSGEZOGEN
 10
1471.0000
 20
 195.8600
 11
1471.0000
 21
 204.1400
  0
LINE
  8
200
  6
AUSGEZOGEN
 10
1485.1400
 20
 190.0000
 11
1476.8600
 21
 190.0000
  0
LINE
  8
200
  6
AUSGEZOGEN
 10
1461.0000
 20
 204.1400
 11
1461.0000
 21
 195.8600
  0
LINE
  8
200
  6
AUSGEZOGEN
 10
1446.8600
 20
 210.0000
 11
1455.1400
 21
 210.0000
  0
LINE
  8
200
  6
AUSGEZOGEN
 10
1441.0000
 20
 195.8600
 11
1441.0000
 21
 204.1400
  0
LINE
  8
200
  6
AUSGEZOGEN
 10
1455.1400
 20
 190.0000
 11
1446.8600
 21
 190.0000
  0
LINE
  8
200
  6
AUSGEZOGEN
 10
1431.0000
 20
 204.1400
 11
1431.0000
 21
 195.8600
  0
LINE
  8
200
  6
AUSGEZOGEN
 10
1416.8600
 20
 210.0000
 11
1425.1400
 21
 210.0000
  0
LINE
  8
200
  6
AUSGEZOGEN
 10
1411.0000
 20
 195.8600
 11
1411.0000
 21
 204.1400
  0
LINE
  8
200
  6
AUSGEZOGEN
 10
1425.1400
 20
 190.0000
 11
1416.8600
 21
 190.0000
  0
LINE
  8
200
  6
AUSGEZOGEN
 10
1401.0000
 20
 204.1400
 11
1401.0000
 21
 195.8600
  0
LINE
  8
200
  6
AUSGEZOGEN
 10
1386.8600
 20
 210.0000
 11
1395.1400
 21
 210.0000
  0
LINE
  8
200
  6
AUSGEZOGEN
 10
1381.0000
 20
 195.8600
 11
1381.0000
 21
 204.1400
  0
LINE
  8
200
  6
AUSGEZOGEN
 10
1395.1400
 20
 190.0000
 11
1386.8600
 21
 190.0000
  0
LINE
  8
200
  6
AUSGEZOGEN
 10
1371.0000
 20
 204.1400
 11
1371.0000
 21
 195.8600
  0
LINE
  8
200
  6
AUSGEZOGEN
 10
1356.8600
 20
 210.0000
 11
1365.1400
 21
 210.0000
  0
LINE
  8
200
  6
AUSGEZOGEN
 10
1351.0000
 20
 195.8600
 11
1351.0000
 21
 204.1400
  0
LINE
  8
200
  6
AUSGEZOGEN
 10
1365.1400
 20
 190.0000
 11
1356.8600
 21
 190.0000
  0
LINE
  8
200
  6
AUSGEZOGEN
 10
1341.0000
 20
 204.1400
 11
1341.0000
 21
 195.8600
  0
LINE
  8
200
  6
AUSGEZOGEN
 10
1326.8600
 20
 210.0000
 11
1335.1400
 21
 210.0000
  0
LINE
  8
200
  6
AUSGEZOGEN
 10
1321.0000
 20
 195.8600
 11
1321.0000
 21
 204.1400
  0
LINE
  8
200
  6
AUSGEZOGEN
 10
1335.1400
 20
 190.0000
 11
1326.8600
 21
 190.0000
  0
LINE
  8
200
  6
AUSGEZOGEN
 10
1311.0000
 20
 204.1400
 11
1311.0000
 21
 195.8600
  0
LINE
  8
200
  6
AUSGEZOGEN
 10
1296.8600
 20
 210.0000
 11
1305.1400
 21
 210.0000
  0
LINE
  8
200
  6
AUSGEZOGEN
 10
1291.0000
 20
 195.8600
 11
1291.0000
 21
 204.1400
  0
LINE
  8
200
  6
AUSGEZOGEN
 10
1305.1400
 20
 190.0000
 11
1296.8600
 21
 190.0000
  0
LINE
  8
200
  6
AUSGEZOGEN
 10
1281.0000
 20
 204.1400
 11
1281.0000
 21
 195.8600
  0
LINE
  8
200
  6
AUSGEZOGEN
 10
1266.8600
 20
 210.0000
 11
1275.1400
 21
 210.0000
  0
LINE
  8
200
  6
AUSGEZOGEN
 10
1261.0000
 20
 195.8600
 11
1261.0000
 21
 204.1400
  0
LINE
  8
200
  6
AUSGEZOGEN
 10
1275.1400
 20
 190.0000
 11
1266.8600
 21
 190.0000
  0
LINE
  8
200
  6
AUSGEZOGEN
 10
1251.0000
 20
 204.1400
 11
1251.0000
 21
 195.8600
  0
LINE
  8
200
  6
AUSGEZOGEN
 10
1236.8600
 20
 210.0000
 11
1245.1400
 21
 210.0000
  0
LINE
  8
200
  6
AUSGEZOGEN
 10
1231.0000
 20
 195.8600
 11
1231.0000
 21
 204.1400
  0
LINE
  8
200
  6
AUSGEZOGEN
 10
1245.1400
 20
 190.0000
 11
1236.8600
 21
 190.0000
  0
LINE
  8
200
  6
AUSGEZOGEN
 10
1221.0000
 20
 204.1400
 11
1221.0000
 21
 195.8600
  0
LINE
  8
200
  6
AUSGEZOGEN
 10
1206.8600
 20
 210.0000
 11
1215.1400
 21
 210.0000
  0
LINE
  8
200
  6
AUSGEZOGEN
 10
1201.0000
 20
 195.8600
 11
1201.0000
 21
 204.1400
  0
LINE
  8
200
  6
AUSGEZOGEN
 10
1215.1400
 20
 190.0000
 11
1206.8600
 21
 190.0000
  0
LINE
  8
200
  6
AUSGEZOGEN
 10
1191.0000
 20
 204.1400
 11
1191.0000
 21
 195.8600
  0
LINE
  8
200
  6
AUSGEZOGEN
 10
1176.8600
 20
 210.0000
 11
1185.1400
 21
 210.0000
  0
LINE
  8
200
  6
AUSGEZOGEN
 10
1171.0000
 20
 195.8600
 11
1171.0000
 21
 204.1400
  0
LINE
  8
200
  6
AUSGEZOGEN
 10
1185.1400
 20
 190.0000
 11
1176.8600
 21
 190.0000
  0
LINE
  8
200
  6
AUSGEZOGEN
 10
1161.0000
 20
 204.1400
 11
1161.0000
 21
 195.8600
  0
LINE
  8
200
  6
AUSGEZOGEN
 10
1146.8600
 20
 210.0000
 11
1155.1400
 21
 210.0000
  0
LINE
  8
200
  6
AUSGEZOGEN
 10
1141.0000
 20
 195.8600
 11
1141.0000
 21
 204.1400
  0
LINE
  8
200
  6
AUSGEZOGEN
 10
1155.1400
 20
 190.0000
 11
1146.8600
 21
 190.0000
  0
LINE
  8
200
  6
AUSGEZOGEN
 10
1131.0000
 20
 204.1400
 11
1131.0000
 21
 195.8600
  0
LINE
  8
200
  6
AUSGEZOGEN
 10
1116.8600
 20
 210.0000
 11
1125.1400
 21
 210.0000
  0
LINE
  8
200
  6
AUSGEZOGEN
 10
1111.0000
 20
 195.8600
 11
1111.0000
 21
 204.1400
  0
LINE
  8
200
  6
AUSGEZOGEN
 10
1125.1400
 20
 190.0000
 11
1116.8600
 21
 190.0000
  0
LINE
  8
200
  6
AUSGEZOGEN
 10
1101.0000
 20
 204.1400
 11
1101.0000
 21
 195.8600
  0
LINE
  8
200
  6
AUSGEZOGEN
 10
1086.8600
 20
 210.0000
 11
1095.1400
 21
 210.0000
  0
LINE
  8
200
  6
AUSGEZOGEN
 10
1081.0000
 20
 195.8600
 11
1081.0000
 21
 204.1400
  0
LINE
  8
200
  6
AUSGEZOGEN
 10
1095.1400
 20
 190.0000
 11
1086.8600
 21
 190.0000
  0
LINE
  8
200
  6
AUSGEZOGEN
 10
1071.0000
 20
 204.1400
 11
1071.0000
 21
 195.8600
  0
LINE
  8
200
  6
AUSGEZOGEN
 10
1056.8600
 20
 210.0000
 11
1065.1400
 21
 210.0000
  0
LINE
  8
200
  6
AUSGEZOGEN
 10
1051.0000
 20
 195.8600
 11
1051.0000
 21
 204.1400
  0
LINE
  8
200
  6
AUSGEZOGEN
 10
1065.1400
 20
 190.0000
 11
1056.8600
 21
 190.0000
  0
LINE
  8
200
  6
AUSGEZOGEN
 10
1551.0000
 20
 234.1400
 11
1551.0000
 21
 225.8600
  0
LINE
  8
200
  6
AUSGEZOGEN
 10
1536.8600
 20
 240.0000
 11
1545.1400
 21
 240.0000
  0
LINE
  8
200
  6
AUSGEZOGEN
 10
1531.0000
 20
 225.8600
 11
1531.0000
 21
 234.1400
  0
LINE
  8
200
  6
AUSGEZOGEN
 10
1545.1400
 20
 220.0000
 11
1536.8600
 21
 220.0000
  0
LINE
  8
200
  6
AUSGEZOGEN
 10
1521.0000
 20
 234.1400
 11
1521.0000
 21
 225.8600
  0
LINE
  8
200
  6
AUSGEZOGEN
 10
1506.8600
 20
 240.0000
 11
1515.1400
 21
 240.0000
  0
LINE
  8
200
  6
AUSGEZOGEN
 10
1501.0000
 20
 225.8600
 11
1501.0000
 21
 234.1400
  0
LINE
  8
200
  6
AUSGEZOGEN
 10
1515.1400
 20
 220.0000
 11
1506.8600
 21
 220.0000
  0
LINE
  8
200
  6
AUSGEZOGEN
 10
1491.0000
 20
 234.1400
 11
1491.0000
 21
 225.8600
  0
LINE
  8
200
  6
AUSGEZOGEN
 10
1476.8600
 20
 240.0000
 11
1485.1400
 21
 240.0000
  0
LINE
  8
200
  6
AUSGEZOGEN
 10
1471.0000
 20
 225.8600
 11
1471.0000
 21
 234.1400
  0
LINE
  8
200
  6
AUSGEZOGEN
 10
1485.1400
 20
 220.0000
 11
1476.8600
 21
 220.0000
  0
LINE
  8
200
  6
AUSGEZOGEN
 10
1461.0000
 20
 234.1400
 11
1461.0000
 21
 225.8600
  0
LINE
  8
200
  6
AUSGEZOGEN
 10
1446.8600
 20
 240.0000
 11
1455.1400
 21
 240.0000
  0
LINE
  8
200
  6
AUSGEZOGEN
 10
1441.0000
 20
 225.8600
 11
1441.0000
 21
 234.1400
  0
LINE
  8
200
  6
AUSGEZOGEN
 10
1455.1400
 20
 220.0000
 11
1446.8600
 21
 220.0000
  0
LINE
  8
200
  6
AUSGEZOGEN
 10
1431.0000
 20
 234.1400
 11
1431.0000
 21
 225.8600
  0
LINE
  8
200
  6
AUSGEZOGEN
 10
1416.8600
 20
 240.0000
 11
1425.1400
 21
 240.0000
  0
LINE
  8
200
  6
AUSGEZOGEN
 10
1411.0000
 20
 225.8600
 11
1411.0000
 21
 234.1400
  0
LINE
  8
200
  6
AUSGEZOGEN
 10
1425.1400
 20
 220.0000
 11
1416.8600
 21
 220.0000
  0
LINE
  8
200
  6
AUSGEZOGEN
 10
1401.0000
 20
 234.1400
 11
1401.0000
 21
 225.8600
  0
LINE
  8
200
  6
AUSGEZOGEN
 10
1386.8600
 20
 240.0000
 11
1395.1400
 21
 240.0000
  0
LINE
  8
200
  6
AUSGEZOGEN
 10
1381.0000
 20
 225.8600
 11
1381.0000
 21
 234.1400
  0
LINE
  8
200
  6
AUSGEZOGEN
 10
1395.1400
 20
 220.0000
 11
1386.8600
 21
 220.0000
  0
LINE
  8
200
  6
AUSGEZOGEN
 10
1371.0000
 20
 234.1400
 11
1371.0000
 21
 225.8600
  0
LINE
  8
200
  6
AUSGEZOGEN
 10
1356.8600
 20
 240.0000
 11
1365.1400
 21
 240.0000
  0
LINE
  8
200
  6
AUSGEZOGEN
 10
1351.0000
 20
 225.8600
 11
1351.0000
 21
 234.1400
  0
LINE
  8
200
  6
AUSGEZOGEN
 10
1365.1400
 20
 220.0000
 11
1356.8600
 21
 220.0000
  0
LINE
  8
200
  6
AUSGEZOGEN
 10
1341.0000
 20
 234.1400
 11
1341.0000
 21
 225.8600
  0
LINE
  8
200
  6
AUSGEZOGEN
 10
1326.8600
 20
 240.0000
 11
1335.1400
 21
 240.0000
  0
LINE
  8
200
  6
AUSGEZOGEN
 10
1321.0000
 20
 225.8600
 11
1321.0000
 21
 234.1400
  0
LINE
  8
200
  6
AUSGEZOGEN
 10
1335.1400
 20
 220.0000
 11
1326.8600
 21
 220.0000
  0
LINE
  8
200
  6
AUSGEZOGEN
 10
1311.0000
 20
 234.1400
 11
1311.0000
 21
 225.8600
  0
LINE
  8
200
  6
AUSGEZOGEN
 10
1296.8600
 20
 240.0000
 11
1305.1400
 21
 240.0000
  0
LINE
  8
200
  6
AUSGEZOGEN
 10
1291.0000
 20
 225.8600
 11
1291.0000
 21
 234.1400
  0
LINE
  8
200
  6
AUSGEZOGEN
 10
1305.1400
 20
 220.0000
 11
1296.8600
 21
 220.0000
  0
LINE
  8
200
  6
AUSGEZOGEN
 10
1281.0000
 20
 234.1400
 11
1281.0000
 21
 225.8600
  0
LINE
  8
200
  6
AUSGEZOGEN
 10
1266.8600
 20
 240.0000
 11
1275.1400
 21
 240.0000
  0
LINE
  8
200
  6
AUSGEZOGEN
 10
1261.0000
 20
 225.8600
 11
1261.0000
 21
 234.1400
  0
LINE
  8
200
  6
AUSGEZOGEN
 10
1275.1400
 20
 220.0000
 11
1266.8600
 21
 220.0000
  0
LINE
  8
200
  6
AUSGEZOGEN
 10
1251.0000
 20
 234.1400
 11
1251.0000
 21
 225.8600
  0
LINE
  8
200
  6
AUSGEZOGEN
 10
1236.8600
 20
 240.0000
 11
1245.1400
 21
 240.0000
  0
LINE
  8
200
  6
AUSGEZOGEN
 10
1231.0000
 20
 225.8600
 11
1231.0000
 21
 234.1400
  0
LINE
  8
200
  6
AUSGEZOGEN
 10
1245.1400
 20
 220.0000
 11
1236.8600
 21
 220.0000
  0
LINE
  8
200
  6
AUSGEZOGEN
 10
1221.0000
 20
 234.1400
 11
1221.0000
 21
 225.8600
  0
LINE
  8
200
  6
AUSGEZOGEN
 10
1206.8600
 20
 240.0000
 11
1215.1400
 21
 240.0000
  0
LINE
  8
200
  6
AUSGEZOGEN
 10
1201.0000
 20
 225.8600
 11
1201.0000
 21
 234.1400
  0
LINE
  8
200
  6
AUSGEZOGEN
 10
1215.1400
 20
 220.0000
 11
1206.8600
 21
 220.0000
  0
LINE
  8
200
  6
AUSGEZOGEN
 10
1191.0000
 20
 234.1400
 11
1191.0000
 21
 225.8600
  0
LINE
  8
200
  6
AUSGEZOGEN
 10
1176.8600
 20
 240.0000
 11
1185.1400
 21
 240.0000
  0
LINE
  8
200
  6
AUSGEZOGEN
 10
1171.0000
 20
 225.8600
 11
1171.0000
 21
 234.1400
  0
LINE
  8
200
  6
AUSGEZOGEN
 10
1185.1400
 20
 220.0000
 11
1176.8600
 21
 220.0000
  0
LINE
  8
200
  6
AUSGEZOGEN
 10
1161.0000
 20
 234.1400
 11
1161.0000
 21
 225.8600
  0
LINE
  8
200
  6
AUSGEZOGEN
 10
1146.8600
 20
 240.0000
 11
1155.1400
 21
 240.0000
  0
LINE
  8
200
  6
AUSGEZOGEN
 10
1141.0000
 20
 225.8600
 11
1141.0000
 21
 234.1400
  0
LINE
  8
200
  6
AUSGEZOGEN
 10
1155.1400
 20
 220.0000
 11
1146.8600
 21
 220.0000
  0
LINE
  8
200
  6
AUSGEZOGEN
 10
1131.0000
 20
 234.1400
 11
1131.0000
 21
 225.8600
  0
LINE
  8
200
  6
AUSGEZOGEN
 10
1116.8600
 20
 240.0000
 11
1125.1400
 21
 240.0000
  0
LINE
  8
200
  6
AUSGEZOGEN
 10
1111.0000
 20
 225.8600
 11
1111.0000
 21
 234.1400
  0
LINE
  8
200
  6
AUSGEZOGEN
 10
1125.1400
 20
 220.0000
 11
1116.8600
 21
 220.0000
  0
LINE
  8
200
  6
AUSGEZOGEN
 10
1101.0000
 20
 234.1400
 11
1101.0000
 21
 225.8600
  0
LINE
  8
200
  6
AUSGEZOGEN
 10
1086.8600
 20
 240.0000
 11
1095.1400
 21
 240.0000
  0
LINE
  8
200
  6
AUSGEZOGEN
 10
1081.0000
 20
 225.8600
 11
1081.0000
 21
 234.1400
  0
LINE
  8
200
  6
AUSGEZOGEN
 10
1095.1400
 20
 220.0000
 11
1086.8600
 21
 220.0000
  0
LINE
  8
200
  6
AUSGEZOGEN
 10
1071.0000
 20
 234.1400
 11
1071.0000
 21
 225.8600
  0
LINE
  8
200
  6
AUSGEZOGEN
 10
1056.8600
 20
 240.0000
 11
1065.1400
 21
 240.0000
  0
LINE
  8
200
  6
AUSGEZOGEN
 10
1051.0000
 20
 225.8600
 11
1051.0000
 21
 234.1400
  0
LINE
  8
200
  6
AUSGEZOGEN
 10
1065.1400
 20
 220.0000
 11
1056.8600
 21
 220.0000
  0
LINE
  8
200
  6
AUSGEZOGEN
 10
1551.0000
 20
 264.1400
 11
1551.0000
 21
 255.8600
  0
LINE
  8
200
  6
AUSGEZOGEN
 10
1536.8600
 20
 270.0000
 11
1545.1400
 21
 270.0000
  0
LINE
  8
200
  6
AUSGEZOGEN
 10
1531.0000
 20
 255.8600
 11
1531.0000
 21
 264.1400
  0
LINE
  8
200
  6
AUSGEZOGEN
 10
1545.1400
 20
 250.0000
 11
1536.8600
 21
 250.0000
  0
LINE
  8
200
  6
AUSGEZOGEN
 10
1521.0000
 20
 264.1400
 11
1521.0000
 21
 255.8600
  0
LINE
  8
200
  6
AUSGEZOGEN
 10
1506.8600
 20
 270.0000
 11
1515.1400
 21
 270.0000
  0
LINE
  8
200
  6
AUSGEZOGEN
 10
1501.0000
 20
 255.8600
 11
1501.0000
 21
 264.1400
  0
LINE
  8
200
  6
AUSGEZOGEN
 10
1515.1400
 20
 250.0000
 11
1506.8600
 21
 250.0000
  0
LINE
  8
200
  6
AUSGEZOGEN
 10
1491.0000
 20
 264.1400
 11
1491.0000
 21
 255.8600
  0
LINE
  8
200
  6
AUSGEZOGEN
 10
1476.8600
 20
 270.0000
 11
1485.1400
 21
 270.0000
  0
LINE
  8
200
  6
AUSGEZOGEN
 10
1471.0000
 20
 255.8600
 11
1471.0000
 21
 264.1400
  0
LINE
  8
200
  6
AUSGEZOGEN
 10
1485.1400
 20
 250.0000
 11
1476.8600
 21
 250.0000
  0
LINE
  8
200
  6
AUSGEZOGEN
 10
1461.0000
 20
 264.1400
 11
1461.0000
 21
 255.8600
  0
LINE
  8
200
  6
AUSGEZOGEN
 10
1446.8600
 20
 270.0000
 11
1455.1400
 21
 270.0000
  0
LINE
  8
200
  6
AUSGEZOGEN
 10
1441.0000
 20
 255.8600
 11
1441.0000
 21
 264.1400
  0
LINE
  8
200
  6
AUSGEZOGEN
 10
1455.1400
 20
 250.0000
 11
1446.8600
 21
 250.0000
  0
LINE
  8
200
  6
AUSGEZOGEN
 10
1431.0000
 20
 264.1400
 11
1431.0000
 21
 255.8600
  0
LINE
  8
200
  6
AUSGEZOGEN
 10
1416.8600
 20
 270.0000
 11
1425.1400
 21
 270.0000
  0
LINE
  8
200
  6
AUSGEZOGEN
 10
1411.0000
 20
 255.8600
 11
1411.0000
 21
 264.1400
  0
LINE
  8
200
  6
AUSGEZOGEN
 10
1425.1400
 20
 250.0000
 11
1416.8600
 21
 250.0000
  0
LINE
  8
200
  6
AUSGEZOGEN
 10
1401.0000
 20
 264.1400
 11
1401.0000
 21
 255.8600
  0
LINE
  8
200
  6
AUSGEZOGEN
 10
1386.8600
 20
 270.0000
 11
1395.1400
 21
 270.0000
  0
LINE
  8
200
  6
AUSGEZOGEN
 10
1381.0000
 20
 255.8600
 11
1381.0000
 21
 264.1400
  0
LINE
  8
200
  6
AUSGEZOGEN
 10
1395.1400
 20
 250.0000
 11
1386.8600
 21
 250.0000
  0
LINE
  8
200
  6
AUSGEZOGEN
 10
1371.0000
 20
 264.1400
 11
1371.0000
 21
 255.8600
  0
LINE
  8
200
  6
AUSGEZOGEN
 10
1356.8600
 20
 270.0000
 11
1365.1400
 21
 270.0000
  0
LINE
  8
200
  6
AUSGEZOGEN
 10
1351.0000
 20
 255.8600
 11
1351.0000
 21
 264.1400
  0
LINE
  8
200
  6
AUSGEZOGEN
 10
1365.1400
 20
 250.0000
 11
1356.8600
 21
 250.0000
  0
LINE
  8
200
  6
AUSGEZOGEN
 10
1341.0000
 20
 264.1400
 11
1341.0000
 21
 255.8600
  0
LINE
  8
200
  6
AUSGEZOGEN
 10
1326.8600
 20
 270.0000
 11
1335.1400
 21
 270.0000
  0
LINE
  8
200
  6
AUSGEZOGEN
 10
1321.0000
 20
 255.8600
 11
1321.0000
 21
 264.1400
  0
LINE
  8
200
  6
AUSGEZOGEN
 10
1335.1400
 20
 250.0000
 11
1326.8600
 21
 250.0000
  0
LINE
  8
200
  6
AUSGEZOGEN
 10
1311.0000
 20
 264.1400
 11
1311.0000
 21
 255.8600
  0
LINE
  8
200
  6
AUSGEZOGEN
 10
1296.8600
 20
 270.0000
 11
1305.1400
 21
 270.0000
  0
LINE
  8
200
  6
AUSGEZOGEN
 10
1291.0000
 20
 255.8600
 11
1291.0000
 21
 264.1400
  0
LINE
  8
200
  6
AUSGEZOGEN
 10
1305.1400
 20
 250.0000
 11
1296.8600
 21
 250.0000
  0
LINE
  8
200
  6
AUSGEZOGEN
 10
1281.0000
 20
 264.1400
 11
1281.0000
 21
 255.8600
  0
LINE
  8
200
  6
AUSGEZOGEN
 10
1266.8600
 20
 270.0000
 11
1275.1400
 21
 270.0000
  0
LINE
  8
200
  6
AUSGEZOGEN
 10
1261.0000
 20
 255.8600
 11
1261.0000
 21
 264.1400
  0
LINE
  8
200
  6
AUSGEZOGEN
 10
1275.1400
 20
 250.0000
 11
1266.8600
 21
 250.0000
  0
LINE
  8
200
  6
AUSGEZOGEN
 10
1251.0000
 20
 264.1400
 11
1251.0000
 21
 255.8600
  0
LINE
  8
200
  6
AUSGEZOGEN
 10
1236.8600
 20
 270.0000
 11
1245.1400
 21
 270.0000
  0
LINE
  8
200
  6
AUSGEZOGEN
 10
1231.0000
 20
 255.8600
 11
1231.0000
 21
 264.1400
  0
LINE
  8
200
  6
AUSGEZOGEN
 10
1245.1400
 20
 250.0000
 11
1236.8600
 21
 250.0000
  0
LINE
  8
200
  6
AUSGEZOGEN
 10
1221.0000
 20
 264.1400
 11
1221.0000
 21
 255.8600
  0
LINE
  8
200
  6
AUSGEZOGEN
 10
1206.8600
 20
 270.0000
 11
1215.1400
 21
 270.0000
  0
LINE
  8
200
  6
AUSGEZOGEN
 10
1201.0000
 20
 255.8600
 11
1201.0000
 21
 264.1400
  0
LINE
  8
200
  6
AUSGEZOGEN
 10
1215.1400
 20
 250.0000
 11
1206.8600
 21
 250.0000
  0
LINE
  8
200
  6
AUSGEZOGEN
 10
1191.0000
 20
 264.1400
 11
1191.0000
 21
 255.8600
  0
LINE
  8
200
  6
AUSGEZOGEN
 10
1176.8600
 20
 270.0000
 11
1185.1400
 21
 270.0000
  0
LINE
  8
200
  6
AUSGEZOGEN
 10
1171.0000
 20
 255.8600
 11
1171.0000
 21
 264.1400
  0
LINE
  8
200
  6
AUSGEZOGEN
 10
1185.1400
 20
 250.0000
 11
1176.8600
 21
 250.0000
  0
LINE
  8
200
  6
AUSGEZOGEN
 10
1161.0000
 20
 264.1400
 11
1161.0000
 21
 255.8600
  0
LINE
  8
200
  6
AUSGEZOGEN
 10
1146.8600
 20
 270.0000
 11
1155.1400
 21
 270.0000
  0
LINE
  8
200
  6
AUSGEZOGEN
 10
1141.0000
 20
 255.8600
 11
1141.0000
 21
 264.1400
  0
LINE
  8
200
  6
AUSGEZOGEN
 10
1155.1400
 20
 250.0000
 11
1146.8600
 21
 250.0000
  0
LINE
  8
200
  6
AUSGEZOGEN
 10
1131.0000
 20
 264.1400
 11
1131.0000
 21
 255.8600
  0
LINE
  8
200
  6
AUSGEZOGEN
 10
1116.8600
 20
 270.0000
 11
1125.1400
 21
 270.0000
  0
LINE
  8
200
  6
AUSGEZOGEN
 10
1111.0000
 20
 255.8600
 11
1111.0000
 21
 264.1400
  0
LINE
  8
200
  6
AUSGEZOGEN
 10
1125.1400
 20
 250.0000
 11
1116.8600
 21
 250.0000
  0
LINE
  8
200
  6
AUSGEZOGEN
 10
1101.0000
 20
 264.1400
 11
1101.0000
 21
 255.8600
  0
LINE
  8
200
  6
AUSGEZOGEN
 10
1086.8600
 20
 270.0000
 11
1095.1400
 21
 270.0000
  0
LINE
  8
200
  6
AUSGEZOGEN
 10
1081.0000
 20
 255.8600
 11
1081.0000
 21
 264.1400
  0
LINE
  8
200
  6
AUSGEZOGEN
 10
1095.1400
 20
 250.0000
 11
1086.8600
 21
 250.0000
  0
LINE
  8
200
  6
AUSGEZOGEN
 10
1071.0000
 20
 264.1400
 11
1071.0000
 21
 255.8600
  0
LINE
  8
200
  6
AUSGEZOGEN
 10
1056.8600
 20
 270.0000
 11
1065.1400
 21
 270.0000
  0
LINE
  8
200
  6
AUSGEZOGEN
 10
1051.0000
 20
 255.8600
 11
1051.0000
 21
 264.1400
  0
LINE
  8
200
  6
AUSGEZOGEN
 10
1065.1400
 20
 250.0000
 11
1056.8600
 21
 250.0000
  0
LINE
  8
200
  6
AUSGEZOGEN
 10
 631.0000
 20
 255.8600
 11
 636.8600
 21
 250.0000
  0
LINE
  8
200
  6
AUSGEZOGEN
 10
 636.8600
 20
 270.0000
 11
 631.0000
 21
 264.1400
  0
LINE
  8
200
  6
AUSGEZOGEN
 10
 651.0000
 20
 264.1400
 11
 645.1400
 21
 270.0000
  0
LINE
  8
200
  6
AUSGEZOGEN
 10
 645.1400
 20
 250.0000
 11
 651.0000
 21
 255.8600
  0
LINE
  8
200
  6
AUSGEZOGEN
 10
 661.0000
 20
 255.8600
 11
 666.8600
 21
 250.0000
  0
LINE
  8
200
  6
AUSGEZOGEN
 10
 666.8600
 20
 270.0000
 11
 661.0000
 21
 264.1400
  0
LINE
  8
200
  6
AUSGEZOGEN
 10
 681.0000
 20
 264.1400
 11
 675.1400
 21
 270.0000
  0
LINE
  8
200
  6
AUSGEZOGEN
 10
 675.1400
 20
 250.0000
 11
 681.0000
 21
 255.8600
  0
LINE
  8
200
  6
AUSGEZOGEN
 10
 691.0000
 20
 255.8600
 11
 696.8600
 21
 250.0000
  0
LINE
  8
200
  6
AUSGEZOGEN
 10
 696.8600
 20
 270.0000
 11
 691.0000
 21
 264.1400
  0
LINE
  8
200
  6
AUSGEZOGEN
 10
 711.0000
 20
 264.1400
 11
 705.1400
 21
 270.0000
  0
LINE
  8
200
  6
AUSGEZOGEN
 10
 705.1400
 20
 250.0000
 11
 711.0000
 21
 255.8600
  0
LINE
  8
200
  6
AUSGEZOGEN
 10
 721.0000
 20
 255.8600
 11
 726.8600
 21
 250.0000
  0
LINE
  8
200
  6
AUSGEZOGEN
 10
 726.8600
 20
 270.0000
 11
 721.0000
 21
 264.1400
  0
LINE
  8
200
  6
AUSGEZOGEN
 10
 741.0000
 20
 264.1400
 11
 735.1400
 21
 270.0000
  0
LINE
  8
200
  6
AUSGEZOGEN
 10
 735.1400
 20
 250.0000
 11
 741.0000
 21
 255.8600
  0
LINE
  8
200
  6
AUSGEZOGEN
 10
 751.0000
 20
 255.8600
 11
 756.8600
 21
 250.0000
  0
LINE
  8
200
  6
AUSGEZOGEN
 10
 756.8600
 20
 270.0000
 11
 751.0000
 21
 264.1400
  0
LINE
  8
200
  6
AUSGEZOGEN
 10
 771.0000
 20
 264.1400
 11
 765.1400
 21
 270.0000
  0
LINE
  8
200
  6
AUSGEZOGEN
 10
 765.1400
 20
 250.0000
 11
 771.0000
 21
 255.8600
  0
LINE
  8
200
  6
AUSGEZOGEN
 10
 781.0000
 20
 255.8600
 11
 786.8600
 21
 250.0000
  0
LINE
  8
200
  6
AUSGEZOGEN
 10
 786.8600
 20
 270.0000
 11
 781.0000
 21
 264.1400
  0
LINE
  8
200
  6
AUSGEZOGEN
 10
 801.0000
 20
 264.1400
 11
 795.1400
 21
 270.0000
  0
LINE
  8
200
  6
AUSGEZOGEN
 10
 795.1400
 20
 250.0000
 11
 801.0000
 21
 255.8600
  0
LINE
  8
200
  6
AUSGEZOGEN
 10
 811.0000
 20
 255.8600
 11
 816.8600
 21
 250.0000
  0
LINE
  8
200
  6
AUSGEZOGEN
 10
 816.8600
 20
 270.0000
 11
 811.0000
 21
 264.1400
  0
LINE
  8
200
  6
AUSGEZOGEN
 10
 831.0000
 20
 264.1400
 11
 825.1400
 21
 270.0000
  0
LINE
  8
200
  6
AUSGEZOGEN
 10
 825.1400
 20
 250.0000
 11
 831.0000
 21
 255.8600
  0
LINE
  8
200
  6
AUSGEZOGEN
 10
 841.0000
 20
 255.8600
 11
 846.8600
 21
 250.0000
  0
LINE
  8
200
  6
AUSGEZOGEN
 10
 846.8600
 20
 270.0000
 11
 841.0000
 21
 264.1400
  0
LINE
  8
200
  6
AUSGEZOGEN
 10
 861.0000
 20
 264.1400
 11
 855.1400
 21
 270.0000
  0
LINE
  8
200
  6
AUSGEZOGEN
 10
 855.1400
 20
 250.0000
 11
 861.0000
 21
 255.8600
  0
LINE
  8
200
  6
AUSGEZOGEN
 10
 871.0000
 20
 255.8600
 11
 876.8600
 21
 250.0000
  0
LINE
  8
200
  6
AUSGEZOGEN
 10
 876.8600
 20
 270.0000
 11
 871.0000
 21
 264.1400
  0
LINE
  8
200
  6
AUSGEZOGEN
 10
 891.0000
 20
 264.1400
 11
 885.1400
 21
 270.0000
  0
LINE
  8
200
  6
AUSGEZOGEN
 10
 885.1400
 20
 250.0000
 11
 891.0000
 21
 255.8600
  0
LINE
  8
200
  6
AUSGEZOGEN
 10
 901.0000
 20
 255.8600
 11
 906.8600
 21
 250.0000
  0
LINE
  8
200
  6
AUSGEZOGEN
 10
 906.8600
 20
 270.0000
 11
 901.0000
 21
 264.1400
  0
LINE
  8
200
  6
AUSGEZOGEN
 10
 921.0000
 20
 264.1400
 11
 915.1400
 21
 270.0000
  0
LINE
  8
200
  6
AUSGEZOGEN
 10
 915.1400
 20
 250.0000
 11
 921.0000
 21
 255.8600
  0
LINE
  8
200
  6
AUSGEZOGEN
 10
 931.0000
 20
 255.8600
 11
 936.8600
 21
 250.0000
  0
LINE
  8
200
  6
AUSGEZOGEN
 10
 936.8600
 20
 270.0000
 11
 931.0000
 21
 264.1400
  0
LINE
  8
200
  6
AUSGEZOGEN
 10
 951.0000
 20
 264.1400
 11
 945.1400
 21
 270.0000
  0
LINE
  8
200
  6
AUSGEZOGEN
 10
 945.1400
 20
 250.0000
 11
 951.0000
 21
 255.8600
  0
LINE
  8
200
  6
AUSGEZOGEN
 10
 961.0000
 20
 255.8600
 11
 966.8600
 21
 250.0000
  0
LINE
  8
200
  6
AUSGEZOGEN
 10
 966.8600
 20
 270.0000
 11
 961.0000
 21
 264.1400
  0
LINE
  8
200
  6
AUSGEZOGEN
 10
 981.0000
 20
 264.1400
 11
 975.1400
 21
 270.0000
  0
LINE
  8
200
  6
AUSGEZOGEN
 10
 975.1400
 20
 250.0000
 11
 981.0000
 21
 255.8600
  0
LINE
  8
200
  6
AUSGEZOGEN
 10
 991.0000
 20
 255.8600
 11
 996.8600
 21
 250.0000
  0
LINE
  8
200
  6
AUSGEZOGEN
 10
 996.8600
 20
 270.0000
 11
 991.0000
 21
 264.1400
  0
LINE
  8
200
  6
AUSGEZOGEN
 10
1011.0000
 20
 264.1400
 11
1005.1400
 21
 270.0000
  0
LINE
  8
200
  6
AUSGEZOGEN
 10
1005.1400
 20
 250.0000
 11
1011.0000
 21
 255.8600
  0
LINE
  8
200
  6
AUSGEZOGEN
 10
1021.0000
 20
 255.8600
 11
1026.8600
 21
 250.0000
  0
LINE
  8
200
  6
AUSGEZOGEN
 10
1026.8600
 20
 270.0000
 11
1021.0000
 21
 264.1400
  0
LINE
  8
200
  6
AUSGEZOGEN
 10
1041.0000
 20
 264.1400
 11
1035.1400
 21
 270.0000
  0
LINE
  8
200
  6
AUSGEZOGEN
 10
1035.1400
 20
 250.0000
 11
1041.0000
 21
 255.8600
  0
LINE
  8
200
  6
AUSGEZOGEN
 10
1051.0000
 20
 255.8600
 11
1056.8600
 21
 250.0000
  0
LINE
  8
200
  6
AUSGEZOGEN
 10
1056.8600
 20
 270.0000
 11
1051.0000
 21
 264.1400
  0
LINE
  8
200
  6
AUSGEZOGEN
 10
1071.0000
 20
 264.1400
 11
1065.1400
 21
 270.0000
  0
LINE
  8
200
  6
AUSGEZOGEN
 10
1065.1400
 20
 250.0000
 11
1071.0000
 21
 255.8600
  0
LINE
  8
200
  6
AUSGEZOGEN
 10
1081.0000
 20
 255.8600
 11
1086.8600
 21
 250.0000
  0
LINE
  8
200
  6
AUSGEZOGEN
 10
1086.8600
 20
 270.0000
 11
1081.0000
 21
 264.1400
  0
LINE
  8
200
  6
AUSGEZOGEN
 10
1101.0000
 20
 264.1400
 11
1095.1400
 21
 270.0000
  0
LINE
  8
200
  6
AUSGEZOGEN
 10
1095.1400
 20
 250.0000
 11
1101.0000
 21
 255.8600
  0
LINE
  8
200
  6
AUSGEZOGEN
 10
1111.0000
 20
 255.8600
 11
1116.8600
 21
 250.0000
  0
LINE
  8
200
  6
AUSGEZOGEN
 10
1116.8600
 20
 270.0000
 11
1111.0000
 21
 264.1400
  0
LINE
  8
200
  6
AUSGEZOGEN
 10
1131.0000
 20
 264.1400
 11
1125.1400
 21
 270.0000
  0
LINE
  8
200
  6
AUSGEZOGEN
 10
1125.1400
 20
 250.0000
 11
1131.0000
 21
 255.8600
  0
LINE
  8
200
  6
AUSGEZOGEN
 10
1141.0000
 20
 255.8600
 11
1146.8600
 21
 250.0000
  0
LINE
  8
200
  6
AUSGEZOGEN
 10
1146.8600
 20
 270.0000
 11
1141.0000
 21
 264.1400
  0
LINE
  8
200
  6
AUSGEZOGEN
 10
1161.0000
 20
 264.1400
 11
1155.1400
 21
 270.0000
  0
LINE
  8
200
  6
AUSGEZOGEN
 10
1155.1400
 20
 250.0000
 11
1161.0000
 21
 255.8600
  0
LINE
  8
200
  6
AUSGEZOGEN
 10
1171.0000
 20
 255.8600
 11
1176.8600
 21
 250.0000
  0
LINE
  8
200
  6
AUSGEZOGEN
 10
1176.8600
 20
 270.0000
 11
1171.0000
 21
 264.1400
  0
LINE
  8
200
  6
AUSGEZOGEN
 10
1191.0000
 20
 264.1400
 11
1185.1400
 21
 270.0000
  0
LINE
  8
200
  6
AUSGEZOGEN
 10
1185.1400
 20
 250.0000
 11
1191.0000
 21
 255.8600
  0
LINE
  8
200
  6
AUSGEZOGEN
 10
1201.0000
 20
 255.8600
 11
1206.8600
 21
 250.0000
  0
LINE
  8
200
  6
AUSGEZOGEN
 10
1206.8600
 20
 270.0000
 11
1201.0000
 21
 264.1400
  0
LINE
  8
200
  6
AUSGEZOGEN
 10
1221.0000
 20
 264.1400
 11
1215.1400
 21
 270.0000
  0
LINE
  8
200
  6
AUSGEZOGEN
 10
1215.1400
 20
 250.0000
 11
1221.0000
 21
 255.8600
  0
LINE
  8
200
  6
AUSGEZOGEN
 10
1231.0000
 20
 255.8600
 11
1236.8600
 21
 250.0000
  0
LINE
  8
200
  6
AUSGEZOGEN
 10
1236.8600
 20
 270.0000
 11
1231.0000
 21
 264.1400
  0
LINE
  8
200
  6
AUSGEZOGEN
 10
1251.0000
 20
 264.1400
 11
1245.1400
 21
 270.0000
  0
LINE
  8
200
  6
AUSGEZOGEN
 10
1245.1400
 20
 250.0000
 11
1251.0000
 21
 255.8600
  0
LINE
  8
200
  6
AUSGEZOGEN
 10
1261.0000
 20
 255.8600
 11
1266.8600
 21
 250.0000
  0
LINE
  8
200
  6
AUSGEZOGEN
 10
1266.8600
 20
 270.0000
 11
1261.0000
 21
 264.1400
  0
LINE
  8
200
  6
AUSGEZOGEN
 10
1281.0000
 20
 264.1400
 11
1275.1400
 21
 270.0000
  0
LINE
  8
200
  6
AUSGEZOGEN
 10
1275.1400
 20
 250.0000
 11
1281.0000
 21
 255.8600
  0
LINE
  8
200
  6
AUSGEZOGEN
 10
1291.0000
 20
 255.8600
 11
1296.8600
 21
 250.0000
  0
LINE
  8
200
  6
AUSGEZOGEN
 10
1296.8600
 20
 270.0000
 11
1291.0000
 21
 264.1400
  0
LINE
  8
200
  6
AUSGEZOGEN
 10
1311.0000
 20
 264.1400
 11
1305.1400
 21
 270.0000
  0
LINE
  8
200
  6
AUSGEZOGEN
 10
1305.1400
 20
 250.0000
 11
1311.0000
 21
 255.8600
  0
LINE
  8
200
  6
AUSGEZOGEN
 10
1321.0000
 20
 255.8600
 11
1326.8600
 21
 250.0000
  0
LINE
  8
200
  6
AUSGEZOGEN
 10
1326.8600
 20
 270.0000
 11
1321.0000
 21
 264.1400
  0
LINE
  8
200
  6
AUSGEZOGEN
 10
1341.0000
 20
 264.1400
 11
1335.1400
 21
 270.0000
  0
LINE
  8
200
  6
AUSGEZOGEN
 10
1335.1400
 20
 250.0000
 11
1341.0000
 21
 255.8600
  0
LINE
  8
200
  6
AUSGEZOGEN
 10
1351.0000
 20
 255.8600
 11
1356.8600
 21
 250.0000
  0
LINE
  8
200
  6
AUSGEZOGEN
 10
1356.8600
 20
 270.0000
 11
1351.0000
 21
 264.1400
  0
LINE
  8
200
  6
AUSGEZOGEN
 10
1371.0000
 20
 264.1400
 11
1365.1400
 21
 270.0000
  0
LINE
  8
200
  6
AUSGEZOGEN
 10
1365.1400
 20
 250.0000
 11
1371.0000
 21
 255.8600
  0
LINE
  8
200
  6
AUSGEZOGEN
 10
1381.0000
 20
 255.8600
 11
1386.8600
 21
 250.0000
  0
LINE
  8
200
  6
AUSGEZOGEN
 10
1386.8600
 20
 270.0000
 11
1381.0000
 21
 264.1400
  0
LINE
  8
200
  6
AUSGEZOGEN
 10
1401.0000
 20
 264.1400
 11
1395.1400
 21
 270.0000
  0
LINE
  8
200
  6
AUSGEZOGEN
 10
1395.1400
 20
 250.0000
 11
1401.0000
 21
 255.8600
  0
LINE
  8
200
  6
AUSGEZOGEN
 10
1411.0000
 20
 255.8600
 11
1416.8600
 21
 250.0000
  0
LINE
  8
200
  6
AUSGEZOGEN
 10
1416.8600
 20
 270.0000
 11
1411.0000
 21
 264.1400
  0
LINE
  8
200
  6
AUSGEZOGEN
 10
1431.0000
 20
 264.1400
 11
1425.1400
 21
 270.0000
  0
LINE
  8
200
  6
AUSGEZOGEN
 10
1425.1400
 20
 250.0000
 11
1431.0000
 21
 255.8600
  0
LINE
  8
200
  6
AUSGEZOGEN
 10
1441.0000
 20
 255.8600
 11
1446.8600
 21
 250.0000
  0
LINE
  8
200
  6
AUSGEZOGEN
 10
1446.8600
 20
 270.0000
 11
1441.0000
 21
 264.1400
  0
LINE
  8
200
  6
AUSGEZOGEN
 10
1461.0000
 20
 264.1400
 11
1455.1400
 21
 270.0000
  0
LINE
  8
200
  6
AUSGEZOGEN
 10
1455.1400
 20
 250.0000
 11
1461.0000
 21
 255.8600
  0
LINE
  8
200
  6
AUSGEZOGEN
 10
1471.0000
 20
 255.8600
 11
1476.8600
 21
 250.0000
  0
LINE
  8
200
  6
AUSGEZOGEN
 10
1476.8600
 20
 270.0000
 11
1471.0000
 21
 264.1400
  0
LINE
  8
200
  6
AUSGEZOGEN
 10
1491.0000
 20
 264.1400
 11
1485.1400
 21
 270.0000
  0
LINE
  8
200
  6
AUSGEZOGEN
 10
1485.1400
 20
 250.0000
 11
1491.0000
 21
 255.8600
  0
LINE
  8
200
  6
AUSGEZOGEN
 10
1501.0000
 20
 255.8600
 11
1506.8600
 21
 250.0000
  0
LINE
  8
200
  6
AUSGEZOGEN
 10
1506.8600
 20
 270.0000
 11
1501.0000
 21
 264.1400
  0
LINE
  8
200
  6
AUSGEZOGEN
 10
1521.0000
 20
 264.1400
 11
1515.1400
 21
 270.0000
  0
LINE
  8
200
  6
AUSGEZOGEN
 10
1515.1400
 20
 250.0000
 11
1521.0000
 21
 255.8600
  0
LINE
  8
200
  6
AUSGEZOGEN
 10
1531.0000
 20
 255.8600
 11
1536.8600
 21
 250.0000
  0
LINE
  8
200
  6
AUSGEZOGEN
 10
1536.8600
 20
 270.0000
 11
1531.0000
 21
 264.1400
  0
LINE
  8
200
  6
AUSGEZOGEN
 10
1551.0000
 20
 264.1400
 11
1545.1400
 21
 270.0000
  0
LINE
  8
200
  6
AUSGEZOGEN
 10
1545.1400
 20
 250.0000
 11
1551.0000
 21
 255.8600
  0
LINE
  8
200
  6
AUSGEZOGEN
 10
1051.0000
 20
 225.8600
 11
1056.8600
 21
 220.0000
  0
LINE
  8
200
  6
AUSGEZOGEN
 10
1056.8600
 20
 240.0000
 11
1051.0000
 21
 234.1400
  0
LINE
  8
200
  6
AUSGEZOGEN
 10
1071.0000
 20
 234.1400
 11
1065.1400
 21
 240.0000
  0
LINE
  8
200
  6
AUSGEZOGEN
 10
1065.1400
 20
 220.0000
 11
1071.0000
 21
 225.8600
  0
LINE
  8
200
  6
AUSGEZOGEN
 10
1081.0000
 20
 225.8600
 11
1086.8600
 21
 220.0000
  0
LINE
  8
200
  6
AUSGEZOGEN
 10
1086.8600
 20
 240.0000
 11
1081.0000
 21
 234.1400
  0
LINE
  8
200
  6
AUSGEZOGEN
 10
1101.0000
 20
 234.1400
 11
1095.1400
 21
 240.0000
  0
LINE
  8
200
  6
AUSGEZOGEN
 10
1095.1400
 20
 220.0000
 11
1101.0000
 21
 225.8600
  0
LINE
  8
200
  6
AUSGEZOGEN
 10
1111.0000
 20
 225.8600
 11
1116.8600
 21
 220.0000
  0
LINE
  8
200
  6
AUSGEZOGEN
 10
1116.8600
 20
 240.0000
 11
1111.0000
 21
 234.1400
  0
LINE
  8
200
  6
AUSGEZOGEN
 10
1131.0000
 20
 234.1400
 11
1125.1400
 21
 240.0000
  0
LINE
  8
200
  6
AUSGEZOGEN
 10
1125.1400
 20
 220.0000
 11
1131.0000
 21
 225.8600
  0
LINE
  8
200
  6
AUSGEZOGEN
 10
1141.0000
 20
 225.8600
 11
1146.8600
 21
 220.0000
  0
LINE
  8
200
  6
AUSGEZOGEN
 10
1146.8600
 20
 240.0000
 11
1141.0000
 21
 234.1400
  0
LINE
  8
200
  6
AUSGEZOGEN
 10
1161.0000
 20
 234.1400
 11
1155.1400
 21
 240.0000
  0
LINE
  8
200
  6
AUSGEZOGEN
 10
1155.1400
 20
 220.0000
 11
1161.0000
 21
 225.8600
  0
LINE
  8
200
  6
AUSGEZOGEN
 10
1171.0000
 20
 225.8600
 11
1176.8600
 21
 220.0000
  0
LINE
  8
200
  6
AUSGEZOGEN
 10
1176.8600
 20
 240.0000
 11
1171.0000
 21
 234.1400
  0
LINE
  8
200
  6
AUSGEZOGEN
 10
1191.0000
 20
 234.1400
 11
1185.1400
 21
 240.0000
  0
LINE
  8
200
  6
AUSGEZOGEN
 10
1185.1400
 20
 220.0000
 11
1191.0000
 21
 225.8600
  0
LINE
  8
200
  6
AUSGEZOGEN
 10
1201.0000
 20
 225.8600
 11
1206.8600
 21
 220.0000
  0
LINE
  8
200
  6
AUSGEZOGEN
 10
1206.8600
 20
 240.0000
 11
1201.0000
 21
 234.1400
  0
LINE
  8
200
  6
AUSGEZOGEN
 10
1221.0000
 20
 234.1400
 11
1215.1400
 21
 240.0000
  0
LINE
  8
200
  6
AUSGEZOGEN
 10
1215.1400
 20
 220.0000
 11
1221.0000
 21
 225.8600
  0
LINE
  8
200
  6
AUSGEZOGEN
 10
1231.0000
 20
 225.8600
 11
1236.8600
 21
 220.0000
  0
LINE
  8
200
  6
AUSGEZOGEN
 10
1236.8600
 20
 240.0000
 11
1231.0000
 21
 234.1400
  0
LINE
  8
200
  6
AUSGEZOGEN
 10
1251.0000
 20
 234.1400
 11
1245.1400
 21
 240.0000
  0
LINE
  8
200
  6
AUSGEZOGEN
 10
1245.1400
 20
 220.0000
 11
1251.0000
 21
 225.8600
  0
LINE
  8
200
  6
AUSGEZOGEN
 10
1261.0000
 20
 225.8600
 11
1266.8600
 21
 220.0000
  0
LINE
  8
200
  6
AUSGEZOGEN
 10
1266.8600
 20
 240.0000
 11
1261.0000
 21
 234.1400
  0
LINE
  8
200
  6
AUSGEZOGEN
 10
1281.0000
 20
 234.1400
 11
1275.1400
 21
 240.0000
  0
LINE
  8
200
  6
AUSGEZOGEN
 10
1275.1400
 20
 220.0000
 11
1281.0000
 21
 225.8600
  0
LINE
  8
200
  6
AUSGEZOGEN
 10
1291.0000
 20
 225.8600
 11
1296.8600
 21
 220.0000
  0
LINE
  8
200
  6
AUSGEZOGEN
 10
1296.8600
 20
 240.0000
 11
1291.0000
 21
 234.1400
  0
LINE
  8
200
  6
AUSGEZOGEN
 10
1311.0000
 20
 234.1400
 11
1305.1400
 21
 240.0000
  0
LINE
  8
200
  6
AUSGEZOGEN
 10
1305.1400
 20
 220.0000
 11
1311.0000
 21
 225.8600
  0
LINE
  8
200
  6
AUSGEZOGEN
 10
1321.0000
 20
 225.8600
 11
1326.8600
 21
 220.0000
  0
LINE
  8
200
  6
AUSGEZOGEN
 10
1326.8600
 20
 240.0000
 11
1321.0000
 21
 234.1400
  0
LINE
  8
200
  6
AUSGEZOGEN
 10
1341.0000
 20
 234.1400
 11
1335.1400
 21
 240.0000
  0
LINE
  8
200
  6
AUSGEZOGEN
 10
1335.1400
 20
 220.0000
 11
1341.0000
 21
 225.8600
  0
LINE
  8
200
  6
AUSGEZOGEN
 10
1351.0000
 20
 225.8600
 11
1356.8600
 21
 220.0000
  0
LINE
  8
200
  6
AUSGEZOGEN
 10
1356.8600
 20
 240.0000
 11
1351.0000
 21
 234.1400
  0
LINE
  8
200
  6
AUSGEZOGEN
 10
1371.0000
 20
 234.1400
 11
1365.1400
 21
 240.0000
  0
LINE
  8
200
  6
AUSGEZOGEN
 10
1365.1400
 20
 220.0000
 11
1371.0000
 21
 225.8600
  0
LINE
  8
200
  6
AUSGEZOGEN
 10
1381.0000
 20
 225.8600
 11
1386.8600
 21
 220.0000
  0
LINE
  8
200
  6
AUSGEZOGEN
 10
1386.8600
 20
 240.0000
 11
1381.0000
 21
 234.1400
  0
LINE
  8
200
  6
AUSGEZOGEN
 10
1401.0000
 20
 234.1400
 11
1395.1400
 21
 240.0000
  0
LINE
  8
200
  6
AUSGEZOGEN
 10
1395.1400
 20
 220.0000
 11
1401.0000
 21
 225.8600
  0
LINE
  8
200
  6
AUSGEZOGEN
 10
1411.0000
 20
 225.8600
 11
1416.8600
 21
 220.0000
  0
LINE
  8
200
  6
AUSGEZOGEN
 10
1416.8600
 20
 240.0000
 11
1411.0000
 21
 234.1400
  0
LINE
  8
200
  6
AUSGEZOGEN
 10
1431.0000
 20
 234.1400
 11
1425.1400
 21
 240.0000
  0
LINE
  8
200
  6
AUSGEZOGEN
 10
1425.1400
 20
 220.0000
 11
1431.0000
 21
 225.8600
  0
LINE
  8
200
  6
AUSGEZOGEN
 10
1441.0000
 20
 225.8600
 11
1446.8600
 21
 220.0000
  0
LINE
  8
200
  6
AUSGEZOGEN
 10
1446.8600
 20
 240.0000
 11
1441.0000
 21
 234.1400
  0
LINE
  8
200
  6
AUSGEZOGEN
 10
1461.0000
 20
 234.1400
 11
1455.1400
 21
 240.0000
  0
LINE
  8
200
  6
AUSGEZOGEN
 10
1455.1400
 20
 220.0000
 11
1461.0000
 21
 225.8600
  0
LINE
  8
200
  6
AUSGEZOGEN
 10
1471.0000
 20
 225.8600
 11
1476.8600
 21
 220.0000
  0
LINE
  8
200
  6
AUSGEZOGEN
 10
1476.8600
 20
 240.0000
 11
1471.0000
 21
 234.1400
  0
LINE
  8
200
  6
AUSGEZOGEN
 10
1491.0000
 20
 234.1400
 11
1485.1400
 21
 240.0000
  0
LINE
  8
200
  6
AUSGEZOGEN
 10
1485.1400
 20
 220.0000
 11
1491.0000
 21
 225.8600
  0
LINE
  8
200
  6
AUSGEZOGEN
 10
1501.0000
 20
 225.8600
 11
1506.8600
 21
 220.0000
  0
LINE
  8
200
  6
AUSGEZOGEN
 10
1506.8600
 20
 240.0000
 11
1501.0000
 21
 234.1400
  0
LINE
  8
200
  6
AUSGEZOGEN
 10
1521.0000
 20
 234.1400
 11
1515.1400
 21
 240.0000
  0
LINE
  8
200
  6
AUSGEZOGEN
 10
1515.1400
 20
 220.0000
 11
1521.0000
 21
 225.8600
  0
LINE
  8
200
  6
AUSGEZOGEN
 10
1531.0000
 20
 225.8600
 11
1536.8600
 21
 220.0000
  0
LINE
  8
200
  6
AUSGEZOGEN
 10
1536.8600
 20
 240.0000
 11
1531.0000
 21
 234.1400
  0
LINE
  8
200
  6
AUSGEZOGEN
 10
1551.0000
 20
 234.1400
 11
1545.1400
 21
 240.0000
  0
LINE
  8
200
  6
AUSGEZOGEN
 10
1545.1400
 20
 220.0000
 11
1551.0000
 21
 225.8600
  0
LINE
  8
200
  6
AUSGEZOGEN
 10
1051.0000
 20
 195.8600
 11
1056.8600
 21
 190.0000
  0
LINE
  8
200
  6
AUSGEZOGEN
 10
1056.8600
 20
 210.0000
 11
1051.0000
 21
 204.1400
  0
LINE
  8
200
  6
AUSGEZOGEN
 10
1071.0000
 20
 204.1400
 11
1065.1400
 21
 210.0000
  0
LINE
  8
200
  6
AUSGEZOGEN
 10
1065.1400
 20
 190.0000
 11
1071.0000
 21
 195.8600
  0
LINE
  8
200
  6
AUSGEZOGEN
 10
1081.0000
 20
 195.8600
 11
1086.8600
 21
 190.0000
  0
LINE
  8
200
  6
AUSGEZOGEN
 10
1086.8600
 20
 210.0000
 11
1081.0000
 21
 204.1400
  0
LINE
  8
200
  6
AUSGEZOGEN
 10
1101.0000
 20
 204.1400
 11
1095.1400
 21
 210.0000
  0
LINE
  8
200
  6
AUSGEZOGEN
 10
1095.1400
 20
 190.0000
 11
1101.0000
 21
 195.8600
  0
LINE
  8
200
  6
AUSGEZOGEN
 10
1111.0000
 20
 195.8600
 11
1116.8600
 21
 190.0000
  0
LINE
  8
200
  6
AUSGEZOGEN
 10
1116.8600
 20
 210.0000
 11
1111.0000
 21
 204.1400
  0
LINE
  8
200
  6
AUSGEZOGEN
 10
1131.0000
 20
 204.1400
 11
1125.1400
 21
 210.0000
  0
LINE
  8
200
  6
AUSGEZOGEN
 10
1125.1400
 20
 190.0000
 11
1131.0000
 21
 195.8600
  0
LINE
  8
200
  6
AUSGEZOGEN
 10
1141.0000
 20
 195.8600
 11
1146.8600
 21
 190.0000
  0
LINE
  8
200
  6
AUSGEZOGEN
 10
1146.8600
 20
 210.0000
 11
1141.0000
 21
 204.1400
  0
LINE
  8
200
  6
AUSGEZOGEN
 10
1161.0000
 20
 204.1400
 11
1155.1400
 21
 210.0000
  0
LINE
  8
200
  6
AUSGEZOGEN
 10
1155.1400
 20
 190.0000
 11
1161.0000
 21
 195.8600
  0
LINE
  8
200
  6
AUSGEZOGEN
 10
1171.0000
 20
 195.8600
 11
1176.8600
 21
 190.0000
  0
LINE
  8
200
  6
AUSGEZOGEN
 10
1176.8600
 20
 210.0000
 11
1171.0000
 21
 204.1400
  0
LINE
  8
200
  6
AUSGEZOGEN
 10
1191.0000
 20
 204.1400
 11
1185.1400
 21
 210.0000
  0
LINE
  8
200
  6
AUSGEZOGEN
 10
1185.1400
 20
 190.0000
 11
1191.0000
 21
 195.8600
  0
LINE
  8
200
  6
AUSGEZOGEN
 10
1201.0000
 20
 195.8600
 11
1206.8600
 21
 190.0000
  0
LINE
  8
200
  6
AUSGEZOGEN
 10
1206.8600
 20
 210.0000
 11
1201.0000
 21
 204.1400
  0
LINE
  8
200
  6
AUSGEZOGEN
 10
1221.0000
 20
 204.1400
 11
1215.1400
 21
 210.0000
  0
LINE
  8
200
  6
AUSGEZOGEN
 10
1215.1400
 20
 190.0000
 11
1221.0000
 21
 195.8600
  0
LINE
  8
200
  6
AUSGEZOGEN
 10
1231.0000
 20
 195.8600
 11
1236.8600
 21
 190.0000
  0
LINE
  8
200
  6
AUSGEZOGEN
 10
1236.8600
 20
 210.0000
 11
1231.0000
 21
 204.1400
  0
LINE
  8
200
  6
AUSGEZOGEN
 10
1251.0000
 20
 204.1400
 11
1245.1400
 21
 210.0000
  0
LINE
  8
200
  6
AUSGEZOGEN
 10
1245.1400
 20
 190.0000
 11
1251.0000
 21
 195.8600
  0
LINE
  8
200
  6
AUSGEZOGEN
 10
1261.0000
 20
 195.8600
 11
1266.8600
 21
 190.0000
  0
LINE
  8
200
  6
AUSGEZOGEN
 10
1266.8600
 20
 210.0000
 11
1261.0000
 21
 204.1400
  0
LINE
  8
200
  6
AUSGEZOGEN
 10
1281.0000
 20
 204.1400
 11
1275.1400
 21
 210.0000
  0
LINE
  8
200
  6
AUSGEZOGEN
 10
1275.1400
 20
 190.0000
 11
1281.0000
 21
 195.8600
  0
LINE
  8
200
  6
AUSGEZOGEN
 10
1291.0000
 20
 195.8600
 11
1296.8600
 21
 190.0000
  0
LINE
  8
200
  6
AUSGEZOGEN
 10
1296.8600
 20
 210.0000
 11
1291.0000
 21
 204.1400
  0
LINE
  8
200
  6
AUSGEZOGEN
 10
1311.0000
 20
 204.1400
 11
1305.1400
 21
 210.0000
  0
LINE
  8
200
  6
AUSGEZOGEN
 10
1305.1400
 20
 190.0000
 11
1311.0000
 21
 195.8600
  0
LINE
  8
200
  6
AUSGEZOGEN
 10
1321.0000
 20
 195.8600
 11
1326.8600
 21
 190.0000
  0
LINE
  8
200
  6
AUSGEZOGEN
 10
1326.8600
 20
 210.0000
 11
1321.0000
 21
 204.1400
  0
LINE
  8
200
  6
AUSGEZOGEN
 10
1341.0000
 20
 204.1400
 11
1335.1400
 21
 210.0000
  0
LINE
  8
200
  6
AUSGEZOGEN
 10
1335.1400
 20
 190.0000
 11
1341.0000
 21
 195.8600
  0
LINE
  8
200
  6
AUSGEZOGEN
 10
1351.0000
 20
 195.8600
 11
1356.8600
 21
 190.0000
  0
LINE
  8
200
  6
AUSGEZOGEN
 10
1356.8600
 20
 210.0000
 11
1351.0000
 21
 204.1400
  0
LINE
  8
200
  6
AUSGEZOGEN
 10
1371.0000
 20
 204.1400
 11
1365.1400
 21
 210.0000
  0
LINE
  8
200
  6
AUSGEZOGEN
 10
1365.1400
 20
 190.0000
 11
1371.0000
 21
 195.8600
  0
LINE
  8
200
  6
AUSGEZOGEN
 10
1381.0000
 20
 195.8600
 11
1386.8600
 21
 190.0000
  0
LINE
  8
200
  6
AUSGEZOGEN
 10
1386.8600
 20
 210.0000
 11
1381.0000
 21
 204.1400
  0
LINE
  8
200
  6
AUSGEZOGEN
 10
1401.0000
 20
 204.1400
 11
1395.1400
 21
 210.0000
  0
LINE
  8
200
  6
AUSGEZOGEN
 10
1395.1400
 20
 190.0000
 11
1401.0000
 21
 195.8600
  0
LINE
  8
200
  6
AUSGEZOGEN
 10
1411.0000
 20
 195.8600
 11
1416.8600
 21
 190.0000
  0
LINE
  8
200
  6
AUSGEZOGEN
 10
1416.8600
 20
 210.0000
 11
1411.0000
 21
 204.1400
  0
LINE
  8
200
  6
AUSGEZOGEN
 10
1431.0000
 20
 204.1400
 11
1425.1400
 21
 210.0000
  0
LINE
  8
200
  6
AUSGEZOGEN
 10
1425.1400
 20
 190.0000
 11
1431.0000
 21
 195.8600
  0
LINE
  8
200
  6
AUSGEZOGEN
 10
1441.0000
 20
 195.8600
 11
1446.8600
 21
 190.0000
  0
LINE
  8
200
  6
AUSGEZOGEN
 10
1446.8600
 20
 210.0000
 11
1441.0000
 21
 204.1400
  0
LINE
  8
200
  6
AUSGEZOGEN
 10
1461.0000
 20
 204.1400
 11
1455.1400
 21
 210.0000
  0
LINE
  8
200
  6
AUSGEZOGEN
 10
1455.1400
 20
 190.0000
 11
1461.0000
 21
 195.8600
  0
LINE
  8
200
  6
AUSGEZOGEN
 10
1471.0000
 20
 195.8600
 11
1476.8600
 21
 190.0000
  0
LINE
  8
200
  6
AUSGEZOGEN
 10
1476.8600
 20
 210.0000
 11
1471.0000
 21
 204.1400
  0
LINE
  8
200
  6
AUSGEZOGEN
 10
1491.0000
 20
 204.1400
 11
1485.1400
 21
 210.0000
  0
LINE
  8
200
  6
AUSGEZOGEN
 10
1485.1400
 20
 190.0000
 11
1491.0000
 21
 195.8600
  0
LINE
  8
200
  6
AUSGEZOGEN
 10
1501.0000
 20
 195.8600
 11
1506.8600
 21
 190.0000
  0
LINE
  8
200
  6
AUSGEZOGEN
 10
1506.8600
 20
 210.0000
 11
1501.0000
 21
 204.1400
  0
LINE
  8
200
  6
AUSGEZOGEN
 10
1521.0000
 20
 204.1400
 11
1515.1400
 21
 210.0000
  0
LINE
  8
200
  6
AUSGEZOGEN
 10
1515.1400
 20
 190.0000
 11
1521.0000
 21
 195.8600
  0
LINE
  8
200
  6
AUSGEZOGEN
 10
1531.0000
 20
 195.8600
 11
1536.8600
 21
 190.0000
  0
LINE
  8
200
  6
AUSGEZOGEN
 10
1536.8600
 20
 210.0000
 11
1531.0000
 21
 204.1400
  0
LINE
  8
200
  6
AUSGEZOGEN
 10
1551.0000
 20
 204.1400
 11
1545.1400
 21
 210.0000
  0
LINE
  8
200
  6
AUSGEZOGEN
 10
1545.1400
 20
 190.0000
 11
1551.0000
 21
 195.8600
  0
LINE
  8
200
  6
AUSGEZOGEN
 10
1051.0000
 20
 165.8600
 11
1056.8600
 21
 160.0000
  0
LINE
  8
200
  6
AUSGEZOGEN
 10
1056.8600
 20
 180.0000
 11
1051.0000
 21
 174.1400
  0
LINE
  8
200
  6
AUSGEZOGEN
 10
1071.0000
 20
 174.1400
 11
1065.1400
 21
 180.0000
  0
LINE
  8
200
  6
AUSGEZOGEN
 10
1065.1400
 20
 160.0000
 11
1071.0000
 21
 165.8600
  0
LINE
  8
200
  6
AUSGEZOGEN
 10
1081.0000
 20
 165.8600
 11
1086.8600
 21
 160.0000
  0
LINE
  8
200
  6
AUSGEZOGEN
 10
1086.8600
 20
 180.0000
 11
1081.0000
 21
 174.1400
  0
LINE
  8
200
  6
AUSGEZOGEN
 10
1101.0000
 20
 174.1400
 11
1095.1400
 21
 180.0000
  0
LINE
  8
200
  6
AUSGEZOGEN
 10
1095.1400
 20
 160.0000
 11
1101.0000
 21
 165.8600
  0
LINE
  8
200
  6
AUSGEZOGEN
 10
1111.0000
 20
 165.8600
 11
1116.8600
 21
 160.0000
  0
LINE
  8
200
  6
AUSGEZOGEN
 10
1116.8600
 20
 180.0000
 11
1111.0000
 21
 174.1400
  0
LINE
  8
200
  6
AUSGEZOGEN
 10
1131.0000
 20
 174.1400
 11
1125.1400
 21
 180.0000
  0
LINE
  8
200
  6
AUSGEZOGEN
 10
1125.1400
 20
 160.0000
 11
1131.0000
 21
 165.8600
  0
LINE
  8
200
  6
AUSGEZOGEN
 10
1141.0000
 20
 165.8600
 11
1146.8600
 21
 160.0000
  0
LINE
  8
200
  6
AUSGEZOGEN
 10
1146.8600
 20
 180.0000
 11
1141.0000
 21
 174.1400
  0
LINE
  8
200
  6
AUSGEZOGEN
 10
1161.0000
 20
 174.1400
 11
1155.1400
 21
 180.0000
  0
LINE
  8
200
  6
AUSGEZOGEN
 10
1155.1400
 20
 160.0000
 11
1161.0000
 21
 165.8600
  0
LINE
  8
200
  6
AUSGEZOGEN
 10
1171.0000
 20
 165.8600
 11
1176.8600
 21
 160.0000
  0
LINE
  8
200
  6
AUSGEZOGEN
 10
1176.8600
 20
 180.0000
 11
1171.0000
 21
 174.1400
  0
LINE
  8
200
  6
AUSGEZOGEN
 10
1191.0000
 20
 174.1400
 11
1185.1400
 21
 180.0000
  0
LINE
  8
200
  6
AUSGEZOGEN
 10
1185.1400
 20
 160.0000
 11
1191.0000
 21
 165.8600
  0
LINE
  8
200
  6
AUSGEZOGEN
 10
1201.0000
 20
 165.8600
 11
1206.8600
 21
 160.0000
  0
LINE
  8
200
  6
AUSGEZOGEN
 10
1206.8600
 20
 180.0000
 11
1201.0000
 21
 174.1400
  0
LINE
  8
200
  6
AUSGEZOGEN
 10
1221.0000
 20
 174.1400
 11
1215.1400
 21
 180.0000
  0
LINE
  8
200
  6
AUSGEZOGEN
 10
1215.1400
 20
 160.0000
 11
1221.0000
 21
 165.8600
  0
LINE
  8
200
  6
AUSGEZOGEN
 10
1231.0000
 20
 165.8600
 11
1236.8600
 21
 160.0000
  0
LINE
  8
200
  6
AUSGEZOGEN
 10
1236.8600
 20
 180.0000
 11
1231.0000
 21
 174.1400
  0
LINE
  8
200
  6
AUSGEZOGEN
 10
1251.0000
 20
 174.1400
 11
1245.1400
 21
 180.0000
  0
LINE
  8
200
  6
AUSGEZOGEN
 10
1245.1400
 20
 160.0000
 11
1251.0000
 21
 165.8600
  0
LINE
  8
200
  6
AUSGEZOGEN
 10
1261.0000
 20
 165.8600
 11
1266.8600
 21
 160.0000
  0
LINE
  8
200
  6
AUSGEZOGEN
 10
1266.8600
 20
 180.0000
 11
1261.0000
 21
 174.1400
  0
LINE
  8
200
  6
AUSGEZOGEN
 10
1281.0000
 20
 174.1400
 11
1275.1400
 21
 180.0000
  0
LINE
  8
200
  6
AUSGEZOGEN
 10
1275.1400
 20
 160.0000
 11
1281.0000
 21
 165.8600
  0
LINE
  8
200
  6
AUSGEZOGEN
 10
1291.0000
 20
 165.8600
 11
1296.8600
 21
 160.0000
  0
LINE
  8
200
  6
AUSGEZOGEN
 10
1296.8600
 20
 180.0000
 11
1291.0000
 21
 174.1400
  0
LINE
  8
200
  6
AUSGEZOGEN
 10
1311.0000
 20
 174.1400
 11
1305.1400
 21
 180.0000
  0
LINE
  8
200
  6
AUSGEZOGEN
 10
1305.1400
 20
 160.0000
 11
1311.0000
 21
 165.8600
  0
LINE
  8
200
  6
AUSGEZOGEN
 10
1321.0000
 20
 165.8600
 11
1326.8600
 21
 160.0000
  0
LINE
  8
200
  6
AUSGEZOGEN
 10
1326.8600
 20
 180.0000
 11
1321.0000
 21
 174.1400
  0
LINE
  8
200
  6
AUSGEZOGEN
 10
1341.0000
 20
 174.1400
 11
1335.1400
 21
 180.0000
  0
LINE
  8
200
  6
AUSGEZOGEN
 10
1335.1400
 20
 160.0000
 11
1341.0000
 21
 165.8600
  0
LINE
  8
200
  6
AUSGEZOGEN
 10
1351.0000
 20
 165.8600
 11
1356.8600
 21
 160.0000
  0
LINE
  8
200
  6
AUSGEZOGEN
 10
1356.8600
 20
 180.0000
 11
1351.0000
 21
 174.1400
  0
LINE
  8
200
  6
AUSGEZOGEN
 10
1371.0000
 20
 174.1400
 11
1365.1400
 21
 180.0000
  0
LINE
  8
200
  6
AUSGEZOGEN
 10
1365.1400
 20
 160.0000
 11
1371.0000
 21
 165.8600
  0
LINE
  8
200
  6
AUSGEZOGEN
 10
1381.0000
 20
 165.8600
 11
1386.8600
 21
 160.0000
  0
LINE
  8
200
  6
AUSGEZOGEN
 10
1386.8600
 20
 180.0000
 11
1381.0000
 21
 174.1400
  0
LINE
  8
200
  6
AUSGEZOGEN
 10
1401.0000
 20
 174.1400
 11
1395.1400
 21
 180.0000
  0
LINE
  8
200
  6
AUSGEZOGEN
 10
1395.1400
 20
 160.0000
 11
1401.0000
 21
 165.8600
  0
LINE
  8
200
  6
AUSGEZOGEN
 10
1411.0000
 20
 165.8600
 11
1416.8600
 21
 160.0000
  0
LINE
  8
200
  6
AUSGEZOGEN
 10
1416.8600
 20
 180.0000
 11
1411.0000
 21
 174.1400
  0
LINE
  8
200
  6
AUSGEZOGEN
 10
1431.0000
 20
 174.1400
 11
1425.1400
 21
 180.0000
  0
LINE
  8
200
  6
AUSGEZOGEN
 10
1425.1400
 20
 160.0000
 11
1431.0000
 21
 165.8600
  0
LINE
  8
200
  6
AUSGEZOGEN
 10
1441.0000
 20
 165.8600
 11
1446.8600
 21
 160.0000
  0
LINE
  8
200
  6
AUSGEZOGEN
 10
1446.8600
 20
 180.0000
 11
1441.0000
 21
 174.1400
  0
LINE
  8
200
  6
AUSGEZOGEN
 10
1461.0000
 20
 174.1400
 11
1455.1400
 21
 180.0000
  0
LINE
  8
200
  6
AUSGEZOGEN
 10
1455.1400
 20
 160.0000
 11
1461.0000
 21
 165.8600
  0
LINE
  8
200
  6
AUSGEZOGEN
 10
1471.0000
 20
 165.8600
 11
1476.8600
 21
 160.0000
  0
LINE
  8
200
  6
AUSGEZOGEN
 10
1476.8600
 20
 180.0000
 11
1471.0000
 21
 174.1400
  0
LINE
  8
200
  6
AUSGEZOGEN
 10
1491.0000
 20
 174.1400
 11
1485.1400
 21
 180.0000
  0
LINE
  8
200
  6
AUSGEZOGEN
 10
1485.1400
 20
 160.0000
 11
1491.0000
 21
 165.8600
  0
LINE
  8
200
  6
AUSGEZOGEN
 10
1501.0000
 20
 165.8600
 11
1506.8600
 21
 160.0000
  0
LINE
  8
200
  6
AUSGEZOGEN
 10
1506.8600
 20
 180.0000
 11
1501.0000
 21
 174.1400
  0
LINE
  8
200
  6
AUSGEZOGEN
 10
1521.0000
 20
 174.1400
 11
1515.1400
 21
 180.0000
  0
LINE
  8
200
  6
AUSGEZOGEN
 10
1515.1400
 20
 160.0000
 11
1521.0000
 21
 165.8600
  0
LINE
  8
200
  6
AUSGEZOGEN
 10
1531.0000
 20
 165.8600
 11
1536.8600
 21
 160.0000
  0
LINE
  8
200
  6
AUSGEZOGEN
 10
1536.8600
 20
 180.0000
 11
1531.0000
 21
 174.1400
  0
LINE
  8
200
  6
AUSGEZOGEN
 10
1551.0000
 20
 174.1400
 11
1545.1400
 21
 180.0000
  0
LINE
  8
200
  6
AUSGEZOGEN
 10
1545.1400
 20
 160.0000
 11
1551.0000
 21
 165.8600
  0
LINE
  8
200
  6
AUSGEZOGEN
 10
1051.0000
 20
 135.8600
 11
1056.8600
 21
 130.0000
  0
LINE
  8
200
  6
AUSGEZOGEN
 10
1056.8600
 20
 150.0000
 11
1051.0000
 21
 144.1400
  0
LINE
  8
200
  6
AUSGEZOGEN
 10
1071.0000
 20
 144.1400
 11
1065.1400
 21
 150.0000
  0
LINE
  8
200
  6
AUSGEZOGEN
 10
1065.1400
 20
 130.0000
 11
1071.0000
 21
 135.8600
  0
LINE
  8
200
  6
AUSGEZOGEN
 10
1081.0000
 20
 135.8600
 11
1086.8600
 21
 130.0000
  0
LINE
  8
200
  6
AUSGEZOGEN
 10
1086.8600
 20
 150.0000
 11
1081.0000
 21
 144.1400
  0
LINE
  8
200
  6
AUSGEZOGEN
 10
1101.0000
 20
 144.1400
 11
1095.1400
 21
 150.0000
  0
LINE
  8
200
  6
AUSGEZOGEN
 10
1095.1400
 20
 130.0000
 11
1101.0000
 21
 135.8600
  0
LINE
  8
200
  6
AUSGEZOGEN
 10
1111.0000
 20
 135.8600
 11
1116.8600
 21
 130.0000
  0
LINE
  8
200
  6
AUSGEZOGEN
 10
1116.8600
 20
 150.0000
 11
1111.0000
 21
 144.1400
  0
LINE
  8
200
  6
AUSGEZOGEN
 10
1131.0000
 20
 144.1400
 11
1125.1400
 21
 150.0000
  0
LINE
  8
200
  6
AUSGEZOGEN
 10
1125.1400
 20
 130.0000
 11
1131.0000
 21
 135.8600
  0
LINE
  8
200
  6
AUSGEZOGEN
 10
1141.0000
 20
 135.8600
 11
1146.8600
 21
 130.0000
  0
LINE
  8
200
  6
AUSGEZOGEN
 10
1146.8600
 20
 150.0000
 11
1141.0000
 21
 144.1400
  0
LINE
  8
200
  6
AUSGEZOGEN
 10
1161.0000
 20
 144.1400
 11
1155.1400
 21
 150.0000
  0
LINE
  8
200
  6
AUSGEZOGEN
 10
1155.1400
 20
 130.0000
 11
1161.0000
 21
 135.8600
  0
LINE
  8
200
  6
AUSGEZOGEN
 10
1171.0000
 20
 135.8600
 11
1176.8600
 21
 130.0000
  0
LINE
  8
200
  6
AUSGEZOGEN
 10
1176.8600
 20
 150.0000
 11
1171.0000
 21
 144.1400
  0
LINE
  8
200
  6
AUSGEZOGEN
 10
1191.0000
 20
 144.1400
 11
1185.1400
 21
 150.0000
  0
LINE
  8
200
  6
AUSGEZOGEN
 10
1185.1400
 20
 130.0000
 11
1191.0000
 21
 135.8600
  0
LINE
  8
200
  6
AUSGEZOGEN
 10
1201.0000
 20
 135.8600
 11
1206.8600
 21
 130.0000
  0
LINE
  8
200
  6
AUSGEZOGEN
 10
1206.8600
 20
 150.0000
 11
1201.0000
 21
 144.1400
  0
LINE
  8
200
  6
AUSGEZOGEN
 10
1221.0000
 20
 144.1400
 11
1215.1400
 21
 150.0000
  0
LINE
  8
200
  6
AUSGEZOGEN
 10
1215.1400
 20
 130.0000
 11
1221.0000
 21
 135.8600
  0
LINE
  8
200
  6
AUSGEZOGEN
 10
1231.0000
 20
 135.8600
 11
1236.8600
 21
 130.0000
  0
LINE
  8
200
  6
AUSGEZOGEN
 10
1236.8600
 20
 150.0000
 11
1231.0000
 21
 144.1400
  0
LINE
  8
200
  6
AUSGEZOGEN
 10
1251.0000
 20
 144.1400
 11
1245.1400
 21
 150.0000
  0
LINE
  8
200
  6
AUSGEZOGEN
 10
1245.1400
 20
 130.0000
 11
1251.0000
 21
 135.8600
  0
LINE
  8
200
  6
AUSGEZOGEN
 10
1261.0000
 20
 135.8600
 11
1266.8600
 21
 130.0000
  0
LINE
  8
200
  6
AUSGEZOGEN
 10
1266.8600
 20
 150.0000
 11
1261.0000
 21
 144.1400
  0
LINE
  8
200
  6
AUSGEZOGEN
 10
1281.0000
 20
 144.1400
 11
1275.1400
 21
 150.0000
  0
LINE
  8
200
  6
AUSGEZOGEN
 10
1275.1400
 20
 130.0000
 11
1281.0000
 21
 135.8600
  0
LINE
  8
200
  6
AUSGEZOGEN
 10
1291.0000
 20
 135.8600
 11
1296.8600
 21
 130.0000
  0
LINE
  8
200
  6
AUSGEZOGEN
 10
1296.8600
 20
 150.0000
 11
1291.0000
 21
 144.1400
  0
LINE
  8
200
  6
AUSGEZOGEN
 10
1311.0000
 20
 144.1400
 11
1305.1400
 21
 150.0000
  0
LINE
  8
200
  6
AUSGEZOGEN
 10
1305.1400
 20
 130.0000
 11
1311.0000
 21
 135.8600
  0
LINE
  8
200
  6
AUSGEZOGEN
 10
1321.0000
 20
 135.8600
 11
1326.8600
 21
 130.0000
  0
LINE
  8
200
  6
AUSGEZOGEN
 10
1326.8600
 20
 150.0000
 11
1321.0000
 21
 144.1400
  0
LINE
  8
200
  6
AUSGEZOGEN
 10
1341.0000
 20
 144.1400
 11
1335.1400
 21
 150.0000
  0
LINE
  8
200
  6
AUSGEZOGEN
 10
1335.1400
 20
 130.0000
 11
1341.0000
 21
 135.8600
  0
LINE
  8
200
  6
AUSGEZOGEN
 10
1351.0000
 20
 135.8600
 11
1356.8600
 21
 130.0000
  0
LINE
  8
200
  6
AUSGEZOGEN
 10
1356.8600
 20
 150.0000
 11
1351.0000
 21
 144.1400
  0
LINE
  8
200
  6
AUSGEZOGEN
 10
1371.0000
 20
 144.1400
 11
1365.1400
 21
 150.0000
  0
LINE
  8
200
  6
AUSGEZOGEN
 10
1365.1400
 20
 130.0000
 11
1371.0000
 21
 135.8600
  0
LINE
  8
200
  6
AUSGEZOGEN
 10
1381.0000
 20
 135.8600
 11
1386.8600
 21
 130.0000
  0
LINE
  8
200
  6
AUSGEZOGEN
 10
1386.8600
 20
 150.0000
 11
1381.0000
 21
 144.1400
  0
LINE
  8
200
  6
AUSGEZOGEN
 10
1401.0000
 20
 144.1400
 11
1395.1400
 21
 150.0000
  0
LINE
  8
200
  6
AUSGEZOGEN
 10
1395.1400
 20
 130.0000
 11
1401.0000
 21
 135.8600
  0
LINE
  8
200
  6
AUSGEZOGEN
 10
1411.0000
 20
 135.8600
 11
1416.8600
 21
 130.0000
  0
LINE
  8
200
  6
AUSGEZOGEN
 10
1416.8600
 20
 150.0000
 11
1411.0000
 21
 144.1400
  0
LINE
  8
200
  6
AUSGEZOGEN
 10
1431.0000
 20
 144.1400
 11
1425.1400
 21
 150.0000
  0
LINE
  8
200
  6
AUSGEZOGEN
 10
1425.1400
 20
 130.0000
 11
1431.0000
 21
 135.8600
  0
LINE
  8
200
  6
AUSGEZOGEN
 10
1441.0000
 20
 135.8600
 11
1446.8600
 21
 130.0000
  0
LINE
  8
200
  6
AUSGEZOGEN
 10
1446.8600
 20
 150.0000
 11
1441.0000
 21
 144.1400
  0
LINE
  8
200
  6
AUSGEZOGEN
 10
1461.0000
 20
 144.1400
 11
1455.1400
 21
 150.0000
  0
LINE
  8
200
  6
AUSGEZOGEN
 10
1455.1400
 20
 130.0000
 11
1461.0000
 21
 135.8600
  0
LINE
  8
200
  6
AUSGEZOGEN
 10
1471.0000
 20
 135.8600
 11
1476.8600
 21
 130.0000
  0
LINE
  8
200
  6
AUSGEZOGEN
 10
1476.8600
 20
 150.0000
 11
1471.0000
 21
 144.1400
  0
LINE
  8
200
  6
AUSGEZOGEN
 10
1491.0000
 20
 144.1400
 11
1485.1400
 21
 150.0000
  0
LINE
  8
200
  6
AUSGEZOGEN
 10
1485.1400
 20
 130.0000
 11
1491.0000
 21
 135.8600
  0
LINE
  8
200
  6
AUSGEZOGEN
 10
1501.0000
 20
 135.8600
 11
1506.8600
 21
 130.0000
  0
LINE
  8
200
  6
AUSGEZOGEN
 10
1506.8600
 20
 150.0000
 11
1501.0000
 21
 144.1400
  0
LINE
  8
200
  6
AUSGEZOGEN
 10
1521.0000
 20
 144.1400
 11
1515.1400
 21
 150.0000
  0
LINE
  8
200
  6
AUSGEZOGEN
 10
1515.1400
 20
 130.0000
 11
1521.0000
 21
 135.8600
  0
LINE
  8
200
  6
AUSGEZOGEN
 10
1531.0000
 20
 135.8600
 11
1536.8600
 21
 130.0000
  0
LINE
  8
200
  6
AUSGEZOGEN
 10
1536.8600
 20
 150.0000
 11
1531.0000
 21
 144.1400
  0
LINE
  8
200
  6
AUSGEZOGEN
 10
1551.0000
 20
 144.1400
 11
1545.1400
 21
 150.0000
  0
LINE
  8
200
  6
AUSGEZOGEN
 10
1545.1400
 20
 130.0000
 11
1551.0000
 21
 135.8600
  0
LINE
  8
200
  6
AUSGEZOGEN
 10
1051.0000
 20
 105.8600
 11
1056.8600
 21
 100.0000
  0
LINE
  8
200
  6
AUSGEZOGEN
 10
1056.8600
 20
 120.0000
 11
1051.0000
 21
 114.1400
  0
LINE
  8
200
  6
AUSGEZOGEN
 10
1071.0000
 20
 114.1400
 11
1065.1400
 21
 120.0000
  0
LINE
  8
200
  6
AUSGEZOGEN
 10
1065.1400
 20
 100.0000
 11
1071.0000
 21
 105.8600
  0
LINE
  8
200
  6
AUSGEZOGEN
 10
1081.0000
 20
 105.8600
 11
1086.8600
 21
 100.0000
  0
LINE
  8
200
  6
AUSGEZOGEN
 10
1086.8600
 20
 120.0000
 11
1081.0000
 21
 114.1400
  0
LINE
  8
200
  6
AUSGEZOGEN
 10
1101.0000
 20
 114.1400
 11
1095.1400
 21
 120.0000
  0
LINE
  8
200
  6
AUSGEZOGEN
 10
1095.1400
 20
 100.0000
 11
1101.0000
 21
 105.8600
  0
LINE
  8
200
  6
AUSGEZOGEN
 10
1111.0000
 20
 105.8600
 11
1116.8600
 21
 100.0000
  0
LINE
  8
200
  6
AUSGEZOGEN
 10
1116.8600
 20
 120.0000
 11
1111.0000
 21
 114.1400
  0
LINE
  8
200
  6
AUSGEZOGEN
 10
1131.0000
 20
 114.1400
 11
1125.1400
 21
 120.0000
  0
LINE
  8
200
  6
AUSGEZOGEN
 10
1125.1400
 20
 100.0000
 11
1131.0000
 21
 105.8600
  0
LINE
  8
200
  6
AUSGEZOGEN
 10
1141.0000
 20
 105.8600
 11
1146.8600
 21
 100.0000
  0
LINE
  8
200
  6
AUSGEZOGEN
 10
1146.8600
 20
 120.0000
 11
1141.0000
 21
 114.1400
  0
LINE
  8
200
  6
AUSGEZOGEN
 10
1161.0000
 20
 114.1400
 11
1155.1400
 21
 120.0000
  0
LINE
  8
200
  6
AUSGEZOGEN
 10
1155.1400
 20
 100.0000
 11
1161.0000
 21
 105.8600
  0
LINE
  8
200
  6
AUSGEZOGEN
 10
1171.0000
 20
 105.8600
 11
1176.8600
 21
 100.0000
  0
LINE
  8
200
  6
AUSGEZOGEN
 10
1176.8600
 20
 120.0000
 11
1171.0000
 21
 114.1400
  0
LINE
  8
200
  6
AUSGEZOGEN
 10
1191.0000
 20
 114.1400
 11
1185.1400
 21
 120.0000
  0
LINE
  8
200
  6
AUSGEZOGEN
 10
1185.1400
 20
 100.0000
 11
1191.0000
 21
 105.8600
  0
LINE
  8
200
  6
AUSGEZOGEN
 10
1201.0000
 20
 105.8600
 11
1206.8600
 21
 100.0000
  0
LINE
  8
200
  6
AUSGEZOGEN
 10
1206.8600
 20
 120.0000
 11
1201.0000
 21
 114.1400
  0
LINE
  8
200
  6
AUSGEZOGEN
 10
1221.0000
 20
 114.1400
 11
1215.1400
 21
 120.0000
  0
LINE
  8
200
  6
AUSGEZOGEN
 10
1215.1400
 20
 100.0000
 11
1221.0000
 21
 105.8600
  0
LINE
  8
200
  6
AUSGEZOGEN
 10
1231.0000
 20
 105.8600
 11
1236.8600
 21
 100.0000
  0
LINE
  8
200
  6
AUSGEZOGEN
 10
1236.8600
 20
 120.0000
 11
1231.0000
 21
 114.1400
  0
LINE
  8
200
  6
AUSGEZOGEN
 10
1251.0000
 20
 114.1400
 11
1245.1400
 21
 120.0000
  0
LINE
  8
200
  6
AUSGEZOGEN
 10
1245.1400
 20
 100.0000
 11
1251.0000
 21
 105.8600
  0
LINE
  8
200
  6
AUSGEZOGEN
 10
1261.0000
 20
 105.8600
 11
1266.8600
 21
 100.0000
  0
LINE
  8
200
  6
AUSGEZOGEN
 10
1266.8600
 20
 120.0000
 11
1261.0000
 21
 114.1400
  0
LINE
  8
200
  6
AUSGEZOGEN
 10
1281.0000
 20
 114.1400
 11
1275.1400
 21
 120.0000
  0
LINE
  8
200
  6
AUSGEZOGEN
 10
1275.1400
 20
 100.0000
 11
1281.0000
 21
 105.8600
  0
LINE
  8
200
  6
AUSGEZOGEN
 10
1291.0000
 20
 105.8600
 11
1296.8600
 21
 100.0000
  0
LINE
  8
200
  6
AUSGEZOGEN
 10
1296.8600
 20
 120.0000
 11
1291.0000
 21
 114.1400
  0
LINE
  8
200
  6
AUSGEZOGEN
 10
1311.0000
 20
 114.1400
 11
1305.1400
 21
 120.0000
  0
LINE
  8
200
  6
AUSGEZOGEN
 10
1305.1400
 20
 100.0000
 11
1311.0000
 21
 105.8600
  0
LINE
  8
200
  6
AUSGEZOGEN
 10
1321.0000
 20
 105.8600
 11
1326.8600
 21
 100.0000
  0
LINE
  8
200
  6
AUSGEZOGEN
 10
1326.8600
 20
 120.0000
 11
1321.0000
 21
 114.1400
  0
LINE
  8
200
  6
AUSGEZOGEN
 10
1341.0000
 20
 114.1400
 11
1335.1400
 21
 120.0000
  0
LINE
  8
200
  6
AUSGEZOGEN
 10
1335.1400
 20
 100.0000
 11
1341.0000
 21
 105.8600
  0
LINE
  8
200
  6
AUSGEZOGEN
 10
1351.0000
 20
 105.8600
 11
1356.8600
 21
 100.0000
  0
LINE
  8
200
  6
AUSGEZOGEN
 10
1356.8600
 20
 120.0000
 11
1351.0000
 21
 114.1400
  0
LINE
  8
200
  6
AUSGEZOGEN
 10
1371.0000
 20
 114.1400
 11
1365.1400
 21
 120.0000
  0
LINE
  8
200
  6
AUSGEZOGEN
 10
1365.1400
 20
 100.0000
 11
1371.0000
 21
 105.8600
  0
LINE
  8
200
  6
AUSGEZOGEN
 10
1381.0000
 20
 105.8600
 11
1386.8600
 21
 100.0000
  0
LINE
  8
200
  6
AUSGEZOGEN
 10
1386.8600
 20
 120.0000
 11
1381.0000
 21
 114.1400
  0
LINE
  8
200
  6
AUSGEZOGEN
 10
1401.0000
 20
 114.1400
 11
1395.1400
 21
 120.0000
  0
LINE
  8
200
  6
AUSGEZOGEN
 10
1395.1400
 20
 100.0000
 11
1401.0000
 21
 105.8600
  0
LINE
  8
200
  6
AUSGEZOGEN
 10
1411.0000
 20
 105.8600
 11
1416.8600
 21
 100.0000
  0
LINE
  8
200
  6
AUSGEZOGEN
 10
1416.8600
 20
 120.0000
 11
1411.0000
 21
 114.1400
  0
LINE
  8
200
  6
AUSGEZOGEN
 10
1431.0000
 20
 114.1400
 11
1425.1400
 21
 120.0000
  0
LINE
  8
200
  6
AUSGEZOGEN
 10
1425.1400
 20
 100.0000
 11
1431.0000
 21
 105.8600
  0
LINE
  8
200
  6
AUSGEZOGEN
 10
1441.0000
 20
 105.8600
 11
1446.8600
 21
 100.0000
  0
LINE
  8
200
  6
AUSGEZOGEN
 10
1446.8600
 20
 120.0000
 11
1441.0000
 21
 114.1400
  0
LINE
  8
200
  6
AUSGEZOGEN
 10
1461.0000
 20
 114.1400
 11
1455.1400
 21
 120.0000
  0
LINE
  8
200
  6
AUSGEZOGEN
 10
1455.1400
 20
 100.0000
 11
1461.0000
 21
 105.8600
  0
LINE
  8
200
  6
AUSGEZOGEN
 10
1471.0000
 20
 105.8600
 11
1476.8600
 21
 100.0000
  0
LINE
  8
200
  6
AUSGEZOGEN
 10
1476.8600
 20
 120.0000
 11
1471.0000
 21
 114.1400
  0
LINE
  8
200
  6
AUSGEZOGEN
 10
1491.0000
 20
 114.1400
 11
1485.1400
 21
 120.0000
  0
LINE
  8
200
  6
AUSGEZOGEN
 10
1485.1400
 20
 100.0000
 11
1491.0000
 21
 105.8600
  0
LINE
  8
200
  6
AUSGEZOGEN
 10
1501.0000
 20
 105.8600
 11
1506.8600
 21
 100.0000
  0
LINE
  8
200
  6
AUSGEZOGEN
 10
1506.8600
 20
 120.0000
 11
1501.0000
 21
 114.1400
  0
LINE
  8
200
  6
AUSGEZOGEN
 10
1521.0000
 20
 114.1400
 11
1515.1400
 21
 120.0000
  0
LINE
  8
200
  6
AUSGEZOGEN
 10
1515.1400
 20
 100.0000
 11
1521.0000
 21
 105.8600
  0
LINE
  8
200
  6
AUSGEZOGEN
 10
1531.0000
 20
 105.8600
 11
1536.8600
 21
 100.0000
  0
LINE
  8
200
  6
AUSGEZOGEN
 10
1536.8600
 20
 120.0000
 11
1531.0000
 21
 114.1400
  0
LINE
  8
200
  6
AUSGEZOGEN
 10
1551.0000
 20
 114.1400
 11
1545.1400
 21
 120.0000
  0
LINE
  8
200
  6
AUSGEZOGEN
 10
1545.1400
 20
 100.0000
 11
1551.0000
 21
 105.8600
  0
LINE
  8
200
  6
AUSGEZOGEN
 10
1051.0000
 20
 285.8600
 11
1056.8600
 21
 280.0000
  0
LINE
  8
200
  6
AUSGEZOGEN
 10
1056.8600
 20
 300.0000
 11
1051.0000
 21
 294.1400
  0
LINE
  8
200
  6
AUSGEZOGEN
 10
1071.0000
 20
 294.1400
 11
1065.1400
 21
 300.0000
  0
LINE
  8
200
  6
AUSGEZOGEN
 10
1065.1400
 20
 280.0000
 11
1071.0000
 21
 285.8600
  0
LINE
  8
200
  6
AUSGEZOGEN
 10
1081.0000
 20
 285.8600
 11
1086.8600
 21
 280.0000
  0
LINE
  8
200
  6
AUSGEZOGEN
 10
1086.8600
 20
 300.0000
 11
1081.0000
 21
 294.1400
  0
LINE
  8
200
  6
AUSGEZOGEN
 10
1101.0000
 20
 294.1400
 11
1095.1400
 21
 300.0000
  0
LINE
  8
200
  6
AUSGEZOGEN
 10
1095.1400
 20
 280.0000
 11
1101.0000
 21
 285.8600
  0
LINE
  8
200
  6
AUSGEZOGEN
 10
1111.0000
 20
 285.8600
 11
1116.8600
 21
 280.0000
  0
LINE
  8
200
  6
AUSGEZOGEN
 10
1116.8600
 20
 300.0000
 11
1111.0000
 21
 294.1400
  0
LINE
  8
200
  6
AUSGEZOGEN
 10
1131.0000
 20
 294.1400
 11
1125.1400
 21
 300.0000
  0
LINE
  8
200
  6
AUSGEZOGEN
 10
1125.1400
 20
 280.0000
 11
1131.0000
 21
 285.8600
  0
LINE
  8
200
  6
AUSGEZOGEN
 10
1141.0000
 20
 285.8600
 11
1146.8600
 21
 280.0000
  0
LINE
  8
200
  6
AUSGEZOGEN
 10
1146.8600
 20
 300.0000
 11
1141.0000
 21
 294.1400
  0
LINE
  8
200
  6
AUSGEZOGEN
 10
1161.0000
 20
 294.1400
 11
1155.1400
 21
 300.0000
  0
LINE
  8
200
  6
AUSGEZOGEN
 10
1155.1400
 20
 280.0000
 11
1161.0000
 21
 285.8600
  0
LINE
  8
200
  6
AUSGEZOGEN
 10
1171.0000
 20
 285.8600
 11
1176.8600
 21
 280.0000
  0
LINE
  8
200
  6
AUSGEZOGEN
 10
1176.8600
 20
 300.0000
 11
1171.0000
 21
 294.1400
  0
LINE
  8
200
  6
AUSGEZOGEN
 10
1191.0000
 20
 294.1400
 11
1185.1400
 21
 300.0000
  0
LINE
  8
200
  6
AUSGEZOGEN
 10
1185.1400
 20
 280.0000
 11
1191.0000
 21
 285.8600
  0
LINE
  8
200
  6
AUSGEZOGEN
 10
1201.0000
 20
 285.8600
 11
1206.8600
 21
 280.0000
  0
LINE
  8
200
  6
AUSGEZOGEN
 10
1206.8600
 20
 300.0000
 11
1201.0000
 21
 294.1400
  0
LINE
  8
200
  6
AUSGEZOGEN
 10
1221.0000
 20
 294.1400
 11
1215.1400
 21
 300.0000
  0
LINE
  8
200
  6
AUSGEZOGEN
 10
1215.1400
 20
 280.0000
 11
1221.0000
 21
 285.8600
  0
LINE
  8
200
  6
AUSGEZOGEN
 10
1231.0000
 20
 285.8600
 11
1236.8600
 21
 280.0000
  0
LINE
  8
200
  6
AUSGEZOGEN
 10
1236.8600
 20
 300.0000
 11
1231.0000
 21
 294.1400
  0
LINE
  8
200
  6
AUSGEZOGEN
 10
1251.0000
 20
 294.1400
 11
1245.1400
 21
 300.0000
  0
LINE
  8
200
  6
AUSGEZOGEN
 10
1245.1400
 20
 280.0000
 11
1251.0000
 21
 285.8600
  0
LINE
  8
200
  6
AUSGEZOGEN
 10
1261.0000
 20
 285.8600
 11
1266.8600
 21
 280.0000
  0
LINE
  8
200
  6
AUSGEZOGEN
 10
1266.8600
 20
 300.0000
 11
1261.0000
 21
 294.1400
  0
LINE
  8
200
  6
AUSGEZOGEN
 10
1281.0000
 20
 294.1400
 11
1275.1400
 21
 300.0000
  0
LINE
  8
200
  6
AUSGEZOGEN
 10
1275.1400
 20
 280.0000
 11
1281.0000
 21
 285.8600
  0
LINE
  8
200
  6
AUSGEZOGEN
 10
1291.0000
 20
 285.8600
 11
1296.8600
 21
 280.0000
  0
LINE
  8
200
  6
AUSGEZOGEN
 10
1296.8600
 20
 300.0000
 11
1291.0000
 21
 294.1400
  0
LINE
  8
200
  6
AUSGEZOGEN
 10
1311.0000
 20
 294.1400
 11
1305.1400
 21
 300.0000
  0
LINE
  8
200
  6
AUSGEZOGEN
 10
1305.1400
 20
 280.0000
 11
1311.0000
 21
 285.8600
  0
LINE
  8
200
  6
AUSGEZOGEN
 10
1321.0000
 20
 285.8600
 11
1326.8600
 21
 280.0000
  0
LINE
  8
200
  6
AUSGEZOGEN
 10
1326.8600
 20
 300.0000
 11
1321.0000
 21
 294.1400
  0
LINE
  8
200
  6
AUSGEZOGEN
 10
1341.0000
 20
 294.1400
 11
1335.1400
 21
 300.0000
  0
LINE
  8
200
  6
AUSGEZOGEN
 10
1335.1400
 20
 280.0000
 11
1341.0000
 21
 285.8600
  0
LINE
  8
200
  6
AUSGEZOGEN
 10
1351.0000
 20
 285.8600
 11
1356.8600
 21
 280.0000
  0
LINE
  8
200
  6
AUSGEZOGEN
 10
1356.8600
 20
 300.0000
 11
1351.0000
 21
 294.1400
  0
LINE
  8
200
  6
AUSGEZOGEN
 10
1371.0000
 20
 294.1400
 11
1365.1400
 21
 300.0000
  0
LINE
  8
200
  6
AUSGEZOGEN
 10
1365.1400
 20
 280.0000
 11
1371.0000
 21
 285.8600
  0
LINE
  8
200
  6
AUSGEZOGEN
 10
1381.0000
 20
 285.8600
 11
1386.8600
 21
 280.0000
  0
LINE
  8
200
  6
AUSGEZOGEN
 10
1386.8600
 20
 300.0000
 11
1381.0000
 21
 294.1400
  0
LINE
  8
200
  6
AUSGEZOGEN
 10
1401.0000
 20
 294.1400
 11
1395.1400
 21
 300.0000
  0
LINE
  8
200
  6
AUSGEZOGEN
 10
1395.1400
 20
 280.0000
 11
1401.0000
 21
 285.8600
  0
LINE
  8
200
  6
AUSGEZOGEN
 10
1411.0000
 20
 285.8600
 11
1416.8600
 21
 280.0000
  0
LINE
  8
200
  6
AUSGEZOGEN
 10
1416.8600
 20
 300.0000
 11
1411.0000
 21
 294.1400
  0
LINE
  8
200
  6
AUSGEZOGEN
 10
1431.0000
 20
 294.1400
 11
1425.1400
 21
 300.0000
  0
LINE
  8
200
  6
AUSGEZOGEN
 10
1425.1400
 20
 280.0000
 11
1431.0000
 21
 285.8600
  0
LINE
  8
200
  6
AUSGEZOGEN
 10
1441.0000
 20
 285.8600
 11
1446.8600
 21
 280.0000
  0
LINE
  8
200
  6
AUSGEZOGEN
 10
1446.8600
 20
 300.0000
 11
1441.0000
 21
 294.1400
  0
LINE
  8
200
  6
AUSGEZOGEN
 10
1461.0000
 20
 294.1400
 11
1455.1400
 21
 300.0000
  0
LINE
  8
200
  6
AUSGEZOGEN
 10
1455.1400
 20
 280.0000
 11
1461.0000
 21
 285.8600
  0
LINE
  8
200
  6
AUSGEZOGEN
 10
1471.0000
 20
 285.8600
 11
1476.8600
 21
 280.0000
  0
LINE
  8
200
  6
AUSGEZOGEN
 10
1476.8600
 20
 300.0000
 11
1471.0000
 21
 294.1400
  0
LINE
  8
200
  6
AUSGEZOGEN
 10
1491.0000
 20
 294.1400
 11
1485.1400
 21
 300.0000
  0
LINE
  8
200
  6
AUSGEZOGEN
 10
1485.1400
 20
 280.0000
 11
1491.0000
 21
 285.8600
  0
LINE
  8
200
  6
AUSGEZOGEN
 10
1501.0000
 20
 285.8600
 11
1506.8600
 21
 280.0000
  0
LINE
  8
200
  6
AUSGEZOGEN
 10
1506.8600
 20
 300.0000
 11
1501.0000
 21
 294.1400
  0
LINE
  8
200
  6
AUSGEZOGEN
 10
1521.0000
 20
 294.1400
 11
1515.1400
 21
 300.0000
  0
LINE
  8
200
  6
AUSGEZOGEN
 10
1515.1400
 20
 280.0000
 11
1521.0000
 21
 285.8600
  0
LINE
  8
200
  6
AUSGEZOGEN
 10
1531.0000
 20
 285.8600
 11
1536.8600
 21
 280.0000
  0
LINE
  8
200
  6
AUSGEZOGEN
 10
1536.8600
 20
 300.0000
 11
1531.0000
 21
 294.1400
  0
LINE
  8
200
  6
AUSGEZOGEN
 10
1551.0000
 20
 294.1400
 11
1545.1400
 21
 300.0000
  0
LINE
  8
200
  6
AUSGEZOGEN
 10
1545.1400
 20
 280.0000
 11
1551.0000
 21
 285.8600
  0
LINE
  8
200
  6
AUSGEZOGEN
 10
1051.0000
 20
 315.8600
 11
1056.8600
 21
 310.0000
  0
LINE
  8
200
  6
AUSGEZOGEN
 10
1056.8600
 20
 330.0000
 11
1051.0000
 21
 324.1400
  0
LINE
  8
200
  6
AUSGEZOGEN
 10
1071.0000
 20
 324.1400
 11
1065.1400
 21
 330.0000
  0
LINE
  8
200
  6
AUSGEZOGEN
 10
1065.1400
 20
 310.0000
 11
1071.0000
 21
 315.8600
  0
LINE
  8
200
  6
AUSGEZOGEN
 10
1081.0000
 20
 315.8600
 11
1086.8600
 21
 310.0000
  0
LINE
  8
200
  6
AUSGEZOGEN
 10
1086.8600
 20
 330.0000
 11
1081.0000
 21
 324.1400
  0
LINE
  8
200
  6
AUSGEZOGEN
 10
1101.0000
 20
 324.1400
 11
1095.1400
 21
 330.0000
  0
LINE
  8
200
  6
AUSGEZOGEN
 10
1095.1400
 20
 310.0000
 11
1101.0000
 21
 315.8600
  0
LINE
  8
200
  6
AUSGEZOGEN
 10
1111.0000
 20
 315.8600
 11
1116.8600
 21
 310.0000
  0
LINE
  8
200
  6
AUSGEZOGEN
 10
1116.8600
 20
 330.0000
 11
1111.0000
 21
 324.1400
  0
LINE
  8
200
  6
AUSGEZOGEN
 10
1131.0000
 20
 324.1400
 11
1125.1400
 21
 330.0000
  0
LINE
  8
200
  6
AUSGEZOGEN
 10
1125.1400
 20
 310.0000
 11
1131.0000
 21
 315.8600
  0
LINE
  8
200
  6
AUSGEZOGEN
 10
1141.0000
 20
 315.8600
 11
1146.8600
 21
 310.0000
  0
LINE
  8
200
  6
AUSGEZOGEN
 10
1146.8600
 20
 330.0000
 11
1141.0000
 21
 324.1400
  0
LINE
  8
200
  6
AUSGEZOGEN
 10
1161.0000
 20
 324.1400
 11
1155.1400
 21
 330.0000
  0
LINE
  8
200
  6
AUSGEZOGEN
 10
1155.1400
 20
 310.0000
 11
1161.0000
 21
 315.8600
  0
LINE
  8
200
  6
AUSGEZOGEN
 10
1171.0000
 20
 315.8600
 11
1176.8600
 21
 310.0000
  0
LINE
  8
200
  6
AUSGEZOGEN
 10
1176.8600
 20
 330.0000
 11
1171.0000
 21
 324.1400
  0
LINE
  8
200
  6
AUSGEZOGEN
 10
1191.0000
 20
 324.1400
 11
1185.1400
 21
 330.0000
  0
LINE
  8
200
  6
AUSGEZOGEN
 10
1185.1400
 20
 310.0000
 11
1191.0000
 21
 315.8600
  0
LINE
  8
200
  6
AUSGEZOGEN
 10
1201.0000
 20
 315.8600
 11
1206.8600
 21
 310.0000
  0
LINE
  8
200
  6
AUSGEZOGEN
 10
1206.8600
 20
 330.0000
 11
1201.0000
 21
 324.1400
  0
LINE
  8
200
  6
AUSGEZOGEN
 10
1221.0000
 20
 324.1400
 11
1215.1400
 21
 330.0000
  0
LINE
  8
200
  6
AUSGEZOGEN
 10
1215.1400
 20
 310.0000
 11
1221.0000
 21
 315.8600
  0
LINE
  8
200
  6
AUSGEZOGEN
 10
1231.0000
 20
 315.8600
 11
1236.8600
 21
 310.0000
  0
LINE
  8
200
  6
AUSGEZOGEN
 10
1236.8600
 20
 330.0000
 11
1231.0000
 21
 324.1400
  0
LINE
  8
200
  6
AUSGEZOGEN
 10
1251.0000
 20
 324.1400
 11
1245.1400
 21
 330.0000
  0
LINE
  8
200
  6
AUSGEZOGEN
 10
1245.1400
 20
 310.0000
 11
1251.0000
 21
 315.8600
  0
LINE
  8
200
  6
AUSGEZOGEN
 10
1261.0000
 20
 315.8600
 11
1266.8600
 21
 310.0000
  0
LINE
  8
200
  6
AUSGEZOGEN
 10
1266.8600
 20
 330.0000
 11
1261.0000
 21
 324.1400
  0
LINE
  8
200
  6
AUSGEZOGEN
 10
1281.0000
 20
 324.1400
 11
1275.1400
 21
 330.0000
  0
LINE
  8
200
  6
AUSGEZOGEN
 10
1275.1400
 20
 310.0000
 11
1281.0000
 21
 315.8600
  0
LINE
  8
200
  6
AUSGEZOGEN
 10
1291.0000
 20
 315.8600
 11
1296.8600
 21
 310.0000
  0
LINE
  8
200
  6
AUSGEZOGEN
 10
1296.8600
 20
 330.0000
 11
1291.0000
 21
 324.1400
  0
LINE
  8
200
  6
AUSGEZOGEN
 10
1311.0000
 20
 324.1400
 11
1305.1400
 21
 330.0000
  0
LINE
  8
200
  6
AUSGEZOGEN
 10
1305.1400
 20
 310.0000
 11
1311.0000
 21
 315.8600
  0
LINE
  8
200
  6
AUSGEZOGEN
 10
1321.0000
 20
 315.8600
 11
1326.8600
 21
 310.0000
  0
LINE
  8
200
  6
AUSGEZOGEN
 10
1326.8600
 20
 330.0000
 11
1321.0000
 21
 324.1400
  0
LINE
  8
200
  6
AUSGEZOGEN
 10
1341.0000
 20
 324.1400
 11
1335.1400
 21
 330.0000
  0
LINE
  8
200
  6
AUSGEZOGEN
 10
1335.1400
 20
 310.0000
 11
1341.0000
 21
 315.8600
  0
LINE
  8
200
  6
AUSGEZOGEN
 10
1351.0000
 20
 315.8600
 11
1356.8600
 21
 310.0000
  0
LINE
  8
200
  6
AUSGEZOGEN
 10
1356.8600
 20
 330.0000
 11
1351.0000
 21
 324.1400
  0
LINE
  8
200
  6
AUSGEZOGEN
 10
1371.0000
 20
 324.1400
 11
1365.1400
 21
 330.0000
  0
LINE
  8
200
  6
AUSGEZOGEN
 10
1365.1400
 20
 310.0000
 11
1371.0000
 21
 315.8600
  0
LINE
  8
200
  6
AUSGEZOGEN
 10
1381.0000
 20
 315.8600
 11
1386.8600
 21
 310.0000
  0
LINE
  8
200
  6
AUSGEZOGEN
 10
1386.8600
 20
 330.0000
 11
1381.0000
 21
 324.1400
  0
LINE
  8
200
  6
AUSGEZOGEN
 10
1401.0000
 20
 324.1400
 11
1395.1400
 21
 330.0000
  0
LINE
  8
200
  6
AUSGEZOGEN
 10
1395.1400
 20
 310.0000
 11
1401.0000
 21
 315.8600
  0
LINE
  8
200
  6
AUSGEZOGEN
 10
1411.0000
 20
 315.8600
 11
1416.8600
 21
 310.0000
  0
LINE
  8
200
  6
AUSGEZOGEN
 10
1416.8600
 20
 330.0000
 11
1411.0000
 21
 324.1400
  0
LINE
  8
200
  6
AUSGEZOGEN
 10
1431.0000
 20
 324.1400
 11
1425.1400
 21
 330.0000
  0
LINE
  8
200
  6
AUSGEZOGEN
 10
1425.1400
 20
 310.0000
 11
1431.0000
 21
 315.8600
  0
LINE
  8
200
  6
AUSGEZOGEN
 10
1441.0000
 20
 315.8600
 11
1446.8600
 21
 310.0000
  0
LINE
  8
200
  6
AUSGEZOGEN
 10
1446.8600
 20
 330.0000
 11
1441.0000
 21
 324.1400
  0
LINE
  8
200
  6
AUSGEZOGEN
 10
1461.0000
 20
 324.1400
 11
1455.1400
 21
 330.0000
  0
LINE
  8
200
  6
AUSGEZOGEN
 10
1455.1400
 20
 310.0000
 11
1461.0000
 21
 315.8600
  0
LINE
  8
200
  6
AUSGEZOGEN
 10
1476.8600
 20
 330.0000
 11
1471.0000
 21
 324.1400
  0
LINE
  8
200
  6
AUSGEZOGEN
 10
1491.0000
 20
 324.1400
 11
1485.1400
 21
 330.0000
  0
LINE
  8
200
  6
AUSGEZOGEN
 10
1485.1400
 20
 310.0000
 11
1491.0000
 21
 315.8600
  0
LINE
  8
200
  6
AUSGEZOGEN
 10
1501.0000
 20
 315.8600
 11
1506.8600
 21
 310.0000
  0
LINE
  8
200
  6
AUSGEZOGEN
 10
1506.8600
 20
 330.0000
 11
1501.0000
 21
 324.1400
  0
LINE
  8
200
  6
AUSGEZOGEN
 10
1521.0000
 20
 324.1400
 11
1515.1400
 21
 330.0000
  0
LINE
  8
200
  6
AUSGEZOGEN
 10
1515.1400
 20
 310.0000
 11
1521.0000
 21
 315.8600
  0
LINE
  8
200
  6
AUSGEZOGEN
 10
1531.0000
 20
 315.8600
 11
1536.8600
 21
 310.0000
  0
LINE
  8
200
  6
AUSGEZOGEN
 10
1536.8600
 20
 330.0000
 11
1531.0000
 21
 324.1400
  0
LINE
  8
200
  6
AUSGEZOGEN
 10
1551.0000
 20
 324.1400
 11
1545.1400
 21
 330.0000
  0
LINE
  8
200
  6
AUSGEZOGEN
 10
1545.1400
 20
 310.0000
 11
1551.0000
 21
 315.8600
  0
LINE
  8
200
  6
AUSGEZOGEN
 10
1051.0000
 20
 345.8600
 11
1056.8600
 21
 340.0000
  0
LINE
  8
200
  6
AUSGEZOGEN
 10
1056.8600
 20
 360.0000
 11
1051.0000
 21
 354.1400
  0
LINE
  8
200
  6
AUSGEZOGEN
 10
1071.0000
 20
 354.1400
 11
1065.1400
 21
 360.0000
  0
LINE
  8
200
  6
AUSGEZOGEN
 10
1065.1400
 20
 340.0000
 11
1071.0000
 21
 345.8600
  0
LINE
  8
200
  6
AUSGEZOGEN
 10
1081.0000
 20
 345.8600
 11
1086.8600
 21
 340.0000
  0
LINE
  8
200
  6
AUSGEZOGEN
 10
1086.8600
 20
 360.0000
 11
1081.0000
 21
 354.1400
  0
LINE
  8
200
  6
AUSGEZOGEN
 10
1101.0000
 20
 354.1400
 11
1095.1400
 21
 360.0000
  0
LINE
  8
200
  6
AUSGEZOGEN
 10
1095.1400
 20
 340.0000
 11
1101.0000
 21
 345.8600
  0
LINE
  8
200
  6
AUSGEZOGEN
 10
1111.0000
 20
 345.8600
 11
1116.8600
 21
 340.0000
  0
LINE
  8
200
  6
AUSGEZOGEN
 10
1116.8600
 20
 360.0000
 11
1111.0000
 21
 354.1400
  0
LINE
  8
200
  6
AUSGEZOGEN
 10
1131.0000
 20
 354.1400
 11
1125.1400
 21
 360.0000
  0
LINE
  8
200
  6
AUSGEZOGEN
 10
1125.1400
 20
 340.0000
 11
1131.0000
 21
 345.8600
  0
LINE
  8
200
  6
AUSGEZOGEN
 10
1141.0000
 20
 345.8600
 11
1146.8600
 21
 340.0000
  0
LINE
  8
200
  6
AUSGEZOGEN
 10
1146.8600
 20
 360.0000
 11
1141.0000
 21
 354.1400
  0
LINE
  8
200
  6
AUSGEZOGEN
 10
1161.0000
 20
 354.1400
 11
1155.1400
 21
 360.0000
  0
LINE
  8
200
  6
AUSGEZOGEN
 10
1155.1400
 20
 340.0000
 11
1161.0000
 21
 345.8600
  0
LINE
  8
200
  6
AUSGEZOGEN
 10
1171.0000
 20
 345.8600
 11
1176.8600
 21
 340.0000
  0
LINE
  8
200
  6
AUSGEZOGEN
 10
1176.8600
 20
 360.0000
 11
1171.0000
 21
 354.1400
  0
LINE
  8
200
  6
AUSGEZOGEN
 10
1191.0000
 20
 354.1400
 11
1185.1400
 21
 360.0000
  0
LINE
  8
200
  6
AUSGEZOGEN
 10
1185.1400
 20
 340.0000
 11
1191.0000
 21
 345.8600
  0
LINE
  8
200
  6
AUSGEZOGEN
 10
1201.0000
 20
 345.8600
 11
1206.8600
 21
 340.0000
  0
LINE
  8
200
  6
AUSGEZOGEN
 10
1206.8600
 20
 360.0000
 11
1201.0000
 21
 354.1400
  0
LINE
  8
200
  6
AUSGEZOGEN
 10
1221.0000
 20
 354.1400
 11
1215.1400
 21
 360.0000
  0
LINE
  8
200
  6
AUSGEZOGEN
 10
1215.1400
 20
 340.0000
 11
1221.0000
 21
 345.8600
  0
LINE
  8
200
  6
AUSGEZOGEN
 10
1231.0000
 20
 345.8600
 11
1236.8600
 21
 340.0000
  0
LINE
  8
200
  6
AUSGEZOGEN
 10
1236.8600
 20
 360.0000
 11
1231.0000
 21
 354.1400
  0
LINE
  8
200
  6
AUSGEZOGEN
 10
1251.0000
 20
 354.1400
 11
1245.1400
 21
 360.0000
  0
LINE
  8
200
  6
AUSGEZOGEN
 10
1245.1400
 20
 340.0000
 11
1251.0000
 21
 345.8600
  0
LINE
  8
200
  6
AUSGEZOGEN
 10
1261.0000
 20
 345.8600
 11
1266.8600
 21
 340.0000
  0
LINE
  8
200
  6
AUSGEZOGEN
 10
1266.8600
 20
 360.0000
 11
1261.0000
 21
 354.1400
  0
LINE
  8
200
  6
AUSGEZOGEN
 10
1281.0000
 20
 354.1400
 11
1275.1400
 21
 360.0000
  0
LINE
  8
200
  6
AUSGEZOGEN
 10
1275.1400
 20
 340.0000
 11
1281.0000
 21
 345.8600
  0
LINE
  8
200
  6
AUSGEZOGEN
 10
1291.0000
 20
 345.8600
 11
1296.8600
 21
 340.0000
  0
LINE
  8
200
  6
AUSGEZOGEN
 10
1296.8600
 20
 360.0000
 11
1291.0000
 21
 354.1400
  0
LINE
  8
200
  6
AUSGEZOGEN
 10
1311.0000
 20
 354.1400
 11
1305.1400
 21
 360.0000
  0
LINE
  8
200
  6
AUSGEZOGEN
 10
1305.1400
 20
 340.0000
 11
1311.0000
 21
 345.8600
  0
LINE
  8
200
  6
AUSGEZOGEN
 10
1321.0000
 20
 345.8600
 11
1326.8600
 21
 340.0000
  0
LINE
  8
200
  6
AUSGEZOGEN
 10
1326.8600
 20
 360.0000
 11
1321.0000
 21
 354.1400
  0
LINE
  8
200
  6
AUSGEZOGEN
 10
1341.0000
 20
 354.1400
 11
1335.1400
 21
 360.0000
  0
LINE
  8
200
  6
AUSGEZOGEN
 10
1335.1400
 20
 340.0000
 11
1341.0000
 21
 345.8600
  0
LINE
  8
200
  6
AUSGEZOGEN
 10
1351.0000
 20
 345.8600
 11
1356.8600
 21
 340.0000
  0
LINE
  8
200
  6
AUSGEZOGEN
 10
1356.8600
 20
 360.0000
 11
1351.0000
 21
 354.1400
  0
LINE
  8
200
  6
AUSGEZOGEN
 10
1371.0000
 20
 354.1400
 11
1365.1400
 21
 360.0000
  0
LINE
  8
200
  6
AUSGEZOGEN
 10
1365.1400
 20
 340.0000
 11
1371.0000
 21
 345.8600
  0
LINE
  8
200
  6
AUSGEZOGEN
 10
1381.0000
 20
 345.8600
 11
1386.8600
 21
 340.0000
  0
LINE
  8
200
  6
AUSGEZOGEN
 10
1386.8600
 20
 360.0000
 11
1381.0000
 21
 354.1400
  0
LINE
  8
200
  6
AUSGEZOGEN
 10
1401.0000
 20
 354.1400
 11
1395.1400
 21
 360.0000
  0
LINE
  8
200
  6
AUSGEZOGEN
 10
1395.1400
 20
 340.0000
 11
1401.0000
 21
 345.8600
  0
LINE
  8
200
  6
AUSGEZOGEN
 10
1411.0000
 20
 345.8600
 11
1416.8600
 21
 340.0000
  0
LINE
  8
200
  6
AUSGEZOGEN
 10
1416.8600
 20
 360.0000
 11
1411.0000
 21
 354.1400
  0
LINE
  8
200
  6
AUSGEZOGEN
 10
1431.0000
 20
 354.1400
 11
1425.1400
 21
 360.0000
  0
LINE
  8
200
  6
AUSGEZOGEN
 10
1425.1400
 20
 340.0000
 11
1431.0000
 21
 345.8600
  0
LINE
  8
200
  6
AUSGEZOGEN
 10
1441.0000
 20
 345.8600
 11
1446.8600
 21
 340.0000
  0
LINE
  8
200
  6
AUSGEZOGEN
 10
1446.8600
 20
 360.0000
 11
1441.0000
 21
 354.1400
  0
LINE
  8
200
  6
AUSGEZOGEN
 10
1461.0000
 20
 354.1400
 11
1455.1400
 21
 360.0000
  0
LINE
  8
200
  6
AUSGEZOGEN
 10
1455.1400
 20
 340.0000
 11
1461.0000
 21
 345.8600
  0
LINE
  8
200
  6
AUSGEZOGEN
 10
1471.0000
 20
 345.8600
 11
1476.8600
 21
 340.0000
  0
LINE
  8
200
  6
AUSGEZOGEN
 10
1476.8600
 20
 360.0000
 11
1471.0000
 21
 354.1400
  0
LINE
  8
200
  6
AUSGEZOGEN
 10
1491.0000
 20
 354.1400
 11
1485.1400
 21
 360.0000
  0
LINE
  8
200
  6
AUSGEZOGEN
 10
1485.1400
 20
 340.0000
 11
1491.0000
 21
 345.8600
  0
LINE
  8
200
  6
AUSGEZOGEN
 10
1501.0000
 20
 345.8600
 11
1506.8600
 21
 340.0000
  0
LINE
  8
200
  6
AUSGEZOGEN
 10
1506.8600
 20
 360.0000
 11
1501.0000
 21
 354.1400
  0
LINE
  8
200
  6
AUSGEZOGEN
 10
1521.0000
 20
 354.1400
 11
1515.1400
 21
 360.0000
  0
LINE
  8
200
  6
AUSGEZOGEN
 10
1515.1400
 20
 340.0000
 11
1521.0000
 21
 345.8600
  0
LINE
  8
200
  6
AUSGEZOGEN
 10
1531.0000
 20
 345.8600
 11
1536.8600
 21
 340.0000
  0
LINE
  8
200
  6
AUSGEZOGEN
 10
1536.8600
 20
 360.0000
 11
1531.0000
 21
 354.1400
  0
LINE
  8
200
  6
AUSGEZOGEN
 10
1551.0000
 20
 354.1400
 11
1545.1400
 21
 360.0000
  0
LINE
  8
200
  6
AUSGEZOGEN
 10
1545.1400
 20
 340.0000
 11
1551.0000
 21
 345.8600
  0
LINE
  8
200
  6
AUSGEZOGEN
 10
1471.0000
 20
 315.8600
 11
1476.8600
 21
 310.0000
  0
LINE
  8
200
  6
AUSGEZOGEN
 10
 601.0000
 20
 255.8600
 11
 606.8600
 21
 250.0000
  0
LINE
  8
200
  6
AUSGEZOGEN
 10
 606.8600
 20
 270.0000
 11
 601.0000
 21
 264.1400
  0
LINE
  8
200
  6
AUSGEZOGEN
 10
 621.0000
 20
 264.1400
 11
 615.1400
 21
 270.0000
  0
LINE
  8
200
  6
AUSGEZOGEN
 10
 615.1400
 20
 250.0000
 11
 621.0000
 21
 255.8600
  0
LINE
  8
200
  6
AUSGEZOGEN
 10
 636.8600
 20
 220.0000
 11
 631.0000
 21
 225.8600
  0
LINE
  8
200
  6
AUSGEZOGEN
 10
 636.8600
 20
 240.0000
 11
 631.0000
 21
 234.1400
  0
LINE
  8
200
  6
AUSGEZOGEN
 10
 651.0000
 20
 234.1400
 11
 645.1400
 21
 240.0000
  0
LINE
  8
200
  6
AUSGEZOGEN
 10
 645.1400
 20
 220.0000
 11
 651.0000
 21
 225.8600
  0
LINE
  8
200
  6
AUSGEZOGEN
 10
 661.0000
 20
 225.8600
 11
 666.8600
 21
 220.0000
  0
LINE
  8
200
  6
AUSGEZOGEN
 10
 666.8600
 20
 240.0000
 11
 661.0000
 21
 234.1400
  0
LINE
  8
200
  6
AUSGEZOGEN
 10
 681.0000
 20
 234.1400
 11
 675.1400
 21
 240.0000
  0
LINE
  8
200
  6
AUSGEZOGEN
 10
 675.1400
 20
 220.0000
 11
 681.0000
 21
 225.8600
  0
LINE
  8
200
  6
AUSGEZOGEN
 10
 691.0000
 20
 225.8600
 11
 696.8600
 21
 220.0000
  0
LINE
  8
200
  6
AUSGEZOGEN
 10
 696.8600
 20
 240.0000
 11
 691.0000
 21
 234.1400
  0
LINE
  8
200
  6
AUSGEZOGEN
 10
 711.0000
 20
 234.1400
 11
 705.1400
 21
 240.0000
  0
LINE
  8
200
  6
AUSGEZOGEN
 10
 705.1400
 20
 220.0000
 11
 711.0000
 21
 225.8600
  0
LINE
  8
200
  6
AUSGEZOGEN
 10
 721.0000
 20
 225.8600
 11
 726.8600
 21
 220.0000
  0
LINE
  8
200
  6
AUSGEZOGEN
 10
 726.8600
 20
 240.0000
 11
 721.0000
 21
 234.1400
  0
LINE
  8
200
  6
AUSGEZOGEN
 10
 741.0000
 20
 234.1400
 11
 735.1400
 21
 240.0000
  0
LINE
  8
200
  6
AUSGEZOGEN
 10
 735.1400
 20
 220.0000
 11
 741.0000
 21
 225.8600
  0
LINE
  8
200
  6
AUSGEZOGEN
 10
 751.0000
 20
 225.8600
 11
 756.8600
 21
 220.0000
  0
LINE
  8
200
  6
AUSGEZOGEN
 10
 756.8600
 20
 240.0000
 11
 751.0000
 21
 234.1400
  0
LINE
  8
200
  6
AUSGEZOGEN
 10
 771.0000
 20
 234.1400
 11
 765.1400
 21
 240.0000
  0
LINE
  8
200
  6
AUSGEZOGEN
 10
 765.1400
 20
 220.0000
 11
 771.0000
 21
 225.8600
  0
LINE
  8
200
  6
AUSGEZOGEN
 10
 781.0000
 20
 225.8600
 11
 786.8600
 21
 220.0000
  0
LINE
  8
200
  6
AUSGEZOGEN
 10
 786.8600
 20
 240.0000
 11
 781.0000
 21
 234.1400
  0
LINE
  8
200
  6
AUSGEZOGEN
 10
 801.0000
 20
 234.1400
 11
 795.1400
 21
 240.0000
  0
LINE
  8
200
  6
AUSGEZOGEN
 10
 795.1400
 20
 220.0000
 11
 801.0000
 21
 225.8600
  0
LINE
  8
200
  6
AUSGEZOGEN
 10
 811.0000
 20
 225.8600
 11
 816.8600
 21
 220.0000
  0
LINE
  8
200
  6
AUSGEZOGEN
 10
 816.8600
 20
 240.0000
 11
 811.0000
 21
 234.1400
  0
LINE
  8
200
  6
AUSGEZOGEN
 10
 831.0000
 20
 234.1400
 11
 825.1400
 21
 240.0000
  0
LINE
  8
200
  6
AUSGEZOGEN
 10
 825.1400
 20
 220.0000
 11
 831.0000
 21
 225.8600
  0
LINE
  8
200
  6
AUSGEZOGEN
 10
 841.0000
 20
 225.8600
 11
 846.8600
 21
 220.0000
  0
LINE
  8
200
  6
AUSGEZOGEN
 10
 846.8600
 20
 240.0000
 11
 841.0000
 21
 234.1400
  0
LINE
  8
200
  6
AUSGEZOGEN
 10
 861.0000
 20
 234.1400
 11
 855.1400
 21
 240.0000
  0
LINE
  8
200
  6
AUSGEZOGEN
 10
 855.1400
 20
 220.0000
 11
 861.0000
 21
 225.8600
  0
LINE
  8
200
  6
AUSGEZOGEN
 10
 871.0000
 20
 225.8600
 11
 876.8600
 21
 220.0000
  0
LINE
  8
200
  6
AUSGEZOGEN
 10
 876.8600
 20
 240.0000
 11
 871.0000
 21
 234.1400
  0
LINE
  8
200
  6
AUSGEZOGEN
 10
 891.0000
 20
 234.1400
 11
 885.1400
 21
 240.0000
  0
LINE
  8
200
  6
AUSGEZOGEN
 10
 885.1400
 20
 220.0000
 11
 891.0000
 21
 225.8600
  0
LINE
  8
200
  6
AUSGEZOGEN
 10
 901.0000
 20
 225.8600
 11
 906.8600
 21
 220.0000
  0
LINE
  8
200
  6
AUSGEZOGEN
 10
 906.8600
 20
 240.0000
 11
 901.0000
 21
 234.1400
  0
LINE
  8
200
  6
AUSGEZOGEN
 10
 921.0000
 20
 234.1400
 11
 915.1400
 21
 240.0000
  0
LINE
  8
200
  6
AUSGEZOGEN
 10
 915.1400
 20
 220.0000
 11
 921.0000
 21
 225.8600
  0
LINE
  8
200
  6
AUSGEZOGEN
 10
 931.0000
 20
 225.8600
 11
 936.8600
 21
 220.0000
  0
LINE
  8
200
  6
AUSGEZOGEN
 10
 936.8600
 20
 240.0000
 11
 931.0000
 21
 234.1400
  0
LINE
  8
200
  6
AUSGEZOGEN
 10
 951.0000
 20
 234.1400
 11
 945.1400
 21
 240.0000
  0
LINE
  8
200
  6
AUSGEZOGEN
 10
 945.1400
 20
 220.0000
 11
 951.0000
 21
 225.8600
  0
LINE
  8
200
  6
AUSGEZOGEN
 10
 961.0000
 20
 225.8600
 11
 966.8600
 21
 220.0000
  0
LINE
  8
200
  6
AUSGEZOGEN
 10
 966.8600
 20
 240.0000
 11
 961.0000
 21
 234.1400
  0
LINE
  8
200
  6
AUSGEZOGEN
 10
 981.0000
 20
 234.1400
 11
 975.1400
 21
 240.0000
  0
LINE
  8
200
  6
AUSGEZOGEN
 10
 975.1400
 20
 220.0000
 11
 981.0000
 21
 225.8600
  0
LINE
  8
200
  6
AUSGEZOGEN
 10
 991.0000
 20
 225.8600
 11
 996.8600
 21
 220.0000
  0
LINE
  8
200
  6
AUSGEZOGEN
 10
 996.8600
 20
 240.0000
 11
 991.0000
 21
 234.1400
  0
LINE
  8
200
  6
AUSGEZOGEN
 10
1011.0000
 20
 234.1400
 11
1005.1400
 21
 240.0000
  0
LINE
  8
200
  6
AUSGEZOGEN
 10
1005.1400
 20
 220.0000
 11
1011.0000
 21
 225.8600
  0
LINE
  8
200
  6
AUSGEZOGEN
 10
1021.0000
 20
 225.8600
 11
1026.8600
 21
 220.0000
  0
LINE
  8
200
  6
AUSGEZOGEN
 10
1026.8600
 20
 240.0000
 11
1021.0000
 21
 234.1400
  0
LINE
  8
200
  6
AUSGEZOGEN
 10
1041.0000
 20
 234.1400
 11
1035.1400
 21
 240.0000
  0
LINE
  8
200
  6
AUSGEZOGEN
 10
1035.1400
 20
 220.0000
 11
1041.0000
 21
 225.8600
  0
LINE
  8
200
  6
AUSGEZOGEN
 10
 631.0000
 20
 195.8600
 11
 636.8600
 21
 190.0000
  0
LINE
  8
200
  6
AUSGEZOGEN
 10
 636.8600
 20
 210.0000
 11
 631.0000
 21
 204.1400
  0
LINE
  8
200
  6
AUSGEZOGEN
 10
 651.0000
 20
 204.1400
 11
 645.1400
 21
 210.0000
  0
LINE
  8
200
  6
AUSGEZOGEN
 10
 645.1400
 20
 190.0000
 11
 651.0000
 21
 195.8600
  0
LINE
  8
200
  6
AUSGEZOGEN
 10
 661.0000
 20
 195.8600
 11
 666.8600
 21
 190.0000
  0
LINE
  8
200
  6
AUSGEZOGEN
 10
 666.8600
 20
 210.0000
 11
 661.0000
 21
 204.1400
  0
LINE
  8
200
  6
AUSGEZOGEN
 10
 681.0000
 20
 204.1400
 11
 675.1400
 21
 210.0000
  0
LINE
  8
200
  6
AUSGEZOGEN
 10
 675.1400
 20
 190.0000
 11
 681.0000
 21
 195.8600
  0
LINE
  8
200
  6
AUSGEZOGEN
 10
 691.0000
 20
 195.8600
 11
 696.8600
 21
 190.0000
  0
LINE
  8
200
  6
AUSGEZOGEN
 10
 696.8600
 20
 210.0000
 11
 691.0000
 21
 204.1400
  0
LINE
  8
200
  6
AUSGEZOGEN
 10
 711.0000
 20
 204.1400
 11
 705.1400
 21
 210.0000
  0
LINE
  8
200
  6
AUSGEZOGEN
 10
 705.1400
 20
 190.0000
 11
 711.0000
 21
 195.8600
  0
LINE
  8
200
  6
AUSGEZOGEN
 10
 721.0000
 20
 195.8600
 11
 726.8600
 21
 190.0000
  0
LINE
  8
200
  6
AUSGEZOGEN
 10
 726.8600
 20
 210.0000
 11
 721.0000
 21
 204.1400
  0
LINE
  8
200
  6
AUSGEZOGEN
 10
 741.0000
 20
 204.1400
 11
 735.1400
 21
 210.0000
  0
LINE
  8
200
  6
AUSGEZOGEN
 10
 735.1400
 20
 190.0000
 11
 741.0000
 21
 195.8600
  0
LINE
  8
200
  6
AUSGEZOGEN
 10
 751.0000
 20
 195.8600
 11
 756.8600
 21
 190.0000
  0
LINE
  8
200
  6
AUSGEZOGEN
 10
 756.8600
 20
 210.0000
 11
 751.0000
 21
 204.1400
  0
LINE
  8
200
  6
AUSGEZOGEN
 10
 771.0000
 20
 204.1400
 11
 765.1400
 21
 210.0000
  0
LINE
  8
200
  6
AUSGEZOGEN
 10
 765.1400
 20
 190.0000
 11
 771.0000
 21
 195.8600
  0
LINE
  8
200
  6
AUSGEZOGEN
 10
 781.0000
 20
 195.8600
 11
 786.8600
 21
 190.0000
  0
LINE
  8
200
  6
AUSGEZOGEN
 10
 786.8600
 20
 210.0000
 11
 781.0000
 21
 204.1400
  0
LINE
  8
200
  6
AUSGEZOGEN
 10
 801.0000
 20
 204.1400
 11
 795.1400
 21
 210.0000
  0
LINE
  8
200
  6
AUSGEZOGEN
 10
 795.1400
 20
 190.0000
 11
 801.0000
 21
 195.8600
  0
LINE
  8
200
  6
AUSGEZOGEN
 10
 811.0000
 20
 195.8600
 11
 816.8600
 21
 190.0000
  0
LINE
  8
200
  6
AUSGEZOGEN
 10
 816.8600
 20
 210.0000
 11
 811.0000
 21
 204.1400
  0
LINE
  8
200
  6
AUSGEZOGEN
 10
 831.0000
 20
 204.1400
 11
 825.1400
 21
 210.0000
  0
LINE
  8
200
  6
AUSGEZOGEN
 10
 825.1400
 20
 190.0000
 11
 831.0000
 21
 195.8600
  0
LINE
  8
200
  6
AUSGEZOGEN
 10
 841.0000
 20
 195.8600
 11
 846.8600
 21
 190.0000
  0
LINE
  8
200
  6
AUSGEZOGEN
 10
 846.8600
 20
 210.0000
 11
 841.0000
 21
 204.1400
  0
LINE
  8
200
  6
AUSGEZOGEN
 10
 861.0000
 20
 204.1400
 11
 855.1400
 21
 210.0000
  0
LINE
  8
200
  6
AUSGEZOGEN
 10
 855.1400
 20
 190.0000
 11
 861.0000
 21
 195.8600
  0
LINE
  8
200
  6
AUSGEZOGEN
 10
 871.0000
 20
 195.8600
 11
 876.8600
 21
 190.0000
  0
LINE
  8
200
  6
AUSGEZOGEN
 10
 876.8600
 20
 210.0000
 11
 871.0000
 21
 204.1400
  0
LINE
  8
200
  6
AUSGEZOGEN
 10
 891.0000
 20
 204.1400
 11
 885.1400
 21
 210.0000
  0
LINE
  8
200
  6
AUSGEZOGEN
 10
 885.1400
 20
 190.0000
 11
 891.0000
 21
 195.8600
  0
LINE
  8
200
  6
AUSGEZOGEN
 10
 901.0000
 20
 195.8600
 11
 906.8600
 21
 190.0000
  0
LINE
  8
200
  6
AUSGEZOGEN
 10
 906.8600
 20
 210.0000
 11
 901.0000
 21
 204.1400
  0
LINE
  8
200
  6
AUSGEZOGEN
 10
 921.0000
 20
 204.1400
 11
 915.1400
 21
 210.0000
  0
LINE
  8
200
  6
AUSGEZOGEN
 10
 915.1400
 20
 190.0000
 11
 921.0000
 21
 195.8600
  0
LINE
  8
200
  6
AUSGEZOGEN
 10
 931.0000
 20
 195.8600
 11
 936.8600
 21
 190.0000
  0
LINE
  8
200
  6
AUSGEZOGEN
 10
 936.8600
 20
 210.0000
 11
 931.0000
 21
 204.1400
  0
LINE
  8
200
  6
AUSGEZOGEN
 10
 951.0000
 20
 204.1400
 11
 945.1400
 21
 210.0000
  0
LINE
  8
200
  6
AUSGEZOGEN
 10
 945.1400
 20
 190.0000
 11
 951.0000
 21
 195.8600
  0
LINE
  8
200
  6
AUSGEZOGEN
 10
 961.0000
 20
 195.8600
 11
 966.8600
 21
 190.0000
  0
LINE
  8
200
  6
AUSGEZOGEN
 10
 966.8600
 20
 210.0000
 11
 961.0000
 21
 204.1400
  0
LINE
  8
200
  6
AUSGEZOGEN
 10
 981.0000
 20
 204.1400
 11
 975.1400
 21
 210.0000
  0
LINE
  8
200
  6
AUSGEZOGEN
 10
 975.1400
 20
 190.0000
 11
 981.0000
 21
 195.8600
  0
LINE
  8
200
  6
AUSGEZOGEN
 10
 991.0000
 20
 195.8600
 11
 996.8600
 21
 190.0000
  0
LINE
  8
200
  6
AUSGEZOGEN
 10
 996.8600
 20
 210.0000
 11
 991.0000
 21
 204.1400
  0
LINE
  8
200
  6
AUSGEZOGEN
 10
1011.0000
 20
 204.1400
 11
1005.1400
 21
 210.0000
  0
LINE
  8
200
  6
AUSGEZOGEN
 10
1005.1400
 20
 190.0000
 11
1011.0000
 21
 195.8600
  0
LINE
  8
200
  6
AUSGEZOGEN
 10
1021.0000
 20
 195.8600
 11
1026.8600
 21
 190.0000
  0
LINE
  8
200
  6
AUSGEZOGEN
 10
1026.8600
 20
 210.0000
 11
1021.0000
 21
 204.1400
  0
LINE
  8
200
  6
AUSGEZOGEN
 10
1041.0000
 20
 204.1400
 11
1035.1400
 21
 210.0000
  0
LINE
  8
200
  6
AUSGEZOGEN
 10
1035.1400
 20
 190.0000
 11
1041.0000
 21
 195.8600
  0
LINE
  8
200
  6
AUSGEZOGEN
 10
 631.0000
 20
 165.8600
 11
 636.8600
 21
 160.0000
  0
LINE
  8
200
  6
AUSGEZOGEN
 10
 636.8600
 20
 180.0000
 11
 631.0000
 21
 174.1400
  0
LINE
  8
200
  6
AUSGEZOGEN
 10
 651.0000
 20
 174.1400
 11
 645.1400
 21
 180.0000
  0
LINE
  8
200
  6
AUSGEZOGEN
 10
 645.1400
 20
 160.0000
 11
 651.0000
 21
 165.8600
  0
LINE
  8
200
  6
AUSGEZOGEN
 10
 661.0000
 20
 165.8600
 11
 666.8600
 21
 160.0000
  0
LINE
  8
200
  6
AUSGEZOGEN
 10
 666.8600
 20
 180.0000
 11
 661.0000
 21
 174.1400
  0
LINE
  8
200
  6
AUSGEZOGEN
 10
 681.0000
 20
 174.1400
 11
 675.1400
 21
 180.0000
  0
LINE
  8
200
  6
AUSGEZOGEN
 10
 675.1400
 20
 160.0000
 11
 681.0000
 21
 165.8600
  0
LINE
  8
200
  6
AUSGEZOGEN
 10
 691.0000
 20
 165.8600
 11
 696.8600
 21
 160.0000
  0
LINE
  8
200
  6
AUSGEZOGEN
 10
 696.8600
 20
 180.0000
 11
 691.0000
 21
 174.1400
  0
LINE
  8
200
  6
AUSGEZOGEN
 10
 711.0000
 20
 174.1400
 11
 705.1400
 21
 180.0000
  0
LINE
  8
200
  6
AUSGEZOGEN
 10
 705.1400
 20
 160.0000
 11
 711.0000
 21
 165.8600
  0
LINE
  8
200
  6
AUSGEZOGEN
 10
 721.0000
 20
 165.8600
 11
 726.8600
 21
 160.0000
  0
LINE
  8
200
  6
AUSGEZOGEN
 10
 726.8600
 20
 180.0000
 11
 721.0000
 21
 174.1400
  0
LINE
  8
200
  6
AUSGEZOGEN
 10
 741.0000
 20
 174.1400
 11
 735.1400
 21
 180.0000
  0
LINE
  8
200
  6
AUSGEZOGEN
 10
 735.1400
 20
 160.0000
 11
 741.0000
 21
 165.8600
  0
LINE
  8
200
  6
AUSGEZOGEN
 10
 751.0000
 20
 165.8600
 11
 756.8600
 21
 160.0000
  0
LINE
  8
200
  6
AUSGEZOGEN
 10
 756.8600
 20
 180.0000
 11
 751.0000
 21
 174.1400
  0
LINE
  8
200
  6
AUSGEZOGEN
 10
 771.0000
 20
 174.1400
 11
 765.1400
 21
 180.0000
  0
LINE
  8
200
  6
AUSGEZOGEN
 10
 765.1400
 20
 160.0000
 11
 771.0000
 21
 165.8600
  0
LINE
  8
200
  6
AUSGEZOGEN
 10
 781.0000
 20
 165.8600
 11
 786.8600
 21
 160.0000
  0
LINE
  8
200
  6
AUSGEZOGEN
 10
 786.8600
 20
 180.0000
 11
 781.0000
 21
 174.1400
  0
LINE
  8
200
  6
AUSGEZOGEN
 10
 801.0000
 20
 174.1400
 11
 795.1400
 21
 180.0000
  0
LINE
  8
200
  6
AUSGEZOGEN
 10
 795.1400
 20
 160.0000
 11
 801.0000
 21
 165.8600
  0
LINE
  8
200
  6
AUSGEZOGEN
 10
 811.0000
 20
 165.8600
 11
 816.8600
 21
 160.0000
  0
LINE
  8
200
  6
AUSGEZOGEN
 10
 816.8600
 20
 180.0000
 11
 811.0000
 21
 174.1400
  0
LINE
  8
200
  6
AUSGEZOGEN
 10
 831.0000
 20
 174.1400
 11
 825.1400
 21
 180.0000
  0
LINE
  8
200
  6
AUSGEZOGEN
 10
 825.1400
 20
 160.0000
 11
 831.0000
 21
 165.8600
  0
LINE
  8
200
  6
AUSGEZOGEN
 10
 841.0000
 20
 165.8600
 11
 846.8600
 21
 160.0000
  0
LINE
  8
200
  6
AUSGEZOGEN
 10
 846.8600
 20
 180.0000
 11
 841.0000
 21
 174.1400
  0
LINE
  8
200
  6
AUSGEZOGEN
 10
 861.0000
 20
 174.1400
 11
 855.1400
 21
 180.0000
  0
LINE
  8
200
  6
AUSGEZOGEN
 10
 855.1400
 20
 160.0000
 11
 861.0000
 21
 165.8600
  0
LINE
  8
200
  6
AUSGEZOGEN
 10
 871.0000
 20
 165.8600
 11
 876.8600
 21
 160.0000
  0
LINE
  8
200
  6
AUSGEZOGEN
 10
 876.8600
 20
 180.0000
 11
 871.0000
 21
 174.1400
  0
LINE
  8
200
  6
AUSGEZOGEN
 10
 891.0000
 20
 174.1400
 11
 885.1400
 21
 180.0000
  0
LINE
  8
200
  6
AUSGEZOGEN
 10
 885.1400
 20
 160.0000
 11
 891.0000
 21
 165.8600
  0
LINE
  8
200
  6
AUSGEZOGEN
 10
 901.0000
 20
 165.8600
 11
 906.8600
 21
 160.0000
  0
LINE
  8
200
  6
AUSGEZOGEN
 10
 906.8600
 20
 180.0000
 11
 901.0000
 21
 174.1400
  0
LINE
  8
200
  6
AUSGEZOGEN
 10
 921.0000
 20
 174.1400
 11
 915.1400
 21
 180.0000
  0
LINE
  8
200
  6
AUSGEZOGEN
 10
 915.1400
 20
 160.0000
 11
 921.0000
 21
 165.8600
  0
LINE
  8
200
  6
AUSGEZOGEN
 10
 931.0000
 20
 165.8600
 11
 936.8600
 21
 160.0000
  0
LINE
  8
200
  6
AUSGEZOGEN
 10
 936.8600
 20
 180.0000
 11
 931.0000
 21
 174.1400
  0
LINE
  8
200
  6
AUSGEZOGEN
 10
 951.0000
 20
 174.1400
 11
 945.1400
 21
 180.0000
  0
LINE
  8
200
  6
AUSGEZOGEN
 10
 945.1400
 20
 160.0000
 11
 951.0000
 21
 165.8600
  0
LINE
  8
200
  6
AUSGEZOGEN
 10
 961.0000
 20
 165.8600
 11
 966.8600
 21
 160.0000
  0
LINE
  8
200
  6
AUSGEZOGEN
 10
 966.8600
 20
 180.0000
 11
 961.0000
 21
 174.1400
  0
LINE
  8
200
  6
AUSGEZOGEN
 10
 981.0000
 20
 174.1400
 11
 975.1400
 21
 180.0000
  0
LINE
  8
200
  6
AUSGEZOGEN
 10
 975.1400
 20
 160.0000
 11
 981.0000
 21
 165.8600
  0
LINE
  8
200
  6
AUSGEZOGEN
 10
 991.0000
 20
 165.8600
 11
 996.8600
 21
 160.0000
  0
LINE
  8
200
  6
AUSGEZOGEN
 10
 996.8600
 20
 180.0000
 11
 991.0000
 21
 174.1400
  0
LINE
  8
200
  6
AUSGEZOGEN
 10
1011.0000
 20
 174.1400
 11
1005.1400
 21
 180.0000
  0
LINE
  8
200
  6
AUSGEZOGEN
 10
1005.1400
 20
 160.0000
 11
1011.0000
 21
 165.8600
  0
LINE
  8
200
  6
AUSGEZOGEN
 10
1021.0000
 20
 165.8600
 11
1026.8600
 21
 160.0000
  0
LINE
  8
200
  6
AUSGEZOGEN
 10
1026.8600
 20
 180.0000
 11
1021.0000
 21
 174.1400
  0
LINE
  8
200
  6
AUSGEZOGEN
 10
1041.0000
 20
 174.1400
 11
1035.1400
 21
 180.0000
  0
LINE
  8
200
  6
AUSGEZOGEN
 10
1035.1400
 20
 160.0000
 11
1041.0000
 21
 165.8600
  0
LINE
  8
200
  6
AUSGEZOGEN
 10
 631.0000
 20
 135.8600
 11
 636.8600
 21
 130.0000
  0
LINE
  8
200
  6
AUSGEZOGEN
 10
 636.8600
 20
 150.0000
 11
 631.0000
 21
 144.1400
  0
LINE
  8
200
  6
AUSGEZOGEN
 10
 651.0000
 20
 144.1400
 11
 645.1400
 21
 150.0000
  0
LINE
  8
200
  6
AUSGEZOGEN
 10
 645.1400
 20
 130.0000
 11
 651.0000
 21
 135.8600
  0
LINE
  8
200
  6
AUSGEZOGEN
 10
 661.0000
 20
 135.8600
 11
 666.8600
 21
 130.0000
  0
LINE
  8
200
  6
AUSGEZOGEN
 10
 666.8600
 20
 150.0000
 11
 661.0000
 21
 144.1400
  0
LINE
  8
200
  6
AUSGEZOGEN
 10
 681.0000
 20
 144.1400
 11
 675.1400
 21
 150.0000
  0
LINE
  8
200
  6
AUSGEZOGEN
 10
 675.1400
 20
 130.0000
 11
 681.0000
 21
 135.8600
  0
LINE
  8
200
  6
AUSGEZOGEN
 10
 691.0000
 20
 135.8600
 11
 696.8600
 21
 130.0000
  0
LINE
  8
200
  6
AUSGEZOGEN
 10
 696.8600
 20
 150.0000
 11
 691.0000
 21
 144.1400
  0
LINE
  8
200
  6
AUSGEZOGEN
 10
 711.0000
 20
 144.1400
 11
 705.1400
 21
 150.0000
  0
LINE
  8
200
  6
AUSGEZOGEN
 10
 705.1400
 20
 130.0000
 11
 711.0000
 21
 135.8600
  0
LINE
  8
200
  6
AUSGEZOGEN
 10
 721.0000
 20
 135.8600
 11
 726.8600
 21
 130.0000
  0
LINE
  8
200
  6
AUSGEZOGEN
 10
 726.8600
 20
 150.0000
 11
 721.0000
 21
 144.1400
  0
LINE
  8
200
  6
AUSGEZOGEN
 10
 741.0000
 20
 144.1400
 11
 735.1400
 21
 150.0000
  0
LINE
  8
200
  6
AUSGEZOGEN
 10
 735.1400
 20
 130.0000
 11
 741.0000
 21
 135.8600
  0
LINE
  8
200
  6
AUSGEZOGEN
 10
 751.0000
 20
 135.8600
 11
 756.8600
 21
 130.0000
  0
LINE
  8
200
  6
AUSGEZOGEN
 10
 756.8600
 20
 150.0000
 11
 751.0000
 21
 144.1400
  0
LINE
  8
200
  6
AUSGEZOGEN
 10
 771.0000
 20
 144.1400
 11
 765.1400
 21
 150.0000
  0
LINE
  8
200
  6
AUSGEZOGEN
 10
 765.1400
 20
 130.0000
 11
 771.0000
 21
 135.8600
  0
LINE
  8
200
  6
AUSGEZOGEN
 10
 781.0000
 20
 135.8600
 11
 786.8600
 21
 130.0000
  0
LINE
  8
200
  6
AUSGEZOGEN
 10
 786.8600
 20
 150.0000
 11
 781.0000
 21
 144.1400
  0
LINE
  8
200
  6
AUSGEZOGEN
 10
 801.0000
 20
 144.1400
 11
 795.1400
 21
 150.0000
  0
LINE
  8
200
  6
AUSGEZOGEN
 10
 795.1400
 20
 130.0000
 11
 801.0000
 21
 135.8600
  0
LINE
  8
200
  6
AUSGEZOGEN
 10
 811.0000
 20
 135.8600
 11
 816.8600
 21
 130.0000
  0
LINE
  8
200
  6
AUSGEZOGEN
 10
 816.8600
 20
 150.0000
 11
 811.0000
 21
 144.1400
  0
LINE
  8
200
  6
AUSGEZOGEN
 10
 831.0000
 20
 144.1400
 11
 825.1400
 21
 150.0000
  0
LINE
  8
200
  6
AUSGEZOGEN
 10
 825.1400
 20
 130.0000
 11
 831.0000
 21
 135.8600
  0
LINE
  8
200
  6
AUSGEZOGEN
 10
 841.0000
 20
 135.8600
 11
 846.8600
 21
 130.0000
  0
LINE
  8
200
  6
AUSGEZOGEN
 10
 846.8600
 20
 150.0000
 11
 841.0000
 21
 144.1400
  0
LINE
  8
200
  6
AUSGEZOGEN
 10
 861.0000
 20
 144.1400
 11
 855.1400
 21
 150.0000
  0
LINE
  8
200
  6
AUSGEZOGEN
 10
 855.1400
 20
 130.0000
 11
 861.0000
 21
 135.8600
  0
LINE
  8
200
  6
AUSGEZOGEN
 10
 871.0000
 20
 135.8600
 11
 876.8600
 21
 130.0000
  0
LINE
  8
200
  6
AUSGEZOGEN
 10
 876.8600
 20
 150.0000
 11
 871.0000
 21
 144.1400
  0
LINE
  8
200
  6
AUSGEZOGEN
 10
 891.0000
 20
 144.1400
 11
 885.1400
 21
 150.0000
  0
LINE
  8
200
  6
AUSGEZOGEN
 10
 885.1400
 20
 130.0000
 11
 891.0000
 21
 135.8600
  0
LINE
  8
200
  6
AUSGEZOGEN
 10
 901.0000
 20
 135.8600
 11
 906.8600
 21
 130.0000
  0
LINE
  8
200
  6
AUSGEZOGEN
 10
 906.8600
 20
 150.0000
 11
 901.0000
 21
 144.1400
  0
LINE
  8
200
  6
AUSGEZOGEN
 10
 921.0000
 20
 144.1400
 11
 915.1400
 21
 150.0000
  0
LINE
  8
200
  6
AUSGEZOGEN
 10
 915.1400
 20
 130.0000
 11
 921.0000
 21
 135.8600
  0
LINE
  8
200
  6
AUSGEZOGEN
 10
 931.0000
 20
 135.8600
 11
 936.8600
 21
 130.0000
  0
LINE
  8
200
  6
AUSGEZOGEN
 10
 936.8600
 20
 150.0000
 11
 931.0000
 21
 144.1400
  0
LINE
  8
200
  6
AUSGEZOGEN
 10
 951.0000
 20
 144.1400
 11
 945.1400
 21
 150.0000
  0
LINE
  8
200
  6
AUSGEZOGEN
 10
 945.1400
 20
 130.0000
 11
 951.0000
 21
 135.8600
  0
LINE
  8
200
  6
AUSGEZOGEN
 10
 961.0000
 20
 135.8600
 11
 966.8600
 21
 130.0000
  0
LINE
  8
200
  6
AUSGEZOGEN
 10
 966.8600
 20
 150.0000
 11
 961.0000
 21
 144.1400
  0
LINE
  8
200
  6
AUSGEZOGEN
 10
 981.0000
 20
 144.1400
 11
 975.1400
 21
 150.0000
  0
LINE
  8
200
  6
AUSGEZOGEN
 10
 975.1400
 20
 130.0000
 11
 981.0000
 21
 135.8600
  0
LINE
  8
200
  6
AUSGEZOGEN
 10
 991.0000
 20
 135.8600
 11
 996.8600
 21
 130.0000
  0
LINE
  8
200
  6
AUSGEZOGEN
 10
 996.8600
 20
 150.0000
 11
 991.0000
 21
 144.1400
  0
LINE
  8
200
  6
AUSGEZOGEN
 10
1011.0000
 20
 144.1400
 11
1005.1400
 21
 150.0000
  0
LINE
  8
200
  6
AUSGEZOGEN
 10
1005.1400
 20
 130.0000
 11
1011.0000
 21
 135.8600
  0
LINE
  8
200
  6
AUSGEZOGEN
 10
1021.0000
 20
 135.8600
 11
1026.8600
 21
 130.0000
  0
LINE
  8
200
  6
AUSGEZOGEN
 10
1026.8600
 20
 150.0000
 11
1021.0000
 21
 144.1400
  0
LINE
  8
200
  6
AUSGEZOGEN
 10
1041.0000
 20
 144.1400
 11
1035.1400
 21
 150.0000
  0
LINE
  8
200
  6
AUSGEZOGEN
 10
1035.1400
 20
 130.0000
 11
1041.0000
 21
 135.8600
  0
LINE
  8
200
  6
AUSGEZOGEN
 10
 601.0000
 20
 225.8600
 11
 606.8600
 21
 220.0000
  0
LINE
  8
200
  6
AUSGEZOGEN
 10
 606.8600
 20
 240.0000
 11
 601.0000
 21
 234.1400
  0
LINE
  8
200
  6
AUSGEZOGEN
 10
 621.0000
 20
 234.1400
 11
 615.1400
 21
 240.0000
  0
LINE
  8
200
  6
AUSGEZOGEN
 10
 615.1400
 20
 220.0000
 11
 621.0000
 21
 225.8600
  0
LINE
  8
200
  6
AUSGEZOGEN
 10
 601.0000
 20
 195.8600
 11
 606.8600
 21
 190.0000
  0
LINE
  8
200
  6
AUSGEZOGEN
 10
 606.8600
 20
 210.0000
 11
 601.0000
 21
 204.1400
  0
LINE
  8
200
  6
AUSGEZOGEN
 10
 621.0000
 20
 204.1400
 11
 615.1400
 21
 210.0000
  0
LINE
  8
200
  6
AUSGEZOGEN
 10
 615.1400
 20
 190.0000
 11
 621.0000
 21
 195.8600
  0
LINE
  8
200
  6
AUSGEZOGEN
 10
 601.0000
 20
 165.8600
 11
 606.8600
 21
 160.0000
  0
LINE
  8
200
  6
AUSGEZOGEN
 10
 606.8600
 20
 180.0000
 11
 601.0000
 21
 174.1400
  0
LINE
  8
200
  6
AUSGEZOGEN
 10
 621.0000
 20
 174.1400
 11
 615.1400
 21
 180.0000
  0
LINE
  8
200
  6
AUSGEZOGEN
 10
 615.1400
 20
 160.0000
 11
 621.0000
 21
 165.8600
  0
LINE
  8
200
  6
AUSGEZOGEN
 10
 601.0000
 20
 135.8600
 11
 606.8600
 21
 130.0000
  0
LINE
  8
200
  6
AUSGEZOGEN
 10
 606.8600
 20
 150.0000
 11
 601.0000
 21
 144.1400
  0
LINE
  8
200
  6
AUSGEZOGEN
 10
 621.0000
 20
 144.1400
 11
 615.1400
 21
 150.0000
  0
LINE
  8
200
  6
AUSGEZOGEN
 10
 615.1400
 20
 130.0000
 11
 621.0000
 21
 135.8600
  0
LINE
  8
200
  6
AUSGEZOGEN
 10
 601.0000
 20
 105.8600
 11
 606.8600
 21
 100.0000
  0
LINE
  8
200
  6
AUSGEZOGEN
 10
 606.8600
 20
 120.0000
 11
 601.0000
 21
 114.1400
  0
LINE
  8
200
  6
AUSGEZOGEN
 10
 621.0000
 20
 114.1400
 11
 615.1400
 21
 120.0000
  0
LINE
  8
200
  6
AUSGEZOGEN
 10
 615.1400
 20
 100.0000
 11
 621.0000
 21
 105.8600
  0
LINE
  8
200
  6
AUSGEZOGEN
 10
 631.0000
 20
 105.8600
 11
 636.8600
 21
 100.0000
  0
LINE
  8
200
  6
AUSGEZOGEN
 10
 636.8600
 20
 120.0000
 11
 631.0000
 21
 114.1400
  0
LINE
  8
200
  6
AUSGEZOGEN
 10
 651.0000
 20
 114.1400
 11
 645.1400
 21
 120.0000
  0
LINE
  8
200
  6
AUSGEZOGEN
 10
 645.1400
 20
 100.0000
 11
 651.0000
 21
 105.8600
  0
LINE
  8
200
  6
AUSGEZOGEN
 10
 661.0000
 20
 105.8600
 11
 666.8600
 21
 100.0000
  0
LINE
  8
200
  6
AUSGEZOGEN
 10
 666.8600
 20
 120.0000
 11
 661.0000
 21
 114.1400
  0
LINE
  8
200
  6
AUSGEZOGEN
 10
 681.0000
 20
 114.1400
 11
 675.1400
 21
 120.0000
  0
LINE
  8
200
  6
AUSGEZOGEN
 10
 675.1400
 20
 100.0000
 11
 681.0000
 21
 105.8600
  0
LINE
  8
200
  6
AUSGEZOGEN
 10
 691.0000
 20
 105.8600
 11
 696.8600
 21
 100.0000
  0
LINE
  8
200
  6
AUSGEZOGEN
 10
 696.8600
 20
 120.0000
 11
 691.0000
 21
 114.1400
  0
LINE
  8
200
  6
AUSGEZOGEN
 10
 711.0000
 20
 114.1400
 11
 705.1400
 21
 120.0000
  0
LINE
  8
200
  6
AUSGEZOGEN
 10
 705.1400
 20
 100.0000
 11
 711.0000
 21
 105.8600
  0
LINE
  8
200
  6
AUSGEZOGEN
 10
 721.0000
 20
 105.8600
 11
 726.8600
 21
 100.0000
  0
LINE
  8
200
  6
AUSGEZOGEN
 10
 726.8600
 20
 120.0000
 11
 721.0000
 21
 114.1400
  0
LINE
  8
200
  6
AUSGEZOGEN
 10
 741.0000
 20
 114.1400
 11
 735.1400
 21
 120.0000
  0
LINE
  8
200
  6
AUSGEZOGEN
 10
 735.1400
 20
 100.0000
 11
 741.0000
 21
 105.8600
  0
LINE
  8
200
  6
AUSGEZOGEN
 10
 751.0000
 20
 105.8600
 11
 756.8600
 21
 100.0000
  0
LINE
  8
200
  6
AUSGEZOGEN
 10
 756.8600
 20
 120.0000
 11
 751.0000
 21
 114.1400
  0
LINE
  8
200
  6
AUSGEZOGEN
 10
 771.0000
 20
 114.1400
 11
 765.1400
 21
 120.0000
  0
LINE
  8
200
  6
AUSGEZOGEN
 10
 765.1400
 20
 100.0000
 11
 771.0000
 21
 105.8600
  0
LINE
  8
200
  6
AUSGEZOGEN
 10
 781.0000
 20
 105.8600
 11
 786.8600
 21
 100.0000
  0
LINE
  8
200
  6
AUSGEZOGEN
 10
 786.8600
 20
 120.0000
 11
 781.0000
 21
 114.1400
  0
LINE
  8
200
  6
AUSGEZOGEN
 10
 801.0000
 20
 114.1400
 11
 795.1400
 21
 120.0000
  0
LINE
  8
200
  6
AUSGEZOGEN
 10
 795.1400
 20
 100.0000
 11
 801.0000
 21
 105.8600
  0
LINE
  8
200
  6
AUSGEZOGEN
 10
 811.0000
 20
 105.8600
 11
 816.8600
 21
 100.0000
  0
LINE
  8
200
  6
AUSGEZOGEN
 10
 816.8600
 20
 120.0000
 11
 811.0000
 21
 114.1400
  0
LINE
  8
200
  6
AUSGEZOGEN
 10
 831.0000
 20
 114.1400
 11
 825.1400
 21
 120.0000
  0
LINE
  8
200
  6
AUSGEZOGEN
 10
 825.1400
 20
 100.0000
 11
 831.0000
 21
 105.8600
  0
LINE
  8
200
  6
AUSGEZOGEN
 10
 841.0000
 20
 105.8600
 11
 846.8600
 21
 100.0000
  0
LINE
  8
200
  6
AUSGEZOGEN
 10
 846.8600
 20
 120.0000
 11
 841.0000
 21
 114.1400
  0
LINE
  8
200
  6
AUSGEZOGEN
 10
 861.0000
 20
 114.1400
 11
 855.1400
 21
 120.0000
  0
LINE
  8
200
  6
AUSGEZOGEN
 10
 855.1400
 20
 100.0000
 11
 861.0000
 21
 105.8600
  0
LINE
  8
200
  6
AUSGEZOGEN
 10
 871.0000
 20
 105.8600
 11
 876.8600
 21
 100.0000
  0
LINE
  8
200
  6
AUSGEZOGEN
 10
 876.8600
 20
 120.0000
 11
 871.0000
 21
 114.1400
  0
LINE
  8
200
  6
AUSGEZOGEN
 10
 891.0000
 20
 114.1400
 11
 885.1400
 21
 120.0000
  0
LINE
  8
200
  6
AUSGEZOGEN
 10
 885.1400
 20
 100.0000
 11
 891.0000
 21
 105.8600
  0
LINE
  8
200
  6
AUSGEZOGEN
 10
 901.0000
 20
 105.8600
 11
 906.8600
 21
 100.0000
  0
LINE
  8
200
  6
AUSGEZOGEN
 10
 906.8600
 20
 120.0000
 11
 901.0000
 21
 114.1400
  0
LINE
  8
200
  6
AUSGEZOGEN
 10
 921.0000
 20
 114.1400
 11
 915.1400
 21
 120.0000
  0
LINE
  8
200
  6
AUSGEZOGEN
 10
 915.1400
 20
 100.0000
 11
 921.0000
 21
 105.8600
  0
LINE
  8
200
  6
AUSGEZOGEN
 10
 931.0000
 20
 105.8600
 11
 936.8600
 21
 100.0000
  0
LINE
  8
200
  6
AUSGEZOGEN
 10
 936.8600
 20
 120.0000
 11
 931.0000
 21
 114.1400
  0
LINE
  8
200
  6
AUSGEZOGEN
 10
 951.0000
 20
 114.1400
 11
 945.1400
 21
 120.0000
  0
LINE
  8
200
  6
AUSGEZOGEN
 10
 945.1400
 20
 100.0000
 11
 951.0000
 21
 105.8600
  0
LINE
  8
200
  6
AUSGEZOGEN
 10
 961.0000
 20
 105.8600
 11
 966.8600
 21
 100.0000
  0
LINE
  8
200
  6
AUSGEZOGEN
 10
 966.8600
 20
 120.0000
 11
 961.0000
 21
 114.1400
  0
LINE
  8
200
  6
AUSGEZOGEN
 10
 981.0000
 20
 114.1400
 11
 975.1400
 21
 120.0000
  0
LINE
  8
200
  6
AUSGEZOGEN
 10
 975.1400
 20
 100.0000
 11
 981.0000
 21
 105.8600
  0
LINE
  8
200
  6
AUSGEZOGEN
 10
 991.0000
 20
 105.8600
 11
 996.8600
 21
 100.0000
  0
LINE
  8
200
  6
AUSGEZOGEN
 10
 996.8600
 20
 120.0000
 11
 991.0000
 21
 114.1400
  0
LINE
  8
200
  6
AUSGEZOGEN
 10
1011.0000
 20
 114.1400
 11
1005.1400
 21
 120.0000
  0
LINE
  8
200
  6
AUSGEZOGEN
 10
1005.1400
 20
 100.0000
 11
1011.0000
 21
 105.8600
  0
LINE
  8
200
  6
AUSGEZOGEN
 10
1021.0000
 20
 105.8600
 11
1026.8600
 21
 100.0000
  0
LINE
  8
200
  6
AUSGEZOGEN
 10
1026.8600
 20
 120.0000
 11
1021.0000
 21
 114.1400
  0
LINE
  8
200
  6
AUSGEZOGEN
 10
1041.0000
 20
 114.1400
 11
1035.1400
 21
 120.0000
  0
LINE
  8
200
  6
AUSGEZOGEN
 10
1035.1400
 20
 100.0000
 11
1041.0000
 21
 105.8600
  0
LINE
  8
200
  6
AUSGEZOGEN
 10
 631.0000
 20
 285.8600
 11
 636.8600
 21
 280.0000
  0
LINE
  8
200
  6
AUSGEZOGEN
 10
 636.8600
 20
 300.0000
 11
 631.0000
 21
 294.1400
  0
LINE
  8
200
  6
AUSGEZOGEN
 10
 651.0000
 20
 294.1400
 11
 645.1400
 21
 300.0000
  0
LINE
  8
200
  6
AUSGEZOGEN
 10
 645.1400
 20
 280.0000
 11
 651.0000
 21
 285.8600
  0
LINE
  8
200
  6
AUSGEZOGEN
 10
 661.0000
 20
 285.8600
 11
 666.8600
 21
 280.0000
  0
LINE
  8
200
  6
AUSGEZOGEN
 10
 666.8600
 20
 300.0000
 11
 661.0000
 21
 294.1400
  0
LINE
  8
200
  6
AUSGEZOGEN
 10
 681.0000
 20
 294.1400
 11
 675.1400
 21
 300.0000
  0
LINE
  8
200
  6
AUSGEZOGEN
 10
 675.1400
 20
 280.0000
 11
 681.0000
 21
 285.8600
  0
LINE
  8
200
  6
AUSGEZOGEN
 10
 691.0000
 20
 285.8600
 11
 696.8600
 21
 280.0000
  0
LINE
  8
200
  6
AUSGEZOGEN
 10
 696.8600
 20
 300.0000
 11
 691.0000
 21
 294.1400
  0
LINE
  8
200
  6
AUSGEZOGEN
 10
 711.0000
 20
 294.1400
 11
 705.1400
 21
 300.0000
  0
LINE
  8
200
  6
AUSGEZOGEN
 10
 705.1400
 20
 280.0000
 11
 711.0000
 21
 285.8600
  0
LINE
  8
200
  6
AUSGEZOGEN
 10
 721.0000
 20
 285.8600
 11
 726.8600
 21
 280.0000
  0
LINE
  8
200
  6
AUSGEZOGEN
 10
 726.8600
 20
 300.0000
 11
 721.0000
 21
 294.1400
  0
LINE
  8
200
  6
AUSGEZOGEN
 10
 741.0000
 20
 294.1400
 11
 735.1400
 21
 300.0000
  0
LINE
  8
200
  6
AUSGEZOGEN
 10
 735.1400
 20
 280.0000
 11
 741.0000
 21
 285.8600
  0
LINE
  8
200
  6
AUSGEZOGEN
 10
 751.0000
 20
 285.8600
 11
 756.8600
 21
 280.0000
  0
LINE
  8
200
  6
AUSGEZOGEN
 10
 756.8600
 20
 300.0000
 11
 751.0000
 21
 294.1400
  0
LINE
  8
200
  6
AUSGEZOGEN
 10
 771.0000
 20
 294.1400
 11
 765.1400
 21
 300.0000
  0
LINE
  8
200
  6
AUSGEZOGEN
 10
 765.1400
 20
 280.0000
 11
 771.0000
 21
 285.8600
  0
LINE
  8
200
  6
AUSGEZOGEN
 10
 781.0000
 20
 285.8600
 11
 786.8600
 21
 280.0000
  0
LINE
  8
200
  6
AUSGEZOGEN
 10
 786.8600
 20
 300.0000
 11
 781.0000
 21
 294.1400
  0
LINE
  8
200
  6
AUSGEZOGEN
 10
 801.0000
 20
 294.1400
 11
 795.1400
 21
 300.0000
  0
LINE
  8
200
  6
AUSGEZOGEN
 10
 795.1400
 20
 280.0000
 11
 801.0000
 21
 285.8600
  0
LINE
  8
200
  6
AUSGEZOGEN
 10
 811.0000
 20
 285.8600
 11
 816.8600
 21
 280.0000
  0
LINE
  8
200
  6
AUSGEZOGEN
 10
 816.8600
 20
 300.0000
 11
 811.0000
 21
 294.1400
  0
LINE
  8
200
  6
AUSGEZOGEN
 10
 831.0000
 20
 294.1400
 11
 825.1400
 21
 300.0000
  0
LINE
  8
200
  6
AUSGEZOGEN
 10
 825.1400
 20
 280.0000
 11
 831.0000
 21
 285.8600
  0
LINE
  8
200
  6
AUSGEZOGEN
 10
 841.0000
 20
 285.8600
 11
 846.8600
 21
 280.0000
  0
LINE
  8
200
  6
AUSGEZOGEN
 10
 846.8600
 20
 300.0000
 11
 841.0000
 21
 294.1400
  0
LINE
  8
200
  6
AUSGEZOGEN
 10
 861.0000
 20
 294.1400
 11
 855.1400
 21
 300.0000
  0
LINE
  8
200
  6
AUSGEZOGEN
 10
 855.1400
 20
 280.0000
 11
 861.0000
 21
 285.8600
  0
LINE
  8
200
  6
AUSGEZOGEN
 10
 871.0000
 20
 285.8600
 11
 876.8600
 21
 280.0000
  0
LINE
  8
200
  6
AUSGEZOGEN
 10
 876.8600
 20
 300.0000
 11
 871.0000
 21
 294.1400
  0
LINE
  8
200
  6
AUSGEZOGEN
 10
 891.0000
 20
 294.1400
 11
 885.1400
 21
 300.0000
  0
LINE
  8
200
  6
AUSGEZOGEN
 10
 885.1400
 20
 280.0000
 11
 891.0000
 21
 285.8600
  0
LINE
  8
200
  6
AUSGEZOGEN
 10
 901.0000
 20
 285.8600
 11
 906.8600
 21
 280.0000
  0
LINE
  8
200
  6
AUSGEZOGEN
 10
 906.8600
 20
 300.0000
 11
 901.0000
 21
 294.1400
  0
LINE
  8
200
  6
AUSGEZOGEN
 10
 921.0000
 20
 294.1400
 11
 915.1400
 21
 300.0000
  0
LINE
  8
200
  6
AUSGEZOGEN
 10
 915.1400
 20
 280.0000
 11
 921.0000
 21
 285.8600
  0
LINE
  8
200
  6
AUSGEZOGEN
 10
 931.0000
 20
 285.8600
 11
 936.8600
 21
 280.0000
  0
LINE
  8
200
  6
AUSGEZOGEN
 10
 936.8600
 20
 300.0000
 11
 931.0000
 21
 294.1400
  0
LINE
  8
200
  6
AUSGEZOGEN
 10
 951.0000
 20
 294.1400
 11
 945.1400
 21
 300.0000
  0
LINE
  8
200
  6
AUSGEZOGEN
 10
 945.1400
 20
 280.0000
 11
 951.0000
 21
 285.8600
  0
LINE
  8
200
  6
AUSGEZOGEN
 10
 961.0000
 20
 285.8600
 11
 966.8600
 21
 280.0000
  0
LINE
  8
200
  6
AUSGEZOGEN
 10
 966.8600
 20
 300.0000
 11
 961.0000
 21
 294.1400
  0
LINE
  8
200
  6
AUSGEZOGEN
 10
 981.0000
 20
 294.1400
 11
 975.1400
 21
 300.0000
  0
LINE
  8
200
  6
AUSGEZOGEN
 10
 975.1400
 20
 280.0000
 11
 981.0000
 21
 285.8600
  0
LINE
  8
200
  6
AUSGEZOGEN
 10
 991.0000
 20
 285.8600
 11
 996.8600
 21
 280.0000
  0
LINE
  8
200
  6
AUSGEZOGEN
 10
 996.8600
 20
 300.0000
 11
 991.0000
 21
 294.1400
  0
LINE
  8
200
  6
AUSGEZOGEN
 10
1011.0000
 20
 294.1400
 11
1005.1400
 21
 300.0000
  0
LINE
  8
200
  6
AUSGEZOGEN
 10
1005.1400
 20
 280.0000
 11
1011.0000
 21
 285.8600
  0
LINE
  8
200
  6
AUSGEZOGEN
 10
1021.0000
 20
 285.8600
 11
1026.8600
 21
 280.0000
  0
LINE
  8
200
  6
AUSGEZOGEN
 10
1026.8600
 20
 300.0000
 11
1021.0000
 21
 294.1400
  0
LINE
  8
200
  6
AUSGEZOGEN
 10
1041.0000
 20
 294.1400
 11
1035.1400
 21
 300.0000
  0
LINE
  8
200
  6
AUSGEZOGEN
 10
1035.1400
 20
 280.0000
 11
1041.0000
 21
 285.8600
  0
LINE
  8
200
  6
AUSGEZOGEN
 10
 601.0000
 20
 285.8600
 11
 606.8600
 21
 280.0000
  0
LINE
  8
200
  6
AUSGEZOGEN
 10
 606.8600
 20
 300.0000
 11
 601.0000
 21
 294.1400
  0
LINE
  8
200
  6
AUSGEZOGEN
 10
 621.0000
 20
 294.1400
 11
 615.1400
 21
 300.0000
  0
LINE
  8
200
  6
AUSGEZOGEN
 10
 615.1400
 20
 280.0000
 11
 621.0000
 21
 285.8600
  0
LINE
  8
200
  6
AUSGEZOGEN
 10
 631.0000
 20
 315.8600
 11
 636.8600
 21
 310.0000
  0
LINE
  8
200
  6
AUSGEZOGEN
 10
 636.8600
 20
 330.0000
 11
 631.0000
 21
 324.1400
  0
LINE
  8
200
  6
AUSGEZOGEN
 10
 651.0000
 20
 324.1400
 11
 645.1400
 21
 330.0000
  0
LINE
  8
200
  6
AUSGEZOGEN
 10
 645.1400
 20
 310.0000
 11
 651.0000
 21
 315.8600
  0
LINE
  8
200
  6
AUSGEZOGEN
 10
 661.0000
 20
 315.8600
 11
 666.8600
 21
 310.0000
  0
LINE
  8
200
  6
AUSGEZOGEN
 10
 666.8600
 20
 330.0000
 11
 661.0000
 21
 324.1400
  0
LINE
  8
200
  6
AUSGEZOGEN
 10
 681.0000
 20
 324.1400
 11
 675.1400
 21
 330.0000
  0
LINE
  8
200
  6
AUSGEZOGEN
 10
 675.1400
 20
 310.0000
 11
 681.0000
 21
 315.8600
  0
LINE
  8
200
  6
AUSGEZOGEN
 10
 691.0000
 20
 315.8600
 11
 696.8600
 21
 310.0000
  0
LINE
  8
200
  6
AUSGEZOGEN
 10
 696.8600
 20
 330.0000
 11
 691.0000
 21
 324.1400
  0
LINE
  8
200
  6
AUSGEZOGEN
 10
 711.0000
 20
 324.1400
 11
 705.1400
 21
 330.0000
  0
LINE
  8
200
  6
AUSGEZOGEN
 10
 705.1400
 20
 310.0000
 11
 711.0000
 21
 315.8600
  0
LINE
  8
200
  6
AUSGEZOGEN
 10
 721.0000
 20
 315.8600
 11
 726.8600
 21
 310.0000
  0
LINE
  8
200
  6
AUSGEZOGEN
 10
 726.8600
 20
 330.0000
 11
 721.0000
 21
 324.1400
  0
LINE
  8
200
  6
AUSGEZOGEN
 10
 741.0000
 20
 324.1400
 11
 735.1400
 21
 330.0000
  0
LINE
  8
200
  6
AUSGEZOGEN
 10
 735.1400
 20
 310.0000
 11
 741.0000
 21
 315.8600
  0
LINE
  8
200
  6
AUSGEZOGEN
 10
 751.0000
 20
 315.8600
 11
 756.8600
 21
 310.0000
  0
LINE
  8
200
  6
AUSGEZOGEN
 10
 756.8600
 20
 330.0000
 11
 751.0000
 21
 324.1400
  0
LINE
  8
200
  6
AUSGEZOGEN
 10
 771.0000
 20
 324.1400
 11
 765.1400
 21
 330.0000
  0
LINE
  8
200
  6
AUSGEZOGEN
 10
 765.1400
 20
 310.0000
 11
 771.0000
 21
 315.8600
  0
LINE
  8
200
  6
AUSGEZOGEN
 10
 781.0000
 20
 315.8600
 11
 786.8600
 21
 310.0000
  0
LINE
  8
200
  6
AUSGEZOGEN
 10
 786.8600
 20
 330.0000
 11
 781.0000
 21
 324.1400
  0
LINE
  8
200
  6
AUSGEZOGEN
 10
 801.0000
 20
 324.1400
 11
 795.1400
 21
 330.0000
  0
LINE
  8
200
  6
AUSGEZOGEN
 10
 795.1400
 20
 310.0000
 11
 801.0000
 21
 315.8600
  0
LINE
  8
200
  6
AUSGEZOGEN
 10
 811.0000
 20
 315.8600
 11
 816.8600
 21
 310.0000
  0
LINE
  8
200
  6
AUSGEZOGEN
 10
 816.8600
 20
 330.0000
 11
 811.0000
 21
 324.1400
  0
LINE
  8
200
  6
AUSGEZOGEN
 10
 831.0000
 20
 324.1400
 11
 825.1400
 21
 330.0000
  0
LINE
  8
200
  6
AUSGEZOGEN
 10
 825.1400
 20
 310.0000
 11
 831.0000
 21
 315.8600
  0
LINE
  8
200
  6
AUSGEZOGEN
 10
 841.0000
 20
 315.8600
 11
 846.8600
 21
 310.0000
  0
LINE
  8
200
  6
AUSGEZOGEN
 10
 846.8600
 20
 330.0000
 11
 841.0000
 21
 324.1400
  0
LINE
  8
200
  6
AUSGEZOGEN
 10
 861.0000
 20
 324.1400
 11
 855.1400
 21
 330.0000
  0
LINE
  8
200
  6
AUSGEZOGEN
 10
 855.1400
 20
 310.0000
 11
 861.0000
 21
 315.8600
  0
LINE
  8
200
  6
AUSGEZOGEN
 10
 871.0000
 20
 315.8600
 11
 876.8600
 21
 310.0000
  0
LINE
  8
200
  6
AUSGEZOGEN
 10
 876.8600
 20
 330.0000
 11
 871.0000
 21
 324.1400
  0
LINE
  8
200
  6
AUSGEZOGEN
 10
 891.0000
 20
 324.1400
 11
 885.1400
 21
 330.0000
  0
LINE
  8
200
  6
AUSGEZOGEN
 10
 885.1400
 20
 310.0000
 11
 891.0000
 21
 315.8600
  0
LINE
  8
200
  6
AUSGEZOGEN
 10
 901.0000
 20
 315.8600
 11
 906.8600
 21
 310.0000
  0
LINE
  8
200
  6
AUSGEZOGEN
 10
 906.8600
 20
 330.0000
 11
 901.0000
 21
 324.1400
  0
LINE
  8
200
  6
AUSGEZOGEN
 10
 921.0000
 20
 324.1400
 11
 915.1400
 21
 330.0000
  0
LINE
  8
200
  6
AUSGEZOGEN
 10
 915.1400
 20
 310.0000
 11
 921.0000
 21
 315.8600
  0
LINE
  8
200
  6
AUSGEZOGEN
 10
 931.0000
 20
 315.8600
 11
 936.8600
 21
 310.0000
  0
LINE
  8
200
  6
AUSGEZOGEN
 10
 936.8600
 20
 330.0000
 11
 931.0000
 21
 324.1400
  0
LINE
  8
200
  6
AUSGEZOGEN
 10
 951.0000
 20
 324.1400
 11
 945.1400
 21
 330.0000
  0
LINE
  8
200
  6
AUSGEZOGEN
 10
 945.1400
 20
 310.0000
 11
 951.0000
 21
 315.8600
  0
LINE
  8
200
  6
AUSGEZOGEN
 10
 961.0000
 20
 315.8600
 11
 966.8600
 21
 310.0000
  0
LINE
  8
200
  6
AUSGEZOGEN
 10
 966.8600
 20
 330.0000
 11
 961.0000
 21
 324.1400
  0
LINE
  8
200
  6
AUSGEZOGEN
 10
 981.0000
 20
 324.1400
 11
 975.1400
 21
 330.0000
  0
LINE
  8
200
  6
AUSGEZOGEN
 10
 975.1400
 20
 310.0000
 11
 981.0000
 21
 315.8600
  0
LINE
  8
200
  6
AUSGEZOGEN
 10
 991.0000
 20
 315.8600
 11
 996.8600
 21
 310.0000
  0
LINE
  8
200
  6
AUSGEZOGEN
 10
 996.8600
 20
 330.0000
 11
 991.0000
 21
 324.1400
  0
LINE
  8
200
  6
AUSGEZOGEN
 10
1011.0000
 20
 324.1400
 11
1005.1400
 21
 330.0000
  0
LINE
  8
200
  6
AUSGEZOGEN
 10
1005.1400
 20
 310.0000
 11
1011.0000
 21
 315.8600
  0
LINE
  8
200
  6
AUSGEZOGEN
 10
1021.0000
 20
 315.8600
 11
1026.8600
 21
 310.0000
  0
LINE
  8
200
  6
AUSGEZOGEN
 10
1026.8600
 20
 330.0000
 11
1021.0000
 21
 324.1400
  0
LINE
  8
200
  6
AUSGEZOGEN
 10
1041.0000
 20
 324.1400
 11
1035.1400
 21
 330.0000
  0
LINE
  8
200
  6
AUSGEZOGEN
 10
1035.1400
 20
 310.0000
 11
1041.0000
 21
 315.8600
  0
LINE
  8
200
  6
AUSGEZOGEN
 10
 601.0000
 20
 315.8600
 11
 606.8600
 21
 310.0000
  0
LINE
  8
200
  6
AUSGEZOGEN
 10
 606.8600
 20
 330.0000
 11
 601.0000
 21
 324.1400
  0
LINE
  8
200
  6
AUSGEZOGEN
 10
 621.0000
 20
 324.1400
 11
 615.1400
 21
 330.0000
  0
LINE
  8
200
  6
AUSGEZOGEN
 10
 615.1400
 20
 310.0000
 11
 621.0000
 21
 315.8600
  0
LINE
  8
200
  6
AUSGEZOGEN
 10
 631.0000
 20
 345.8600
 11
 636.8600
 21
 340.0000
  0
LINE
  8
200
  6
AUSGEZOGEN
 10
 636.8600
 20
 360.0000
 11
 631.0000
 21
 354.1400
  0
LINE
  8
200
  6
AUSGEZOGEN
 10
 651.0000
 20
 354.1400
 11
 645.1400
 21
 360.0000
  0
LINE
  8
200
  6
AUSGEZOGEN
 10
 645.1400
 20
 340.0000
 11
 651.0000
 21
 345.8600
  0
LINE
  8
200
  6
AUSGEZOGEN
 10
 661.0000
 20
 345.8600
 11
 666.8600
 21
 340.0000
  0
LINE
  8
200
  6
AUSGEZOGEN
 10
 666.8600
 20
 360.0000
 11
 661.0000
 21
 354.1400
  0
LINE
  8
200
  6
AUSGEZOGEN
 10
 681.0000
 20
 354.1400
 11
 675.1400
 21
 360.0000
  0
LINE
  8
200
  6
AUSGEZOGEN
 10
 675.1400
 20
 340.0000
 11
 681.0000
 21
 345.8600
  0
LINE
  8
200
  6
AUSGEZOGEN
 10
 691.0000
 20
 345.8600
 11
 696.8600
 21
 340.0000
  0
LINE
  8
200
  6
AUSGEZOGEN
 10
 696.8600
 20
 360.0000
 11
 691.0000
 21
 354.1400
  0
LINE
  8
200
  6
AUSGEZOGEN
 10
 711.0000
 20
 354.1400
 11
 705.1400
 21
 360.0000
  0
LINE
  8
200
  6
AUSGEZOGEN
 10
 705.1400
 20
 340.0000
 11
 711.0000
 21
 345.8600
  0
LINE
  8
200
  6
AUSGEZOGEN
 10
 721.0000
 20
 345.8600
 11
 726.8600
 21
 340.0000
  0
LINE
  8
200
  6
AUSGEZOGEN
 10
 726.8600
 20
 360.0000
 11
 721.0000
 21
 354.1400
  0
LINE
  8
200
  6
AUSGEZOGEN
 10
 741.0000
 20
 354.1400
 11
 735.1400
 21
 360.0000
  0
LINE
  8
200
  6
AUSGEZOGEN
 10
 735.1400
 20
 340.0000
 11
 741.0000
 21
 345.8600
  0
LINE
  8
200
  6
AUSGEZOGEN
 10
 751.0000
 20
 345.8600
 11
 756.8600
 21
 340.0000
  0
LINE
  8
200
  6
AUSGEZOGEN
 10
 756.8600
 20
 360.0000
 11
 751.0000
 21
 354.1400
  0
LINE
  8
200
  6
AUSGEZOGEN
 10
 771.0000
 20
 354.1400
 11
 765.1400
 21
 360.0000
  0
LINE
  8
200
  6
AUSGEZOGEN
 10
 765.1400
 20
 340.0000
 11
 771.0000
 21
 345.8600
  0
LINE
  8
200
  6
AUSGEZOGEN
 10
 781.0000
 20
 345.8600
 11
 786.8600
 21
 340.0000
  0
LINE
  8
200
  6
AUSGEZOGEN
 10
 786.8600
 20
 360.0000
 11
 781.0000
 21
 354.1400
  0
LINE
  8
200
  6
AUSGEZOGEN
 10
 801.0000
 20
 354.1400
 11
 795.1400
 21
 360.0000
  0
LINE
  8
200
  6
AUSGEZOGEN
 10
 795.1400
 20
 340.0000
 11
 801.0000
 21
 345.8600
  0
LINE
  8
200
  6
AUSGEZOGEN
 10
 811.0000
 20
 345.8600
 11
 816.8600
 21
 340.0000
  0
LINE
  8
200
  6
AUSGEZOGEN
 10
 816.8600
 20
 360.0000
 11
 811.0000
 21
 354.1400
  0
LINE
  8
200
  6
AUSGEZOGEN
 10
 831.0000
 20
 354.1400
 11
 825.1400
 21
 360.0000
  0
LINE
  8
200
  6
AUSGEZOGEN
 10
 825.1400
 20
 340.0000
 11
 831.0000
 21
 345.8600
  0
LINE
  8
200
  6
AUSGEZOGEN
 10
 841.0000
 20
 345.8600
 11
 846.8600
 21
 340.0000
  0
LINE
  8
200
  6
AUSGEZOGEN
 10
 846.8600
 20
 360.0000
 11
 841.0000
 21
 354.1400
  0
LINE
  8
200
  6
AUSGEZOGEN
 10
 861.0000
 20
 354.1400
 11
 855.1400
 21
 360.0000
  0
LINE
  8
200
  6
AUSGEZOGEN
 10
 855.1400
 20
 340.0000
 11
 861.0000
 21
 345.8600
  0
LINE
  8
200
  6
AUSGEZOGEN
 10
 871.0000
 20
 345.8600
 11
 876.8600
 21
 340.0000
  0
LINE
  8
200
  6
AUSGEZOGEN
 10
 876.8600
 20
 360.0000
 11
 871.0000
 21
 354.1400
  0
LINE
  8
200
  6
AUSGEZOGEN
 10
 891.0000
 20
 354.1400
 11
 885.1400
 21
 360.0000
  0
LINE
  8
200
  6
AUSGEZOGEN
 10
 885.1400
 20
 340.0000
 11
 891.0000
 21
 345.8600
  0
LINE
  8
200
  6
AUSGEZOGEN
 10
 901.0000
 20
 345.8600
 11
 906.8600
 21
 340.0000
  0
LINE
  8
200
  6
AUSGEZOGEN
 10
 906.8600
 20
 360.0000
 11
 901.0000
 21
 354.1400
  0
LINE
  8
200
  6
AUSGEZOGEN
 10
 921.0000
 20
 354.1400
 11
 915.1400
 21
 360.0000
  0
LINE
  8
200
  6
AUSGEZOGEN
 10
 915.1400
 20
 340.0000
 11
 921.0000
 21
 345.8600
  0
LINE
  8
200
  6
AUSGEZOGEN
 10
 931.0000
 20
 345.8600
 11
 936.8600
 21
 340.0000
  0
LINE
  8
200
  6
AUSGEZOGEN
 10
 936.8600
 20
 360.0000
 11
 931.0000
 21
 354.1400
  0
LINE
  8
200
  6
AUSGEZOGEN
 10
 951.0000
 20
 354.1400
 11
 945.1400
 21
 360.0000
  0
LINE
  8
200
  6
AUSGEZOGEN
 10
 945.1400
 20
 340.0000
 11
 951.0000
 21
 345.8600
  0
LINE
  8
200
  6
AUSGEZOGEN
 10
 961.0000
 20
 345.8600
 11
 966.8600
 21
 340.0000
  0
LINE
  8
200
  6
AUSGEZOGEN
 10
 966.8600
 20
 360.0000
 11
 961.0000
 21
 354.1400
  0
LINE
  8
200
  6
AUSGEZOGEN
 10
 981.0000
 20
 354.1400
 11
 975.1400
 21
 360.0000
  0
LINE
  8
200
  6
AUSGEZOGEN
 10
 975.1400
 20
 340.0000
 11
 981.0000
 21
 345.8600
  0
LINE
  8
200
  6
AUSGEZOGEN
 10
 991.0000
 20
 345.8600
 11
 996.8600
 21
 340.0000
  0
LINE
  8
200
  6
AUSGEZOGEN
 10
 996.8600
 20
 360.0000
 11
 991.0000
 21
 354.1400
  0
LINE
  8
200
  6
AUSGEZOGEN
 10
1011.0000
 20
 354.1400
 11
1005.1400
 21
 360.0000
  0
LINE
  8
200
  6
AUSGEZOGEN
 10
1005.1400
 20
 340.0000
 11
1011.0000
 21
 345.8600
  0
LINE
  8
200
  6
AUSGEZOGEN
 10
1021.0000
 20
 345.8600
 11
1026.8600
 21
 340.0000
  0
LINE
  8
200
  6
AUSGEZOGEN
 10
1026.8600
 20
 360.0000
 11
1021.0000
 21
 354.1400
  0
LINE
  8
200
  6
AUSGEZOGEN
 10
1041.0000
 20
 354.1400
 11
1035.1400
 21
 360.0000
  0
LINE
  8
200
  6
AUSGEZOGEN
 10
1035.1400
 20
 340.0000
 11
1041.0000
 21
 345.8600
  0
LINE
  8
200
  6
AUSGEZOGEN
 10
 601.0000
 20
 345.8600
 11
 606.8600
 21
 340.0000
  0
LINE
  8
200
  6
AUSGEZOGEN
 10
 606.8600
 20
 360.0000
 11
 601.0000
 21
 354.1400
  0
LINE
  8
200
  6
AUSGEZOGEN
 10
 621.0000
 20
 354.1400
 11
 615.1400
 21
 360.0000
  0
LINE
  8
200
  6
AUSGEZOGEN
 10
 615.1400
 20
 340.0000
 11
 621.0000
 21
 345.8600
  0
LINE
  8
200
  6
AUSGEZOGEN
 10
1557.5000
 20
  80.0000
 11
 594.5000
 21
  80.0000
  0
LINE
  8
200
  6
AUSGEZOGEN
 10
1576.0000
 20
 361.5000
 11
1576.0000
 21
  98.5000
  0
LINE
  8
200
  6
AUSGEZOGEN
 10
  25.0000
 20
 675.0000
 11
2075.0000
 21
 675.0000
  0
LINE
  8
200
  6
AUSGEZOGEN
 10
2100.0000
 20
   0.0000
 11
2100.0000
 21
 700.0000
  0
LINE
  8
200
  6
AUSGEZOGEN
 10
   0.0000
 20
   0.0000
 11
2100.0000
 21
   0.0000
  0
LINE
  8
200
  6
AUSGEZOGEN
 10
   0.0000
 20
 700.0000
 11
   0.0000
 21
   0.0000
  0
LINE
  8
200
  6
AUSGEZOGEN
 10
2100.0000
 20
 700.0000
 11
   0.0000
 21
 700.0000
  0
LINE
  8
200
  6
AUSGEZOGEN
 10
1986.9000
 20
  89.1000
 11
1996.0000
 21
 105.9000
  0
LINE
  8
200
  6
AUSGEZOGEN
 10
1970.1000
 20
  80.0000
 11
1986.9000
 21
  89.1000
  0
LINE
  8
200
  6
AUSGEZOGEN
 10
1705.1000
 20
  89.1000
 11
1721.9000
 21
  80.0000
  0
LINE
  8
200
  6
AUSGEZOGEN
 10
1696.0000
 20
 105.9000
 11
1705.1000
 21
  89.1000
  0
LINE
  8
200
  6
AUSGEZOGEN
 10
1696.0000
 20
 554.1000
 11
1696.0000
 21
 105.9000
  0
LINE
  8
200
  6
AUSGEZOGEN
 10
1705.1000
 20
 570.9000
 11
1696.0000
 21
 554.1000
  0
LINE
  8
200
  6
AUSGEZOGEN
 10
1721.9000
 20
 580.0000
 11
1705.1000
 21
 570.9000
  0
LINE
  8
200
  6
AUSGEZOGEN
 10
1970.1000
 20
 580.0000
 11
1721.9000
 21
 580.0000
  0
LINE
  8
200
  6
AUSGEZOGEN
 10
1986.9000
 20
 570.9000
 11
1970.1000
 21
 580.0000
  0
LINE
  8
200
  6
AUSGEZOGEN
 10
1996.0000
 20
 554.1000
 11
1986.9000
 21
 570.9000
  0
CIRCLE
  8
200
  6
AUSGEZOGEN
 10
1846.0000
 20
 510.0000
 40
  40.0000
  0
LINE
  8
200
  6
AUSGEZOGEN
 10
1721.9000
 20
  80.0000
 11
1970.1000
 21
  80.0000
  0
LINE
  8
200
  6
AUSGEZOGEN
 10
1996.0000
 20
 554.1000
 11
1996.0000
 21
 105.9000
  0
LINE
  8
200
  6
AUSGEZOGEN
 10
  25.0000
 20
  25.0000
 11
2075.0000
 21
  25.0000
  0
LINE
  8
200
  6
AUSGEZOGEN
 10
2075.0000
 20
 675.0000
 11
2075.0000
 21
  25.0000
  0
LINE
  8
200
  6
AUSGEZOGEN
 10
  25.0000
 20
  25.0000
 11
  25.0000
 21
 675.0000
  0
TEXT
  8
400
 10
2625.0000
 20
 580.0000
 40
  45.0000
  1
EZ: 230V 50Hz, Kabellänge 2,5m 0,04kW
 50
   0.0000
 41
   0.6000
  7
STANDARD
  0
TEXT
  8
410
 10
2625.0000
 20
 100.0000
 40
  45.0000
  1
TWk: DN15
 50
   0.0000
 41
   0.6000
  7
STANDARD
  0
TEXT
  8
420
 10
2625.0000
 20
 220.0000
 40
  45.0000
  1
A: DN50 Trichterablauf, unter Boden baus. syphoniert
 50
   0.0000
 41
   0.6000
  7
STANDARD
  0
TEXT
  8
440
 10
2625.0000
 20
 460.0000
 40
  45.0000
  1
KL: DN8 Saugleitung
 50
   0.0000
 41
   0.6000
  7
STANDARD
  0
TEXT
  8
440
 10
2625.0000
 20
 340.0000
 40
  45.0000
  1
KL: DN6 Flüssigkeitsleitung
 50
   0.0000
 41
   0.6000
  7
STANDARD
  0
ATTDEF
  8
550
 10
10.0
 20
100.0
 30
0.0
 40
30
  1
CCO-GTO731R81-MS
  2
CCO-GTO731R81-MSD
  3
HKI-Nummer
 70
1
  0
TEXT
  8
510
 10
10.0
 20
-45.0
 30
0.0
 40
30
  1
CCO-GTO731R81-MS
 50
0.0
 41
1.0
  7
STANDARD
  0
ENDSEC
  0
EOF
