  0
SECTION
  2
HEADER
  9
$ACADVER
  1
AC1009
  9
$INSBASE
 10
   0.0000
 20
   0.0000
 30
    0.0
  9
$EXTMIN
 10
-305.0000
 20
-147.5000
 30
   0.0000
  9
$EXTMAX
 10
5413.7130
 20
1013.0000
 30
   0.0000
  9
$LTSCALE
 40
1.00
  9
$PSLTSCALE
 70
1
  0
ENDSEC
  0
SECTION
  2
TABLES
  0
TABLE
  2
LTYPE
 70
  5
  0
LTYPE
  2
AUSGEZOGEN
 70
 64
  3
AUSGEZOGEN
 72
 65
 73
  0
 40
0.0
  0
LTYPE
  2
PUNKTIERT
 70
 64
  3
Gepunktet
 72
 65
 73
  2
 40
30.0000
 49
0.0
 49
-30.0000
  0
LTYPE
  2
STRICHLIERT
 70
 64
  3
Strichliert
 72
 65
 73
  2
 40
80.0000
 49
50.0000
 49
-30.0000
  0
LTYPE
  2
STRICHPUNKT
 70
 64
  3
Strichpunktet
 72
 65
 73
  4
 40
160.0000
 49
100.0000
 49
-30.0000
 49
0.0
 49
-30.0000
  0
LTYPE
  2
STRICHPUNKTPUNKT
 70
 64
  3
Strichpunktpunktet
 72
 65
 73
  6
 40
190.0000
 49
100.0000
 49
-30.0000
 49
0.0
 49
-30.0000
 49
0.0
 49
-30.0000
  0
ENDTAB
  0
TABLE
  2
LAYER
 70
7
  0
LAYER
  2
550
 70
  0
 62
  2
  6
AUSGEZOGEN
  0
LAYER
  2
510
 70
  0
 62
  2
  6
AUSGEZOGEN
  0
LAYER
  2
0
 70
  0
 62
  1
  6
AUSGEZOGEN
  0
LAYER
  2
200
 70
  0
 62
  7
  6
AUSGEZOGEN
999
SWS-Layer-Line-Width
999
0.20
  0
LAYER
  2
400
 70
  0
 62
  4
  6
AUSGEZOGEN
999
SWS-Layer-Line-Width
999
0.30
  0
LAYER
  2
410
 70
  0
 62
  6
  6
AUSGEZOGEN
  0
LAYER
  2
420
 70
  0
 62
  2
  6
AUSGEZOGEN
  0
ENDTAB
  0
TABLE
  2
STYLE
 70
  1
  0
STYLE
  2
STANDARD
 70
 64
 40
0.0
 41
1.0
 50
0.0
 71
  0
 42
30.0
  3
TXT.SHX
  4

  0
ENDTAB
  0
ENDSEC
  0
SECTION
  2
ENTITIES
  0
LINE
  8
400
  6
AUSGEZOGEN
 10
2400.0000
 20
   0.0000
 11
3799.0000
 21
 846.5000
  0
LINE
  8
400
  6
AUSGEZOGEN
 10
5198.8300
 20
 846.5000
 11
3799.0000
 21
 846.5000
  0
LINE
  8
400
  6
AUSGEZOGEN
 10
2400.0000
 20
   0.0000
 11
2400.0000
 21
  75.0000
  0
LINE
  8
400
  6
AUSGEZOGEN
 10
2400.0000
 20
 -75.0000
 11
2400.0000
 21
   0.0000
  0
LINE
  8
400
  6
AUSGEZOGEN
 10
2475.0000
 20
   0.0000
 11
2400.0000
 21
   0.0000
  0
LINE
  8
400
  6
AUSGEZOGEN
 10
2325.0000
 20
   0.0000
 11
2400.0000
 21
   0.0000
  0
CIRCLE
  8
400
  6
AUSGEZOGEN
 10
2400.0000
 20
   0.0000
 40
  50.0000
  0
LINE
  8
410
  6
AUSGEZOGEN
 10
2400.0000
 20
   0.0000
 11
3799.0000
 21
 726.5000
  0
LINE
  8
410
  6
AUSGEZOGEN
 10
4042.2600
 20
 726.5000
 11
3799.0000
 21
 726.5000
  0
LINE
  8
410
  6
AUSGEZOGEN
 10
2400.0000
 20
   0.0000
 11
2400.0000
 21
  75.0000
  0
LINE
  8
410
  6
AUSGEZOGEN
 10
2400.0000
 20
 -75.0000
 11
2400.0000
 21
   0.0000
  0
LINE
  8
410
  6
AUSGEZOGEN
 10
2475.0000
 20
   0.0000
 11
2400.0000
 21
   0.0000
  0
LINE
  8
410
  6
AUSGEZOGEN
 10
2325.0000
 20
   0.0000
 11
2400.0000
 21
   0.0000
  0
CIRCLE
  8
410
  6
AUSGEZOGEN
 10
2400.0000
 20
   0.0000
 40
  50.0000
  0
LINE
  8
420
  6
AUSGEZOGEN
 10
2400.0000
 20
   0.0000
 11
3799.0000
 21
 606.5000
  0
LINE
  8
420
  6
AUSGEZOGEN
 10
5103.9300
 20
 606.5000
 11
3799.0000
 21
 606.5000
  0
LINE
  8
420
  6
AUSGEZOGEN
 10
2400.0000
 20
   0.0000
 11
2400.0000
 21
  75.0000
  0
LINE
  8
420
  6
AUSGEZOGEN
 10
2400.0000
 20
 -75.0000
 11
2400.0000
 21
   0.0000
  0
LINE
  8
420
  6
AUSGEZOGEN
 10
2475.0000
 20
   0.0000
 11
2400.0000
 21
   0.0000
  0
LINE
  8
420
  6
AUSGEZOGEN
 10
2325.0000
 20
   0.0000
 11
2400.0000
 21
   0.0000
  0
CIRCLE
  8
420
  6
AUSGEZOGEN
 10
2400.0000
 20
   0.0000
 40
  50.0000
  0
LINE
  8
200
  6
AUSGEZOGEN
 10
2268.6900
 20
 407.3000
 11
2268.0000
 21
 402.1200
  0
LINE
  8
200
  6
AUSGEZOGEN
 10
2268.0000
 20
 356.3500
 11
2268.6900
 21
 361.5300
  0
LINE
  8
200
  6
AUSGEZOGEN
 10
2268.0000
 20
 310.5800
 11
2268.6900
 21
 315.7600
  0
LINE
  8
200
  6
AUSGEZOGEN
 10
2268.0000
 20
 264.8100
 11
2268.6900
 21
 269.9900
  0
LINE
  8
200
  6
AUSGEZOGEN
 10
2268.0000
 20
 219.0400
 11
2268.6900
 21
 224.2200
  0
LINE
  8
200
  6
AUSGEZOGEN
 10
2268.6900
 20
 498.8400
 11
2268.0000
 21
 493.6600
  0
LINE
  8
200
  6
AUSGEZOGEN
 10
2268.0000
 20
 447.8900
 11
2268.6900
 21
 453.0700
  0
LINE
  8
200
  6
AUSGEZOGEN
 10
2285.7800
 20
 471.2000
 11
2285.0800
 21
 466.0200
  0
LINE
  8
200
  6
AUSGEZOGEN
 10
2282.5000
 20
 464.6200
 11
2285.0800
 21
 466.0200
  0
LINE
  8
200
  6
AUSGEZOGEN
 10
2268.6900
 20
 498.8400
 11
2271.2800
 21
 500.0000
  0
LINE
  8
200
  6
AUSGEZOGEN
 10
2302.8600
 20
 466.0200
 11
2303.5500
 21
 471.2000
  0
LINE
  8
200
  6
AUSGEZOGEN
 10
2300.2700
 20
 464.6200
 11
2302.8600
 21
 466.0200
  0
LINE
  8
200
  6
AUSGEZOGEN
 10
2286.4800
 20
 498.8400
 11
2285.7800
 21
 493.6600
  0
LINE
  8
200
  6
AUSGEZOGEN
 10
2289.0600
 20
 500.0000
 11
2286.4800
 21
 498.8400
  0
LINE
  8
200
  6
AUSGEZOGEN
 10
2320.6400
 20
 466.0200
 11
2321.3400
 21
 471.2000
  0
LINE
  8
200
  6
AUSGEZOGEN
 10
2318.0500
 20
 464.6200
 11
2320.6400
 21
 466.0200
  0
LINE
  8
200
  6
AUSGEZOGEN
 10
2304.2500
 20
 498.8400
 11
2303.5500
 21
 493.6600
  0
LINE
  8
200
  6
AUSGEZOGEN
 10
2306.8400
 20
 500.0000
 11
2304.2500
 21
 498.8400
  0
LINE
  8
200
  6
AUSGEZOGEN
 10
2338.4100
 20
 466.0200
 11
2339.1100
 21
 471.2000
  0
LINE
  8
200
  6
AUSGEZOGEN
 10
2335.8300
 20
 464.6200
 11
2338.4100
 21
 466.0200
  0
LINE
  8
200
  6
AUSGEZOGEN
 10
2322.0300
 20
 498.8400
 11
2321.3400
 21
 493.6600
  0
LINE
  8
200
  6
AUSGEZOGEN
 10
2324.6200
 20
 500.0000
 11
2322.0300
 21
 498.8400
  0
LINE
  8
200
  6
AUSGEZOGEN
 10
2356.1900
 20
 466.0200
 11
2356.8900
 21
 471.2000
  0
LINE
  8
200
  6
AUSGEZOGEN
 10
2353.6100
 20
 464.6200
 11
2356.1900
 21
 466.0200
  0
LINE
  8
200
  6
AUSGEZOGEN
 10
2339.8100
 20
 498.8400
 11
2339.1100
 21
 493.6600
  0
LINE
  8
200
  6
AUSGEZOGEN
 10
2342.3900
 20
 500.0000
 11
2339.8100
 21
 498.8400
  0
LINE
  8
200
  6
AUSGEZOGEN
 10
2373.9700
 20
 466.0200
 11
2374.6700
 21
 471.2000
  0
LINE
  8
200
  6
AUSGEZOGEN
 10
2371.3800
 20
 464.6200
 11
2373.9700
 21
 466.0200
  0
LINE
  8
200
  6
AUSGEZOGEN
 10
2357.5900
 20
 498.8400
 11
2356.8900
 21
 493.6600
  0
LINE
  8
200
  6
AUSGEZOGEN
 10
2360.1700
 20
 500.0000
 11
2357.5900
 21
 498.8400
  0
LINE
  8
200
  6
AUSGEZOGEN
 10
2391.7500
 20
 466.0200
 11
2392.4500
 21
 471.2000
  0
LINE
  8
200
  6
AUSGEZOGEN
 10
2389.1600
 20
 464.6200
 11
2391.7500
 21
 466.0200
  0
LINE
  8
200
  6
AUSGEZOGEN
 10
2375.3600
 20
 498.8400
 11
2374.6700
 21
 493.6600
  0
LINE
  8
200
  6
AUSGEZOGEN
 10
2377.9500
 20
 500.0000
 11
2375.3600
 21
 498.8400
  0
LINE
  8
200
  6
AUSGEZOGEN
 10
2409.5300
 20
 466.0200
 11
2410.2200
 21
 471.2000
  0
LINE
  8
200
  6
AUSGEZOGEN
 10
2406.9400
 20
 464.6200
 11
2409.5300
 21
 466.0200
  0
LINE
  8
200
  6
AUSGEZOGEN
 10
2393.1400
 20
 498.8400
 11
2392.4500
 21
 493.6600
  0
LINE
  8
200
  6
AUSGEZOGEN
 10
2395.7300
 20
 500.0000
 11
2393.1400
 21
 498.8400
  0
LINE
  8
200
  6
AUSGEZOGEN
 10
2427.3100
 20
 466.0200
 11
2428.0000
 21
 471.2000
  0
LINE
  8
200
  6
AUSGEZOGEN
 10
2424.7200
 20
 464.6200
 11
2427.3100
 21
 466.0200
  0
LINE
  8
200
  6
AUSGEZOGEN
 10
2410.9200
 20
 498.8400
 11
2410.2200
 21
 493.6600
  0
LINE
  8
200
  6
AUSGEZOGEN
 10
2413.5000
 20
 500.0000
 11
2410.9200
 21
 498.8400
  0
LINE
  8
200
  6
AUSGEZOGEN
 10
2285.0800
 20
 420.2500
 11
2285.7800
 21
 425.4300
  0
LINE
  8
200
  6
AUSGEZOGEN
 10
2282.5000
 20
 418.8500
 11
2285.0800
 21
 420.2500
  0
LINE
  8
200
  6
AUSGEZOGEN
 10
2268.6900
 20
 453.0700
 11
2271.2800
 21
 454.4600
  0
LINE
  8
200
  6
AUSGEZOGEN
 10
2302.8600
 20
 420.2500
 11
2303.5500
 21
 425.4300
  0
LINE
  8
200
  6
AUSGEZOGEN
 10
2300.2700
 20
 418.8500
 11
2302.8600
 21
 420.2500
  0
LINE
  8
200
  6
AUSGEZOGEN
 10
2286.4800
 20
 453.0700
 11
2285.7800
 21
 447.8900
  0
LINE
  8
200
  6
AUSGEZOGEN
 10
2289.0600
 20
 454.4600
 11
2286.4800
 21
 453.0700
  0
LINE
  8
200
  6
AUSGEZOGEN
 10
2303.5500
 20
 425.4300
 11
2289.0600
 21
 454.4600
  0
LINE
  8
200
  6
AUSGEZOGEN
 10
2320.6400
 20
 420.2500
 11
2321.3400
 21
 425.4300
  0
LINE
  8
200
  6
AUSGEZOGEN
 10
2318.0500
 20
 418.8500
 11
2320.6400
 21
 420.2500
  0
LINE
  8
200
  6
AUSGEZOGEN
 10
2304.2500
 20
 453.0700
 11
2303.5500
 21
 447.8900
  0
LINE
  8
200
  6
AUSGEZOGEN
 10
2306.8400
 20
 454.4600
 11
2304.2500
 21
 453.0700
  0
LINE
  8
200
  6
AUSGEZOGEN
 10
2338.4100
 20
 420.2500
 11
2339.1100
 21
 425.4300
  0
LINE
  8
200
  6
AUSGEZOGEN
 10
2335.8300
 20
 418.8500
 11
2338.4100
 21
 420.2500
  0
LINE
  8
200
  6
AUSGEZOGEN
 10
2322.0300
 20
 453.0700
 11
2321.3400
 21
 447.8900
  0
LINE
  8
200
  6
AUSGEZOGEN
 10
2324.6200
 20
 454.4600
 11
2322.0300
 21
 453.0700
  0
LINE
  8
200
  6
AUSGEZOGEN
 10
2339.1100
 20
 425.4300
 11
2324.6200
 21
 454.4600
  0
LINE
  8
200
  6
AUSGEZOGEN
 10
2356.1900
 20
 420.2500
 11
2356.8900
 21
 425.4300
  0
LINE
  8
200
  6
AUSGEZOGEN
 10
2353.6100
 20
 418.8500
 11
2356.1900
 21
 420.2500
  0
LINE
  8
200
  6
AUSGEZOGEN
 10
2339.8100
 20
 453.0700
 11
2339.1100
 21
 447.8900
  0
LINE
  8
200
  6
AUSGEZOGEN
 10
2342.3900
 20
 454.4600
 11
2339.8100
 21
 453.0700
  0
LINE
  8
200
  6
AUSGEZOGEN
 10
2373.9700
 20
 420.2500
 11
2374.6700
 21
 425.4300
  0
LINE
  8
200
  6
AUSGEZOGEN
 10
2371.3800
 20
 418.8500
 11
2373.9700
 21
 420.2500
  0
LINE
  8
200
  6
AUSGEZOGEN
 10
2357.5900
 20
 453.0700
 11
2356.8900
 21
 447.8900
  0
LINE
  8
200
  6
AUSGEZOGEN
 10
2360.1700
 20
 454.4600
 11
2357.5900
 21
 453.0700
  0
LINE
  8
200
  6
AUSGEZOGEN
 10
2391.7500
 20
 420.2500
 11
2392.4500
 21
 425.4300
  0
LINE
  8
200
  6
AUSGEZOGEN
 10
2389.1600
 20
 418.8500
 11
2391.7500
 21
 420.2500
  0
LINE
  8
200
  6
AUSGEZOGEN
 10
2375.3600
 20
 453.0700
 11
2374.6700
 21
 447.8900
  0
LINE
  8
200
  6
AUSGEZOGEN
 10
2377.9500
 20
 454.4600
 11
2375.3600
 21
 453.0700
  0
LINE
  8
200
  6
AUSGEZOGEN
 10
2409.5300
 20
 420.2500
 11
2410.2200
 21
 425.4300
  0
LINE
  8
200
  6
AUSGEZOGEN
 10
2406.9400
 20
 418.8500
 11
2409.5300
 21
 420.2500
  0
LINE
  8
200
  6
AUSGEZOGEN
 10
2393.1400
 20
 453.0700
 11
2392.4500
 21
 447.8900
  0
LINE
  8
200
  6
AUSGEZOGEN
 10
2395.7300
 20
 454.4600
 11
2393.1400
 21
 453.0700
  0
LINE
  8
200
  6
AUSGEZOGEN
 10
2410.2200
 20
 425.4300
 11
2395.7300
 21
 454.4600
  0
LINE
  8
200
  6
AUSGEZOGEN
 10
2427.3100
 20
 420.2500
 11
2428.0000
 21
 425.4300
  0
LINE
  8
200
  6
AUSGEZOGEN
 10
2424.7200
 20
 418.8500
 11
2427.3100
 21
 420.2500
  0
LINE
  8
200
  6
AUSGEZOGEN
 10
2410.9200
 20
 453.0700
 11
2410.2200
 21
 447.8900
  0
LINE
  8
200
  6
AUSGEZOGEN
 10
2413.5000
 20
 454.4600
 11
2410.9200
 21
 453.0700
  0
LINE
  8
200
  6
AUSGEZOGEN
 10
2285.0800
 20
 374.4800
 11
2285.7800
 21
 379.6600
  0
LINE
  8
200
  6
AUSGEZOGEN
 10
2282.5000
 20
 373.0800
 11
2285.0800
 21
 374.4800
  0
LINE
  8
200
  6
AUSGEZOGEN
 10
2268.6900
 20
 407.3000
 11
2271.2800
 21
 408.6900
  0
LINE
  8
200
  6
AUSGEZOGEN
 10
2302.8600
 20
 374.4800
 11
2303.5500
 21
 379.6600
  0
LINE
  8
200
  6
AUSGEZOGEN
 10
2300.2700
 20
 373.0800
 11
2302.8600
 21
 374.4800
  0
LINE
  8
200
  6
AUSGEZOGEN
 10
2286.4800
 20
 407.3000
 11
2285.7800
 21
 402.1200
  0
LINE
  8
200
  6
AUSGEZOGEN
 10
2289.0600
 20
 408.6900
 11
2286.4800
 21
 407.3000
  0
LINE
  8
200
  6
AUSGEZOGEN
 10
2303.5500
 20
 379.6600
 11
2289.0600
 21
 408.6900
  0
LINE
  8
200
  6
AUSGEZOGEN
 10
2320.6400
 20
 374.4800
 11
2321.3400
 21
 379.6600
  0
LINE
  8
200
  6
AUSGEZOGEN
 10
2318.0500
 20
 373.0800
 11
2320.6400
 21
 374.4800
  0
LINE
  8
200
  6
AUSGEZOGEN
 10
2304.2500
 20
 407.3000
 11
2303.5500
 21
 402.1200
  0
LINE
  8
200
  6
AUSGEZOGEN
 10
2306.8400
 20
 408.6900
 11
2304.2500
 21
 407.3000
  0
LINE
  8
200
  6
AUSGEZOGEN
 10
2338.4100
 20
 374.4800
 11
2339.1100
 21
 379.6600
  0
LINE
  8
200
  6
AUSGEZOGEN
 10
2335.8300
 20
 373.0800
 11
2338.4100
 21
 374.4800
  0
LINE
  8
200
  6
AUSGEZOGEN
 10
2322.0300
 20
 407.3000
 11
2321.3400
 21
 402.1200
  0
LINE
  8
200
  6
AUSGEZOGEN
 10
2324.6200
 20
 408.6900
 11
2322.0300
 21
 407.3000
  0
LINE
  8
200
  6
AUSGEZOGEN
 10
2339.1100
 20
 379.6600
 11
2324.6200
 21
 408.6900
  0
LINE
  8
200
  6
AUSGEZOGEN
 10
2356.1900
 20
 374.4800
 11
2356.8900
 21
 379.6600
  0
LINE
  8
200
  6
AUSGEZOGEN
 10
2353.6100
 20
 373.0800
 11
2356.1900
 21
 374.4800
  0
LINE
  8
200
  6
AUSGEZOGEN
 10
2339.8100
 20
 407.3000
 11
2339.1100
 21
 402.1200
  0
LINE
  8
200
  6
AUSGEZOGEN
 10
2342.3900
 20
 408.6900
 11
2339.8100
 21
 407.3000
  0
LINE
  8
200
  6
AUSGEZOGEN
 10
2373.9700
 20
 374.4800
 11
2374.6700
 21
 379.6600
  0
LINE
  8
200
  6
AUSGEZOGEN
 10
2371.3800
 20
 373.0800
 11
2373.9700
 21
 374.4800
  0
LINE
  8
200
  6
AUSGEZOGEN
 10
2357.5900
 20
 407.3000
 11
2356.8900
 21
 402.1200
  0
LINE
  8
200
  6
AUSGEZOGEN
 10
2360.1700
 20
 408.6900
 11
2357.5900
 21
 407.3000
  0
LINE
  8
200
  6
AUSGEZOGEN
 10
2391.7500
 20
 374.4800
 11
2392.4500
 21
 379.6600
  0
LINE
  8
200
  6
AUSGEZOGEN
 10
2389.1600
 20
 373.0800
 11
2391.7500
 21
 374.4800
  0
LINE
  8
200
  6
AUSGEZOGEN
 10
2375.3600
 20
 407.3000
 11
2374.6700
 21
 402.1200
  0
LINE
  8
200
  6
AUSGEZOGEN
 10
2377.9500
 20
 408.6900
 11
2375.3600
 21
 407.3000
  0
LINE
  8
200
  6
AUSGEZOGEN
 10
2409.5300
 20
 374.4800
 11
2410.2200
 21
 379.6600
  0
LINE
  8
200
  6
AUSGEZOGEN
 10
2406.9400
 20
 373.0800
 11
2409.5300
 21
 374.4800
  0
LINE
  8
200
  6
AUSGEZOGEN
 10
2393.1400
 20
 407.3000
 11
2392.4500
 21
 402.1200
  0
LINE
  8
200
  6
AUSGEZOGEN
 10
2395.7300
 20
 408.6900
 11
2393.1400
 21
 407.3000
  0
LINE
  8
200
  6
AUSGEZOGEN
 10
2410.2200
 20
 379.6600
 11
2395.7300
 21
 408.6900
  0
LINE
  8
200
  6
AUSGEZOGEN
 10
2427.3100
 20
 374.4800
 11
2428.0000
 21
 379.6600
  0
LINE
  8
200
  6
AUSGEZOGEN
 10
2424.7200
 20
 373.0800
 11
2427.3100
 21
 374.4800
  0
LINE
  8
200
  6
AUSGEZOGEN
 10
2410.9200
 20
 407.3000
 11
2410.2200
 21
 402.1200
  0
LINE
  8
200
  6
AUSGEZOGEN
 10
2413.5000
 20
 408.6900
 11
2410.9200
 21
 407.3000
  0
LINE
  8
200
  6
AUSGEZOGEN
 10
2285.0800
 20
 328.7000
 11
2285.7800
 21
 333.8900
  0
LINE
  8
200
  6
AUSGEZOGEN
 10
2282.5000
 20
 327.3100
 11
2285.0800
 21
 328.7000
  0
LINE
  8
200
  6
AUSGEZOGEN
 10
2268.6900
 20
 361.5300
 11
2271.2800
 21
 362.9200
  0
LINE
  8
200
  6
AUSGEZOGEN
 10
2302.8600
 20
 328.7000
 11
2303.5500
 21
 333.8900
  0
LINE
  8
200
  6
AUSGEZOGEN
 10
2300.2700
 20
 327.3100
 11
2302.8600
 21
 328.7000
  0
LINE
  8
200
  6
AUSGEZOGEN
 10
2286.4800
 20
 361.5300
 11
2285.7800
 21
 356.3500
  0
LINE
  8
200
  6
AUSGEZOGEN
 10
2289.0600
 20
 362.9200
 11
2286.4800
 21
 361.5300
  0
LINE
  8
200
  6
AUSGEZOGEN
 10
2303.5500
 20
 333.8900
 11
2289.0600
 21
 362.9200
  0
LINE
  8
200
  6
AUSGEZOGEN
 10
2320.6400
 20
 328.7000
 11
2321.3400
 21
 333.8900
  0
LINE
  8
200
  6
AUSGEZOGEN
 10
2318.0500
 20
 327.3100
 11
2320.6400
 21
 328.7000
  0
LINE
  8
200
  6
AUSGEZOGEN
 10
2304.2500
 20
 361.5300
 11
2303.5500
 21
 356.3500
  0
LINE
  8
200
  6
AUSGEZOGEN
 10
2306.8400
 20
 362.9200
 11
2304.2500
 21
 361.5300
  0
LINE
  8
200
  6
AUSGEZOGEN
 10
2338.4100
 20
 328.7000
 11
2339.1100
 21
 333.8900
  0
LINE
  8
200
  6
AUSGEZOGEN
 10
2335.8300
 20
 327.3100
 11
2338.4100
 21
 328.7000
  0
LINE
  8
200
  6
AUSGEZOGEN
 10
2322.0300
 20
 361.5300
 11
2321.3400
 21
 356.3500
  0
LINE
  8
200
  6
AUSGEZOGEN
 10
2324.6200
 20
 362.9200
 11
2322.0300
 21
 361.5300
  0
LINE
  8
200
  6
AUSGEZOGEN
 10
2339.1100
 20
 333.8900
 11
2324.6200
 21
 362.9200
  0
LINE
  8
200
  6
AUSGEZOGEN
 10
2356.1900
 20
 328.7000
 11
2356.8900
 21
 333.8900
  0
LINE
  8
200
  6
AUSGEZOGEN
 10
2353.6100
 20
 327.3100
 11
2356.1900
 21
 328.7000
  0
LINE
  8
200
  6
AUSGEZOGEN
 10
2339.8100
 20
 361.5300
 11
2339.1100
 21
 356.3500
  0
LINE
  8
200
  6
AUSGEZOGEN
 10
2342.3900
 20
 362.9200
 11
2339.8100
 21
 361.5300
  0
LINE
  8
200
  6
AUSGEZOGEN
 10
2373.9700
 20
 328.7000
 11
2374.6700
 21
 333.8900
  0
LINE
  8
200
  6
AUSGEZOGEN
 10
2371.3800
 20
 327.3100
 11
2373.9700
 21
 328.7000
  0
LINE
  8
200
  6
AUSGEZOGEN
 10
2357.5900
 20
 361.5300
 11
2356.8900
 21
 356.3500
  0
LINE
  8
200
  6
AUSGEZOGEN
 10
2360.1700
 20
 362.9200
 11
2357.5900
 21
 361.5300
  0
LINE
  8
200
  6
AUSGEZOGEN
 10
2391.7500
 20
 328.7000
 11
2392.4500
 21
 333.8900
  0
LINE
  8
200
  6
AUSGEZOGEN
 10
2389.1600
 20
 327.3100
 11
2391.7500
 21
 328.7000
  0
LINE
  8
200
  6
AUSGEZOGEN
 10
2375.3600
 20
 361.5300
 11
2374.6700
 21
 356.3500
  0
LINE
  8
200
  6
AUSGEZOGEN
 10
2377.9500
 20
 362.9200
 11
2375.3600
 21
 361.5300
  0
LINE
  8
200
  6
AUSGEZOGEN
 10
2409.5300
 20
 328.7000
 11
2410.2200
 21
 333.8900
  0
LINE
  8
200
  6
AUSGEZOGEN
 10
2406.9400
 20
 327.3100
 11
2409.5300
 21
 328.7000
  0
LINE
  8
200
  6
AUSGEZOGEN
 10
2393.1400
 20
 361.5300
 11
2392.4500
 21
 356.3500
  0
LINE
  8
200
  6
AUSGEZOGEN
 10
2395.7300
 20
 362.9200
 11
2393.1400
 21
 361.5300
  0
LINE
  8
200
  6
AUSGEZOGEN
 10
2410.2200
 20
 333.8900
 11
2395.7300
 21
 362.9200
  0
LINE
  8
200
  6
AUSGEZOGEN
 10
2427.3100
 20
 328.7000
 11
2428.0000
 21
 333.8900
  0
LINE
  8
200
  6
AUSGEZOGEN
 10
2424.7200
 20
 327.3100
 11
2427.3100
 21
 328.7000
  0
LINE
  8
200
  6
AUSGEZOGEN
 10
2410.9200
 20
 361.5300
 11
2410.2200
 21
 356.3500
  0
LINE
  8
200
  6
AUSGEZOGEN
 10
2413.5000
 20
 362.9200
 11
2410.9200
 21
 361.5300
  0
LINE
  8
200
  6
AUSGEZOGEN
 10
2285.0800
 20
 282.9300
 11
2285.7800
 21
 288.1200
  0
LINE
  8
200
  6
AUSGEZOGEN
 10
2282.5000
 20
 281.5400
 11
2285.0800
 21
 282.9300
  0
LINE
  8
200
  6
AUSGEZOGEN
 10
2268.6900
 20
 315.7600
 11
2271.2800
 21
 317.1500
  0
LINE
  8
200
  6
AUSGEZOGEN
 10
2302.8600
 20
 282.9300
 11
2303.5500
 21
 288.1200
  0
LINE
  8
200
  6
AUSGEZOGEN
 10
2300.2700
 20
 281.5400
 11
2302.8600
 21
 282.9300
  0
LINE
  8
200
  6
AUSGEZOGEN
 10
2286.4800
 20
 315.7600
 11
2285.7800
 21
 310.5800
  0
LINE
  8
200
  6
AUSGEZOGEN
 10
2289.0600
 20
 317.1500
 11
2286.4800
 21
 315.7600
  0
LINE
  8
200
  6
AUSGEZOGEN
 10
2303.5500
 20
 288.1200
 11
2289.0600
 21
 317.1500
  0
LINE
  8
200
  6
AUSGEZOGEN
 10
2320.6400
 20
 282.9300
 11
2321.3400
 21
 288.1200
  0
LINE
  8
200
  6
AUSGEZOGEN
 10
2318.0500
 20
 281.5400
 11
2320.6400
 21
 282.9300
  0
LINE
  8
200
  6
AUSGEZOGEN
 10
2304.2500
 20
 315.7600
 11
2303.5500
 21
 310.5800
  0
LINE
  8
200
  6
AUSGEZOGEN
 10
2306.8400
 20
 317.1500
 11
2304.2500
 21
 315.7600
  0
LINE
  8
200
  6
AUSGEZOGEN
 10
2338.4100
 20
 282.9300
 11
2339.1100
 21
 288.1200
  0
LINE
  8
200
  6
AUSGEZOGEN
 10
2335.8300
 20
 281.5400
 11
2338.4100
 21
 282.9300
  0
LINE
  8
200
  6
AUSGEZOGEN
 10
2322.0300
 20
 315.7600
 11
2321.3400
 21
 310.5800
  0
LINE
  8
200
  6
AUSGEZOGEN
 10
2324.6200
 20
 317.1500
 11
2322.0300
 21
 315.7600
  0
LINE
  8
200
  6
AUSGEZOGEN
 10
2339.1100
 20
 288.1200
 11
2324.6200
 21
 317.1500
  0
LINE
  8
200
  6
AUSGEZOGEN
 10
2356.1900
 20
 282.9300
 11
2356.8900
 21
 288.1200
  0
LINE
  8
200
  6
AUSGEZOGEN
 10
2353.6100
 20
 281.5400
 11
2356.1900
 21
 282.9300
  0
LINE
  8
200
  6
AUSGEZOGEN
 10
2339.8100
 20
 315.7600
 11
2339.1100
 21
 310.5800
  0
LINE
  8
200
  6
AUSGEZOGEN
 10
2342.3900
 20
 317.1500
 11
2339.8100
 21
 315.7600
  0
LINE
  8
200
  6
AUSGEZOGEN
 10
2373.9700
 20
 282.9300
 11
2374.6700
 21
 288.1200
  0
LINE
  8
200
  6
AUSGEZOGEN
 10
2371.3800
 20
 281.5400
 11
2373.9700
 21
 282.9300
  0
LINE
  8
200
  6
AUSGEZOGEN
 10
2357.5900
 20
 315.7600
 11
2356.8900
 21
 310.5800
  0
LINE
  8
200
  6
AUSGEZOGEN
 10
2360.1700
 20
 317.1500
 11
2357.5900
 21
 315.7600
  0
LINE
  8
200
  6
AUSGEZOGEN
 10
2391.7500
 20
 282.9300
 11
2392.4500
 21
 288.1200
  0
LINE
  8
200
  6
AUSGEZOGEN
 10
2389.1600
 20
 281.5400
 11
2391.7500
 21
 282.9300
  0
LINE
  8
200
  6
AUSGEZOGEN
 10
2375.3600
 20
 315.7600
 11
2374.6700
 21
 310.5800
  0
LINE
  8
200
  6
AUSGEZOGEN
 10
2377.9500
 20
 317.1500
 11
2375.3600
 21
 315.7600
  0
LINE
  8
200
  6
AUSGEZOGEN
 10
2409.5300
 20
 282.9300
 11
2410.2200
 21
 288.1200
  0
LINE
  8
200
  6
AUSGEZOGEN
 10
2406.9400
 20
 281.5400
 11
2409.5300
 21
 282.9300
  0
LINE
  8
200
  6
AUSGEZOGEN
 10
2393.1400
 20
 315.7600
 11
2392.4500
 21
 310.5800
  0
LINE
  8
200
  6
AUSGEZOGEN
 10
2395.7300
 20
 317.1500
 11
2393.1400
 21
 315.7600
  0
LINE
  8
200
  6
AUSGEZOGEN
 10
2410.2200
 20
 288.1200
 11
2395.7300
 21
 317.1500
  0
LINE
  8
200
  6
AUSGEZOGEN
 10
2427.3100
 20
 282.9300
 11
2428.0000
 21
 288.1200
  0
LINE
  8
200
  6
AUSGEZOGEN
 10
2424.7200
 20
 281.5400
 11
2427.3100
 21
 282.9300
  0
LINE
  8
200
  6
AUSGEZOGEN
 10
2410.9200
 20
 315.7600
 11
2410.2200
 21
 310.5800
  0
LINE
  8
200
  6
AUSGEZOGEN
 10
2413.5000
 20
 317.1500
 11
2410.9200
 21
 315.7600
  0
LINE
  8
200
  6
AUSGEZOGEN
 10
2285.0800
 20
 237.1600
 11
2285.7800
 21
 242.3400
  0
LINE
  8
200
  6
AUSGEZOGEN
 10
2282.5000
 20
 235.7700
 11
2285.0800
 21
 237.1600
  0
LINE
  8
200
  6
AUSGEZOGEN
 10
2268.6900
 20
 269.9900
 11
2271.2800
 21
 271.3800
  0
LINE
  8
200
  6
AUSGEZOGEN
 10
2302.8600
 20
 237.1600
 11
2303.5500
 21
 242.3400
  0
LINE
  8
200
  6
AUSGEZOGEN
 10
2300.2700
 20
 235.7700
 11
2302.8600
 21
 237.1600
  0
LINE
  8
200
  6
AUSGEZOGEN
 10
2286.4800
 20
 269.9900
 11
2285.7800
 21
 264.8100
  0
LINE
  8
200
  6
AUSGEZOGEN
 10
2289.0600
 20
 271.3800
 11
2286.4800
 21
 269.9900
  0
LINE
  8
200
  6
AUSGEZOGEN
 10
2320.6400
 20
 237.1600
 11
2321.3400
 21
 242.3400
  0
LINE
  8
200
  6
AUSGEZOGEN
 10
2318.0500
 20
 235.7700
 11
2320.6400
 21
 237.1600
  0
LINE
  8
200
  6
AUSGEZOGEN
 10
2304.2500
 20
 269.9900
 11
2303.5500
 21
 264.8100
  0
LINE
  8
200
  6
AUSGEZOGEN
 10
2306.8400
 20
 271.3800
 11
2304.2500
 21
 269.9900
  0
LINE
  8
200
  6
AUSGEZOGEN
 10
2338.4100
 20
 237.1600
 11
2339.1100
 21
 242.3400
  0
LINE
  8
200
  6
AUSGEZOGEN
 10
2335.8300
 20
 235.7700
 11
2338.4100
 21
 237.1600
  0
LINE
  8
200
  6
AUSGEZOGEN
 10
2322.0300
 20
 269.9900
 11
2321.3400
 21
 264.8100
  0
LINE
  8
200
  6
AUSGEZOGEN
 10
2324.6200
 20
 271.3800
 11
2322.0300
 21
 269.9900
  0
LINE
  8
200
  6
AUSGEZOGEN
 10
2356.1900
 20
 237.1600
 11
2356.8900
 21
 242.3400
  0
LINE
  8
200
  6
AUSGEZOGEN
 10
2353.6100
 20
 235.7700
 11
2356.1900
 21
 237.1600
  0
LINE
  8
200
  6
AUSGEZOGEN
 10
2339.8100
 20
 269.9900
 11
2339.1100
 21
 264.8100
  0
LINE
  8
200
  6
AUSGEZOGEN
 10
2342.3900
 20
 271.3800
 11
2339.8100
 21
 269.9900
  0
LINE
  8
200
  6
AUSGEZOGEN
 10
2373.9700
 20
 237.1600
 11
2374.6700
 21
 242.3400
  0
LINE
  8
200
  6
AUSGEZOGEN
 10
2371.3800
 20
 235.7700
 11
2373.9700
 21
 237.1600
  0
LINE
  8
200
  6
AUSGEZOGEN
 10
2357.5900
 20
 269.9900
 11
2356.8900
 21
 264.8100
  0
LINE
  8
200
  6
AUSGEZOGEN
 10
2360.1700
 20
 271.3800
 11
2357.5900
 21
 269.9900
  0
LINE
  8
200
  6
AUSGEZOGEN
 10
2391.7500
 20
 237.1600
 11
2392.4500
 21
 242.3400
  0
LINE
  8
200
  6
AUSGEZOGEN
 10
2389.1600
 20
 235.7700
 11
2391.7500
 21
 237.1600
  0
LINE
  8
200
  6
AUSGEZOGEN
 10
2375.3600
 20
 269.9900
 11
2374.6700
 21
 264.8100
  0
LINE
  8
200
  6
AUSGEZOGEN
 10
2377.9500
 20
 271.3800
 11
2375.3600
 21
 269.9900
  0
LINE
  8
200
  6
AUSGEZOGEN
 10
2409.5300
 20
 237.1600
 11
2410.2200
 21
 242.3400
  0
LINE
  8
200
  6
AUSGEZOGEN
 10
2406.9400
 20
 235.7700
 11
2409.5300
 21
 237.1600
  0
LINE
  8
200
  6
AUSGEZOGEN
 10
2393.1400
 20
 269.9900
 11
2392.4500
 21
 264.8100
  0
LINE
  8
200
  6
AUSGEZOGEN
 10
2395.7300
 20
 271.3800
 11
2393.1400
 21
 269.9900
  0
LINE
  8
200
  6
AUSGEZOGEN
 10
2427.3100
 20
 237.1600
 11
2428.0000
 21
 242.3400
  0
LINE
  8
200
  6
AUSGEZOGEN
 10
2424.7200
 20
 235.7700
 11
2427.3100
 21
 237.1600
  0
LINE
  8
200
  6
AUSGEZOGEN
 10
2410.9200
 20
 269.9900
 11
2410.2200
 21
 264.8100
  0
LINE
  8
200
  6
AUSGEZOGEN
 10
2413.5000
 20
 271.3800
 11
2410.9200
 21
 269.9900
  0
LINE
  8
200
  6
AUSGEZOGEN
 10
2285.0800
 20
 191.3900
 11
2285.7800
 21
 196.5700
  0
LINE
  8
200
  6
AUSGEZOGEN
 10
2282.5000
 20
 190.0000
 11
2285.0800
 21
 191.3900
  0
LINE
  8
200
  6
AUSGEZOGEN
 10
2268.6900
 20
 224.2200
 11
2271.2800
 21
 225.6100
  0
LINE
  8
200
  6
AUSGEZOGEN
 10
2302.8600
 20
 191.3900
 11
2303.5500
 21
 196.5700
  0
LINE
  8
200
  6
AUSGEZOGEN
 10
2300.2700
 20
 190.0000
 11
2302.8600
 21
 191.3900
  0
LINE
  8
200
  6
AUSGEZOGEN
 10
2286.4800
 20
 224.2200
 11
2285.7800
 21
 219.0400
  0
LINE
  8
200
  6
AUSGEZOGEN
 10
2289.0600
 20
 225.6100
 11
2286.4800
 21
 224.2200
  0
LINE
  8
200
  6
AUSGEZOGEN
 10
2320.6400
 20
 191.3900
 11
2321.3400
 21
 196.5700
  0
LINE
  8
200
  6
AUSGEZOGEN
 10
2318.0500
 20
 190.0000
 11
2320.6400
 21
 191.3900
  0
LINE
  8
200
  6
AUSGEZOGEN
 10
2304.2500
 20
 224.2200
 11
2303.5500
 21
 219.0400
  0
LINE
  8
200
  6
AUSGEZOGEN
 10
2306.8400
 20
 225.6100
 11
2304.2500
 21
 224.2200
  0
LINE
  8
200
  6
AUSGEZOGEN
 10
2338.4100
 20
 191.3900
 11
2339.1100
 21
 196.5700
  0
LINE
  8
200
  6
AUSGEZOGEN
 10
2335.8300
 20
 190.0000
 11
2338.4100
 21
 191.3900
  0
LINE
  8
200
  6
AUSGEZOGEN
 10
2322.0300
 20
 224.2200
 11
2321.3400
 21
 219.0400
  0
LINE
  8
200
  6
AUSGEZOGEN
 10
2324.6200
 20
 225.6100
 11
2322.0300
 21
 224.2200
  0
LINE
  8
200
  6
AUSGEZOGEN
 10
2356.1900
 20
 191.3900
 11
2356.8900
 21
 196.5700
  0
LINE
  8
200
  6
AUSGEZOGEN
 10
2353.6100
 20
 190.0000
 11
2356.1900
 21
 191.3900
  0
LINE
  8
200
  6
AUSGEZOGEN
 10
2339.8100
 20
 224.2200
 11
2339.1100
 21
 219.0400
  0
LINE
  8
200
  6
AUSGEZOGEN
 10
2342.3900
 20
 225.6100
 11
2339.8100
 21
 224.2200
  0
LINE
  8
200
  6
AUSGEZOGEN
 10
2373.9700
 20
 191.3900
 11
2374.6700
 21
 196.5700
  0
LINE
  8
200
  6
AUSGEZOGEN
 10
2371.3800
 20
 190.0000
 11
2373.9700
 21
 191.3900
  0
LINE
  8
200
  6
AUSGEZOGEN
 10
2357.5900
 20
 224.2200
 11
2356.8900
 21
 219.0400
  0
LINE
  8
200
  6
AUSGEZOGEN
 10
2360.1700
 20
 225.6100
 11
2357.5900
 21
 224.2200
  0
LINE
  8
200
  6
AUSGEZOGEN
 10
2391.7500
 20
 191.3900
 11
2392.4500
 21
 196.5700
  0
LINE
  8
200
  6
AUSGEZOGEN
 10
2389.1600
 20
 190.0000
 11
2391.7500
 21
 191.3900
  0
LINE
  8
200
  6
AUSGEZOGEN
 10
2375.3600
 20
 224.2200
 11
2374.6700
 21
 219.0400
  0
LINE
  8
200
  6
AUSGEZOGEN
 10
2377.9500
 20
 225.6100
 11
2375.3600
 21
 224.2200
  0
LINE
  8
200
  6
AUSGEZOGEN
 10
2409.5300
 20
 191.3900
 11
2410.2200
 21
 196.5700
  0
LINE
  8
200
  6
AUSGEZOGEN
 10
2406.9400
 20
 190.0000
 11
2409.5300
 21
 191.3900
  0
LINE
  8
200
  6
AUSGEZOGEN
 10
2393.1400
 20
 224.2200
 11
2392.4500
 21
 219.0400
  0
LINE
  8
200
  6
AUSGEZOGEN
 10
2395.7300
 20
 225.6100
 11
2393.1400
 21
 224.2200
  0
LINE
  8
200
  6
AUSGEZOGEN
 10
2427.3100
 20
 191.3900
 11
2428.0000
 21
 196.5700
  0
LINE
  8
200
  6
AUSGEZOGEN
 10
2424.7200
 20
 190.0000
 11
2427.3100
 21
 191.3900
  0
LINE
  8
200
  6
AUSGEZOGEN
 10
2410.9200
 20
 224.2200
 11
2410.2200
 21
 219.0400
  0
LINE
  8
200
  6
AUSGEZOGEN
 10
2413.5000
 20
 225.6100
 11
2410.9200
 21
 224.2200
  0
LINE
  8
200
  6
AUSGEZOGEN
 10
2428.6900
 20
 407.3000
 11
2428.0000
 21
 402.1200
  0
LINE
  8
200
  6
AUSGEZOGEN
 10
2428.0000
 20
 356.3500
 11
2428.6900
 21
 361.5300
  0
LINE
  8
200
  6
AUSGEZOGEN
 10
2428.0000
 20
 310.5800
 11
2428.6900
 21
 315.7600
  0
LINE
  8
200
  6
AUSGEZOGEN
 10
2428.0000
 20
 264.8100
 11
2428.6900
 21
 269.9900
  0
LINE
  8
200
  6
AUSGEZOGEN
 10
2428.0000
 20
 219.0400
 11
2428.6900
 21
 224.2200
  0
LINE
  8
200
  6
AUSGEZOGEN
 10
2428.6900
 20
 498.8400
 11
2428.0000
 21
 493.6600
  0
LINE
  8
200
  6
AUSGEZOGEN
 10
2428.0000
 20
 447.8900
 11
2428.6900
 21
 453.0700
  0
LINE
  8
200
  6
AUSGEZOGEN
 10
2445.7800
 20
 471.2000
 11
2445.0800
 21
 466.0200
  0
LINE
  8
200
  6
AUSGEZOGEN
 10
2442.5000
 20
 464.6200
 11
2445.0800
 21
 466.0200
  0
LINE
  8
200
  6
AUSGEZOGEN
 10
2428.6900
 20
 498.8400
 11
2431.2800
 21
 500.0000
  0
LINE
  8
200
  6
AUSGEZOGEN
 10
2462.8600
 20
 466.0200
 11
2463.5500
 21
 471.2000
  0
LINE
  8
200
  6
AUSGEZOGEN
 10
2460.2700
 20
 464.6200
 11
2462.8600
 21
 466.0200
  0
LINE
  8
200
  6
AUSGEZOGEN
 10
2446.4800
 20
 498.8400
 11
2445.7800
 21
 493.6600
  0
LINE
  8
200
  6
AUSGEZOGEN
 10
2449.0600
 20
 500.0000
 11
2446.4800
 21
 498.8400
  0
LINE
  8
200
  6
AUSGEZOGEN
 10
2480.6400
 20
 466.0200
 11
2481.3400
 21
 471.2000
  0
LINE
  8
200
  6
AUSGEZOGEN
 10
2478.0500
 20
 464.6200
 11
2480.6400
 21
 466.0200
  0
LINE
  8
200
  6
AUSGEZOGEN
 10
2464.2500
 20
 498.8400
 11
2463.5500
 21
 493.6600
  0
LINE
  8
200
  6
AUSGEZOGEN
 10
2466.8400
 20
 500.0000
 11
2464.2500
 21
 498.8400
  0
LINE
  8
200
  6
AUSGEZOGEN
 10
2498.4100
 20
 466.0200
 11
2499.1100
 21
 471.2000
  0
LINE
  8
200
  6
AUSGEZOGEN
 10
2495.8300
 20
 464.6200
 11
2498.4100
 21
 466.0200
  0
LINE
  8
200
  6
AUSGEZOGEN
 10
2482.0300
 20
 498.8400
 11
2481.3400
 21
 493.6600
  0
LINE
  8
200
  6
AUSGEZOGEN
 10
2484.6200
 20
 500.0000
 11
2482.0300
 21
 498.8400
  0
LINE
  8
200
  6
AUSGEZOGEN
 10
2516.1900
 20
 466.0200
 11
2516.8900
 21
 471.2000
  0
LINE
  8
200
  6
AUSGEZOGEN
 10
2513.6100
 20
 464.6200
 11
2516.1900
 21
 466.0200
  0
LINE
  8
200
  6
AUSGEZOGEN
 10
2499.8100
 20
 498.8400
 11
2499.1100
 21
 493.6600
  0
LINE
  8
200
  6
AUSGEZOGEN
 10
2502.3900
 20
 500.0000
 11
2499.8100
 21
 498.8400
  0
LINE
  8
200
  6
AUSGEZOGEN
 10
2533.9700
 20
 466.0200
 11
2534.6700
 21
 471.2000
  0
LINE
  8
200
  6
AUSGEZOGEN
 10
2531.3800
 20
 464.6200
 11
2533.9700
 21
 466.0200
  0
LINE
  8
200
  6
AUSGEZOGEN
 10
2517.5900
 20
 498.8400
 11
2516.8900
 21
 493.6600
  0
LINE
  8
200
  6
AUSGEZOGEN
 10
2520.1700
 20
 500.0000
 11
2517.5900
 21
 498.8400
  0
LINE
  8
200
  6
AUSGEZOGEN
 10
2551.7500
 20
 466.0200
 11
2552.4500
 21
 471.2000
  0
LINE
  8
200
  6
AUSGEZOGEN
 10
2549.1600
 20
 464.6200
 11
2551.7500
 21
 466.0200
  0
LINE
  8
200
  6
AUSGEZOGEN
 10
2535.3600
 20
 498.8400
 11
2534.6700
 21
 493.6600
  0
LINE
  8
200
  6
AUSGEZOGEN
 10
2537.9500
 20
 500.0000
 11
2535.3600
 21
 498.8400
  0
LINE
  8
200
  6
AUSGEZOGEN
 10
2569.5300
 20
 466.0200
 11
2570.2200
 21
 471.2000
  0
LINE
  8
200
  6
AUSGEZOGEN
 10
2566.9400
 20
 464.6200
 11
2569.5300
 21
 466.0200
  0
LINE
  8
200
  6
AUSGEZOGEN
 10
2553.1400
 20
 498.8400
 11
2552.4500
 21
 493.6600
  0
LINE
  8
200
  6
AUSGEZOGEN
 10
2555.7300
 20
 500.0000
 11
2553.1400
 21
 498.8400
  0
LINE
  8
200
  6
AUSGEZOGEN
 10
2587.3100
 20
 466.0200
 11
2588.0000
 21
 471.2000
  0
LINE
  8
200
  6
AUSGEZOGEN
 10
2584.7200
 20
 464.6200
 11
2587.3100
 21
 466.0200
  0
LINE
  8
200
  6
AUSGEZOGEN
 10
2570.9200
 20
 498.8400
 11
2570.2200
 21
 493.6600
  0
LINE
  8
200
  6
AUSGEZOGEN
 10
2573.5000
 20
 500.0000
 11
2570.9200
 21
 498.8400
  0
LINE
  8
200
  6
AUSGEZOGEN
 10
2445.0800
 20
 420.2500
 11
2445.7800
 21
 425.4300
  0
LINE
  8
200
  6
AUSGEZOGEN
 10
2442.5000
 20
 418.8500
 11
2445.0800
 21
 420.2500
  0
LINE
  8
200
  6
AUSGEZOGEN
 10
2428.6900
 20
 453.0700
 11
2431.2800
 21
 454.4600
  0
LINE
  8
200
  6
AUSGEZOGEN
 10
2462.8600
 20
 420.2500
 11
2463.5500
 21
 425.4300
  0
LINE
  8
200
  6
AUSGEZOGEN
 10
2460.2700
 20
 418.8500
 11
2462.8600
 21
 420.2500
  0
LINE
  8
200
  6
AUSGEZOGEN
 10
2446.4800
 20
 453.0700
 11
2445.7800
 21
 447.8900
  0
LINE
  8
200
  6
AUSGEZOGEN
 10
2449.0600
 20
 454.4600
 11
2446.4800
 21
 453.0700
  0
LINE
  8
200
  6
AUSGEZOGEN
 10
2463.5500
 20
 425.4300
 11
2449.0600
 21
 454.4600
  0
LINE
  8
200
  6
AUSGEZOGEN
 10
2480.6400
 20
 420.2500
 11
2481.3400
 21
 425.4300
  0
LINE
  8
200
  6
AUSGEZOGEN
 10
2478.0500
 20
 418.8500
 11
2480.6400
 21
 420.2500
  0
LINE
  8
200
  6
AUSGEZOGEN
 10
2464.2500
 20
 453.0700
 11
2463.5500
 21
 447.8900
  0
LINE
  8
200
  6
AUSGEZOGEN
 10
2466.8400
 20
 454.4600
 11
2464.2500
 21
 453.0700
  0
LINE
  8
200
  6
AUSGEZOGEN
 10
2498.4100
 20
 420.2500
 11
2499.1100
 21
 425.4300
  0
LINE
  8
200
  6
AUSGEZOGEN
 10
2495.8300
 20
 418.8500
 11
2498.4100
 21
 420.2500
  0
LINE
  8
200
  6
AUSGEZOGEN
 10
2482.0300
 20
 453.0700
 11
2481.3400
 21
 447.8900
  0
LINE
  8
200
  6
AUSGEZOGEN
 10
2484.6200
 20
 454.4600
 11
2482.0300
 21
 453.0700
  0
LINE
  8
200
  6
AUSGEZOGEN
 10
2499.1100
 20
 425.4300
 11
2484.6200
 21
 454.4600
  0
LINE
  8
200
  6
AUSGEZOGEN
 10
2516.1900
 20
 420.2500
 11
2516.8900
 21
 425.4300
  0
LINE
  8
200
  6
AUSGEZOGEN
 10
2513.6100
 20
 418.8500
 11
2516.1900
 21
 420.2500
  0
LINE
  8
200
  6
AUSGEZOGEN
 10
2499.8100
 20
 453.0700
 11
2499.1100
 21
 447.8900
  0
LINE
  8
200
  6
AUSGEZOGEN
 10
2502.3900
 20
 454.4600
 11
2499.8100
 21
 453.0700
  0
LINE
  8
200
  6
AUSGEZOGEN
 10
2533.9700
 20
 420.2500
 11
2534.6700
 21
 425.4300
  0
LINE
  8
200
  6
AUSGEZOGEN
 10
2531.3800
 20
 418.8500
 11
2533.9700
 21
 420.2500
  0
LINE
  8
200
  6
AUSGEZOGEN
 10
2517.5900
 20
 453.0700
 11
2516.8900
 21
 447.8900
  0
LINE
  8
200
  6
AUSGEZOGEN
 10
2520.1700
 20
 454.4600
 11
2517.5900
 21
 453.0700
  0
LINE
  8
200
  6
AUSGEZOGEN
 10
2551.7500
 20
 420.2500
 11
2552.4500
 21
 425.4300
  0
LINE
  8
200
  6
AUSGEZOGEN
 10
2549.1600
 20
 418.8500
 11
2551.7500
 21
 420.2500
  0
LINE
  8
200
  6
AUSGEZOGEN
 10
2535.3600
 20
 453.0700
 11
2534.6700
 21
 447.8900
  0
LINE
  8
200
  6
AUSGEZOGEN
 10
2537.9500
 20
 454.4600
 11
2535.3600
 21
 453.0700
  0
LINE
  8
200
  6
AUSGEZOGEN
 10
2569.5300
 20
 420.2500
 11
2570.2200
 21
 425.4300
  0
LINE
  8
200
  6
AUSGEZOGEN
 10
2566.9400
 20
 418.8500
 11
2569.5300
 21
 420.2500
  0
LINE
  8
200
  6
AUSGEZOGEN
 10
2553.1400
 20
 453.0700
 11
2552.4500
 21
 447.8900
  0
LINE
  8
200
  6
AUSGEZOGEN
 10
2555.7300
 20
 454.4600
 11
2553.1400
 21
 453.0700
  0
LINE
  8
200
  6
AUSGEZOGEN
 10
2570.2200
 20
 425.4300
 11
2555.7300
 21
 454.4600
  0
LINE
  8
200
  6
AUSGEZOGEN
 10
2587.3100
 20
 420.2500
 11
2588.0000
 21
 425.4300
  0
LINE
  8
200
  6
AUSGEZOGEN
 10
2584.7200
 20
 418.8500
 11
2587.3100
 21
 420.2500
  0
LINE
  8
200
  6
AUSGEZOGEN
 10
2570.9200
 20
 453.0700
 11
2570.2200
 21
 447.8900
  0
LINE
  8
200
  6
AUSGEZOGEN
 10
2573.5000
 20
 454.4600
 11
2570.9200
 21
 453.0700
  0
LINE
  8
200
  6
AUSGEZOGEN
 10
2445.0800
 20
 374.4800
 11
2445.7800
 21
 379.6600
  0
LINE
  8
200
  6
AUSGEZOGEN
 10
2442.5000
 20
 373.0800
 11
2445.0800
 21
 374.4800
  0
LINE
  8
200
  6
AUSGEZOGEN
 10
2428.6900
 20
 407.3000
 11
2431.2800
 21
 408.6900
  0
LINE
  8
200
  6
AUSGEZOGEN
 10
2462.8600
 20
 374.4800
 11
2463.5500
 21
 379.6600
  0
LINE
  8
200
  6
AUSGEZOGEN
 10
2460.2700
 20
 373.0800
 11
2462.8600
 21
 374.4800
  0
LINE
  8
200
  6
AUSGEZOGEN
 10
2446.4800
 20
 407.3000
 11
2445.7800
 21
 402.1200
  0
LINE
  8
200
  6
AUSGEZOGEN
 10
2449.0600
 20
 408.6900
 11
2446.4800
 21
 407.3000
  0
LINE
  8
200
  6
AUSGEZOGEN
 10
2463.5500
 20
 379.6600
 11
2449.0600
 21
 408.6900
  0
LINE
  8
200
  6
AUSGEZOGEN
 10
2480.6400
 20
 374.4800
 11
2481.3400
 21
 379.6600
  0
LINE
  8
200
  6
AUSGEZOGEN
 10
2478.0500
 20
 373.0800
 11
2480.6400
 21
 374.4800
  0
LINE
  8
200
  6
AUSGEZOGEN
 10
2464.2500
 20
 407.3000
 11
2463.5500
 21
 402.1200
  0
LINE
  8
200
  6
AUSGEZOGEN
 10
2466.8400
 20
 408.6900
 11
2464.2500
 21
 407.3000
  0
LINE
  8
200
  6
AUSGEZOGEN
 10
2498.4100
 20
 374.4800
 11
2499.1100
 21
 379.6600
  0
LINE
  8
200
  6
AUSGEZOGEN
 10
2495.8300
 20
 373.0800
 11
2498.4100
 21
 374.4800
  0
LINE
  8
200
  6
AUSGEZOGEN
 10
2482.0300
 20
 407.3000
 11
2481.3400
 21
 402.1200
  0
LINE
  8
200
  6
AUSGEZOGEN
 10
2484.6200
 20
 408.6900
 11
2482.0300
 21
 407.3000
  0
LINE
  8
200
  6
AUSGEZOGEN
 10
2499.1100
 20
 379.6600
 11
2484.6200
 21
 408.6900
  0
LINE
  8
200
  6
AUSGEZOGEN
 10
2516.1900
 20
 374.4800
 11
2516.8900
 21
 379.6600
  0
LINE
  8
200
  6
AUSGEZOGEN
 10
2513.6100
 20
 373.0800
 11
2516.1900
 21
 374.4800
  0
LINE
  8
200
  6
AUSGEZOGEN
 10
2499.8100
 20
 407.3000
 11
2499.1100
 21
 402.1200
  0
LINE
  8
200
  6
AUSGEZOGEN
 10
2502.3900
 20
 408.6900
 11
2499.8100
 21
 407.3000
  0
LINE
  8
200
  6
AUSGEZOGEN
 10
2533.9700
 20
 374.4800
 11
2534.6700
 21
 379.6600
  0
LINE
  8
200
  6
AUSGEZOGEN
 10
2531.3800
 20
 373.0800
 11
2533.9700
 21
 374.4800
  0
LINE
  8
200
  6
AUSGEZOGEN
 10
2517.5900
 20
 407.3000
 11
2516.8900
 21
 402.1200
  0
LINE
  8
200
  6
AUSGEZOGEN
 10
2520.1700
 20
 408.6900
 11
2517.5900
 21
 407.3000
  0
LINE
  8
200
  6
AUSGEZOGEN
 10
2551.7500
 20
 374.4800
 11
2552.4500
 21
 379.6600
  0
LINE
  8
200
  6
AUSGEZOGEN
 10
2549.1600
 20
 373.0800
 11
2551.7500
 21
 374.4800
  0
LINE
  8
200
  6
AUSGEZOGEN
 10
2535.3600
 20
 407.3000
 11
2534.6700
 21
 402.1200
  0
LINE
  8
200
  6
AUSGEZOGEN
 10
2537.9500
 20
 408.6900
 11
2535.3600
 21
 407.3000
  0
LINE
  8
200
  6
AUSGEZOGEN
 10
2569.5300
 20
 374.4800
 11
2570.2200
 21
 379.6600
  0
LINE
  8
200
  6
AUSGEZOGEN
 10
2566.9400
 20
 373.0800
 11
2569.5300
 21
 374.4800
  0
LINE
  8
200
  6
AUSGEZOGEN
 10
2553.1400
 20
 407.3000
 11
2552.4500
 21
 402.1200
  0
LINE
  8
200
  6
AUSGEZOGEN
 10
2555.7300
 20
 408.6900
 11
2553.1400
 21
 407.3000
  0
LINE
  8
200
  6
AUSGEZOGEN
 10
2570.2200
 20
 379.6600
 11
2555.7300
 21
 408.6900
  0
LINE
  8
200
  6
AUSGEZOGEN
 10
2587.3100
 20
 374.4800
 11
2588.0000
 21
 379.6600
  0
LINE
  8
200
  6
AUSGEZOGEN
 10
2584.7200
 20
 373.0800
 11
2587.3100
 21
 374.4800
  0
LINE
  8
200
  6
AUSGEZOGEN
 10
2570.9200
 20
 407.3000
 11
2570.2200
 21
 402.1200
  0
LINE
  8
200
  6
AUSGEZOGEN
 10
2573.5000
 20
 408.6900
 11
2570.9200
 21
 407.3000
  0
LINE
  8
200
  6
AUSGEZOGEN
 10
2445.0800
 20
 328.7000
 11
2445.7800
 21
 333.8900
  0
LINE
  8
200
  6
AUSGEZOGEN
 10
2442.5000
 20
 327.3100
 11
2445.0800
 21
 328.7000
  0
LINE
  8
200
  6
AUSGEZOGEN
 10
2428.6900
 20
 361.5300
 11
2431.2800
 21
 362.9200
  0
LINE
  8
200
  6
AUSGEZOGEN
 10
2462.8600
 20
 328.7000
 11
2463.5500
 21
 333.8900
  0
LINE
  8
200
  6
AUSGEZOGEN
 10
2460.2700
 20
 327.3100
 11
2462.8600
 21
 328.7000
  0
LINE
  8
200
  6
AUSGEZOGEN
 10
2446.4800
 20
 361.5300
 11
2445.7800
 21
 356.3500
  0
LINE
  8
200
  6
AUSGEZOGEN
 10
2449.0600
 20
 362.9200
 11
2446.4800
 21
 361.5300
  0
LINE
  8
200
  6
AUSGEZOGEN
 10
2463.5500
 20
 333.8900
 11
2449.0600
 21
 362.9200
  0
LINE
  8
200
  6
AUSGEZOGEN
 10
2480.6400
 20
 328.7000
 11
2481.3400
 21
 333.8900
  0
LINE
  8
200
  6
AUSGEZOGEN
 10
2478.0500
 20
 327.3100
 11
2480.6400
 21
 328.7000
  0
LINE
  8
200
  6
AUSGEZOGEN
 10
2464.2500
 20
 361.5300
 11
2463.5500
 21
 356.3500
  0
LINE
  8
200
  6
AUSGEZOGEN
 10
2466.8400
 20
 362.9200
 11
2464.2500
 21
 361.5300
  0
LINE
  8
200
  6
AUSGEZOGEN
 10
2498.4100
 20
 328.7000
 11
2499.1100
 21
 333.8900
  0
LINE
  8
200
  6
AUSGEZOGEN
 10
2495.8300
 20
 327.3100
 11
2498.4100
 21
 328.7000
  0
LINE
  8
200
  6
AUSGEZOGEN
 10
2482.0300
 20
 361.5300
 11
2481.3400
 21
 356.3500
  0
LINE
  8
200
  6
AUSGEZOGEN
 10
2484.6200
 20
 362.9200
 11
2482.0300
 21
 361.5300
  0
LINE
  8
200
  6
AUSGEZOGEN
 10
2499.1100
 20
 333.8900
 11
2484.6200
 21
 362.9200
  0
LINE
  8
200
  6
AUSGEZOGEN
 10
2516.1900
 20
 328.7000
 11
2516.8900
 21
 333.8900
  0
LINE
  8
200
  6
AUSGEZOGEN
 10
2513.6100
 20
 327.3100
 11
2516.1900
 21
 328.7000
  0
LINE
  8
200
  6
AUSGEZOGEN
 10
2499.8100
 20
 361.5300
 11
2499.1100
 21
 356.3500
  0
LINE
  8
200
  6
AUSGEZOGEN
 10
2502.3900
 20
 362.9200
 11
2499.8100
 21
 361.5300
  0
LINE
  8
200
  6
AUSGEZOGEN
 10
2533.9700
 20
 328.7000
 11
2534.6700
 21
 333.8900
  0
LINE
  8
200
  6
AUSGEZOGEN
 10
2531.3800
 20
 327.3100
 11
2533.9700
 21
 328.7000
  0
LINE
  8
200
  6
AUSGEZOGEN
 10
2517.5900
 20
 361.5300
 11
2516.8900
 21
 356.3500
  0
LINE
  8
200
  6
AUSGEZOGEN
 10
2520.1700
 20
 362.9200
 11
2517.5900
 21
 361.5300
  0
LINE
  8
200
  6
AUSGEZOGEN
 10
2551.7500
 20
 328.7000
 11
2552.4500
 21
 333.8900
  0
LINE
  8
200
  6
AUSGEZOGEN
 10
2549.1600
 20
 327.3100
 11
2551.7500
 21
 328.7000
  0
LINE
  8
200
  6
AUSGEZOGEN
 10
2535.3600
 20
 361.5300
 11
2534.6700
 21
 356.3500
  0
LINE
  8
200
  6
AUSGEZOGEN
 10
2537.9500
 20
 362.9200
 11
2535.3600
 21
 361.5300
  0
LINE
  8
200
  6
AUSGEZOGEN
 10
2569.5300
 20
 328.7000
 11
2570.2200
 21
 333.8900
  0
LINE
  8
200
  6
AUSGEZOGEN
 10
2566.9400
 20
 327.3100
 11
2569.5300
 21
 328.7000
  0
LINE
  8
200
  6
AUSGEZOGEN
 10
2553.1400
 20
 361.5300
 11
2552.4500
 21
 356.3500
  0
LINE
  8
200
  6
AUSGEZOGEN
 10
2555.7300
 20
 362.9200
 11
2553.1400
 21
 361.5300
  0
LINE
  8
200
  6
AUSGEZOGEN
 10
2570.2200
 20
 333.8900
 11
2555.7300
 21
 362.9200
  0
LINE
  8
200
  6
AUSGEZOGEN
 10
2587.3100
 20
 328.7000
 11
2588.0000
 21
 333.8900
  0
LINE
  8
200
  6
AUSGEZOGEN
 10
2584.7200
 20
 327.3100
 11
2587.3100
 21
 328.7000
  0
LINE
  8
200
  6
AUSGEZOGEN
 10
2570.9200
 20
 361.5300
 11
2570.2200
 21
 356.3500
  0
LINE
  8
200
  6
AUSGEZOGEN
 10
2573.5000
 20
 362.9200
 11
2570.9200
 21
 361.5300
  0
LINE
  8
200
  6
AUSGEZOGEN
 10
2445.0800
 20
 282.9300
 11
2445.7800
 21
 288.1200
  0
LINE
  8
200
  6
AUSGEZOGEN
 10
2442.5000
 20
 281.5400
 11
2445.0800
 21
 282.9300
  0
LINE
  8
200
  6
AUSGEZOGEN
 10
2428.6900
 20
 315.7600
 11
2431.2800
 21
 317.1500
  0
LINE
  8
200
  6
AUSGEZOGEN
 10
2462.8600
 20
 282.9300
 11
2463.5500
 21
 288.1200
  0
LINE
  8
200
  6
AUSGEZOGEN
 10
2460.2700
 20
 281.5400
 11
2462.8600
 21
 282.9300
  0
LINE
  8
200
  6
AUSGEZOGEN
 10
2446.4800
 20
 315.7600
 11
2445.7800
 21
 310.5800
  0
LINE
  8
200
  6
AUSGEZOGEN
 10
2449.0600
 20
 317.1500
 11
2446.4800
 21
 315.7600
  0
LINE
  8
200
  6
AUSGEZOGEN
 10
2463.5500
 20
 288.1200
 11
2449.0600
 21
 317.1500
  0
LINE
  8
200
  6
AUSGEZOGEN
 10
2480.6400
 20
 282.9300
 11
2481.3400
 21
 288.1200
  0
LINE
  8
200
  6
AUSGEZOGEN
 10
2478.0500
 20
 281.5400
 11
2480.6400
 21
 282.9300
  0
LINE
  8
200
  6
AUSGEZOGEN
 10
2464.2500
 20
 315.7600
 11
2463.5500
 21
 310.5800
  0
LINE
  8
200
  6
AUSGEZOGEN
 10
2466.8400
 20
 317.1500
 11
2464.2500
 21
 315.7600
  0
LINE
  8
200
  6
AUSGEZOGEN
 10
2498.4100
 20
 282.9300
 11
2499.1100
 21
 288.1200
  0
LINE
  8
200
  6
AUSGEZOGEN
 10
2495.8300
 20
 281.5400
 11
2498.4100
 21
 282.9300
  0
LINE
  8
200
  6
AUSGEZOGEN
 10
2482.0300
 20
 315.7600
 11
2481.3400
 21
 310.5800
  0
LINE
  8
200
  6
AUSGEZOGEN
 10
2484.6200
 20
 317.1500
 11
2482.0300
 21
 315.7600
  0
LINE
  8
200
  6
AUSGEZOGEN
 10
2499.1100
 20
 288.1200
 11
2484.6200
 21
 317.1500
  0
LINE
  8
200
  6
AUSGEZOGEN
 10
2516.1900
 20
 282.9300
 11
2516.8900
 21
 288.1200
  0
LINE
  8
200
  6
AUSGEZOGEN
 10
2513.6100
 20
 281.5400
 11
2516.1900
 21
 282.9300
  0
LINE
  8
200
  6
AUSGEZOGEN
 10
2499.8100
 20
 315.7600
 11
2499.1100
 21
 310.5800
  0
LINE
  8
200
  6
AUSGEZOGEN
 10
2502.3900
 20
 317.1500
 11
2499.8100
 21
 315.7600
  0
LINE
  8
200
  6
AUSGEZOGEN
 10
2533.9700
 20
 282.9300
 11
2534.6700
 21
 288.1200
  0
LINE
  8
200
  6
AUSGEZOGEN
 10
2531.3800
 20
 281.5400
 11
2533.9700
 21
 282.9300
  0
LINE
  8
200
  6
AUSGEZOGEN
 10
2517.5900
 20
 315.7600
 11
2516.8900
 21
 310.5800
  0
LINE
  8
200
  6
AUSGEZOGEN
 10
2520.1700
 20
 317.1500
 11
2517.5900
 21
 315.7600
  0
LINE
  8
200
  6
AUSGEZOGEN
 10
2551.7500
 20
 282.9300
 11
2552.4500
 21
 288.1200
  0
LINE
  8
200
  6
AUSGEZOGEN
 10
2549.1600
 20
 281.5400
 11
2551.7500
 21
 282.9300
  0
LINE
  8
200
  6
AUSGEZOGEN
 10
2535.3600
 20
 315.7600
 11
2534.6700
 21
 310.5800
  0
LINE
  8
200
  6
AUSGEZOGEN
 10
2537.9500
 20
 317.1500
 11
2535.3600
 21
 315.7600
  0
LINE
  8
200
  6
AUSGEZOGEN
 10
2569.5300
 20
 282.9300
 11
2570.2200
 21
 288.1200
  0
LINE
  8
200
  6
AUSGEZOGEN
 10
2566.9400
 20
 281.5400
 11
2569.5300
 21
 282.9300
  0
LINE
  8
200
  6
AUSGEZOGEN
 10
2553.1400
 20
 315.7600
 11
2552.4500
 21
 310.5800
  0
LINE
  8
200
  6
AUSGEZOGEN
 10
2555.7300
 20
 317.1500
 11
2553.1400
 21
 315.7600
  0
LINE
  8
200
  6
AUSGEZOGEN
 10
2570.2200
 20
 288.1200
 11
2555.7300
 21
 317.1500
  0
LINE
  8
200
  6
AUSGEZOGEN
 10
2587.3100
 20
 282.9300
 11
2588.0000
 21
 288.1200
  0
LINE
  8
200
  6
AUSGEZOGEN
 10
2584.7200
 20
 281.5400
 11
2587.3100
 21
 282.9300
  0
LINE
  8
200
  6
AUSGEZOGEN
 10
2570.9200
 20
 315.7600
 11
2570.2200
 21
 310.5800
  0
LINE
  8
200
  6
AUSGEZOGEN
 10
2573.5000
 20
 317.1500
 11
2570.9200
 21
 315.7600
  0
LINE
  8
200
  6
AUSGEZOGEN
 10
2445.0800
 20
 237.1600
 11
2445.7800
 21
 242.3400
  0
LINE
  8
200
  6
AUSGEZOGEN
 10
2442.5000
 20
 235.7700
 11
2445.0800
 21
 237.1600
  0
LINE
  8
200
  6
AUSGEZOGEN
 10
2428.6900
 20
 269.9900
 11
2431.2800
 21
 271.3800
  0
LINE
  8
200
  6
AUSGEZOGEN
 10
2462.8600
 20
 237.1600
 11
2463.5500
 21
 242.3400
  0
LINE
  8
200
  6
AUSGEZOGEN
 10
2460.2700
 20
 235.7700
 11
2462.8600
 21
 237.1600
  0
LINE
  8
200
  6
AUSGEZOGEN
 10
2446.4800
 20
 269.9900
 11
2445.7800
 21
 264.8100
  0
LINE
  8
200
  6
AUSGEZOGEN
 10
2449.0600
 20
 271.3800
 11
2446.4800
 21
 269.9900
  0
LINE
  8
200
  6
AUSGEZOGEN
 10
2480.6400
 20
 237.1600
 11
2481.3400
 21
 242.3400
  0
LINE
  8
200
  6
AUSGEZOGEN
 10
2478.0500
 20
 235.7700
 11
2480.6400
 21
 237.1600
  0
LINE
  8
200
  6
AUSGEZOGEN
 10
2464.2500
 20
 269.9900
 11
2463.5500
 21
 264.8100
  0
LINE
  8
200
  6
AUSGEZOGEN
 10
2466.8400
 20
 271.3800
 11
2464.2500
 21
 269.9900
  0
LINE
  8
200
  6
AUSGEZOGEN
 10
2498.4100
 20
 237.1600
 11
2499.1100
 21
 242.3400
  0
LINE
  8
200
  6
AUSGEZOGEN
 10
2495.8300
 20
 235.7700
 11
2498.4100
 21
 237.1600
  0
LINE
  8
200
  6
AUSGEZOGEN
 10
2482.0300
 20
 269.9900
 11
2481.3400
 21
 264.8100
  0
LINE
  8
200
  6
AUSGEZOGEN
 10
2484.6200
 20
 271.3800
 11
2482.0300
 21
 269.9900
  0
LINE
  8
200
  6
AUSGEZOGEN
 10
2516.1900
 20
 237.1600
 11
2516.8900
 21
 242.3400
  0
LINE
  8
200
  6
AUSGEZOGEN
 10
2513.6100
 20
 235.7700
 11
2516.1900
 21
 237.1600
  0
LINE
  8
200
  6
AUSGEZOGEN
 10
2499.8100
 20
 269.9900
 11
2499.1100
 21
 264.8100
  0
LINE
  8
200
  6
AUSGEZOGEN
 10
2502.3900
 20
 271.3800
 11
2499.8100
 21
 269.9900
  0
LINE
  8
200
  6
AUSGEZOGEN
 10
2533.9700
 20
 237.1600
 11
2534.6700
 21
 242.3400
  0
LINE
  8
200
  6
AUSGEZOGEN
 10
2531.3800
 20
 235.7700
 11
2533.9700
 21
 237.1600
  0
LINE
  8
200
  6
AUSGEZOGEN
 10
2517.5900
 20
 269.9900
 11
2516.8900
 21
 264.8100
  0
LINE
  8
200
  6
AUSGEZOGEN
 10
2520.1700
 20
 271.3800
 11
2517.5900
 21
 269.9900
  0
LINE
  8
200
  6
AUSGEZOGEN
 10
2551.7500
 20
 237.1600
 11
2552.4500
 21
 242.3400
  0
LINE
  8
200
  6
AUSGEZOGEN
 10
2549.1600
 20
 235.7700
 11
2551.7500
 21
 237.1600
  0
LINE
  8
200
  6
AUSGEZOGEN
 10
2535.3600
 20
 269.9900
 11
2534.6700
 21
 264.8100
  0
LINE
  8
200
  6
AUSGEZOGEN
 10
2537.9500
 20
 271.3800
 11
2535.3600
 21
 269.9900
  0
LINE
  8
200
  6
AUSGEZOGEN
 10
2569.5300
 20
 237.1600
 11
2570.2200
 21
 242.3400
  0
LINE
  8
200
  6
AUSGEZOGEN
 10
2566.9400
 20
 235.7700
 11
2569.5300
 21
 237.1600
  0
LINE
  8
200
  6
AUSGEZOGEN
 10
2553.1400
 20
 269.9900
 11
2552.4500
 21
 264.8100
  0
LINE
  8
200
  6
AUSGEZOGEN
 10
2555.7300
 20
 271.3800
 11
2553.1400
 21
 269.9900
  0
LINE
  8
200
  6
AUSGEZOGEN
 10
2587.3100
 20
 237.1600
 11
2588.0000
 21
 242.3400
  0
LINE
  8
200
  6
AUSGEZOGEN
 10
2584.7200
 20
 235.7700
 11
2587.3100
 21
 237.1600
  0
LINE
  8
200
  6
AUSGEZOGEN
 10
2570.9200
 20
 269.9900
 11
2570.2200
 21
 264.8100
  0
LINE
  8
200
  6
AUSGEZOGEN
 10
2573.5000
 20
 271.3800
 11
2570.9200
 21
 269.9900
  0
LINE
  8
200
  6
AUSGEZOGEN
 10
2445.0800
 20
 191.3900
 11
2445.7800
 21
 196.5700
  0
LINE
  8
200
  6
AUSGEZOGEN
 10
2442.5000
 20
 190.0000
 11
2445.0800
 21
 191.3900
  0
LINE
  8
200
  6
AUSGEZOGEN
 10
2428.6900
 20
 224.2200
 11
2431.2800
 21
 225.6100
  0
LINE
  8
200
  6
AUSGEZOGEN
 10
2462.8600
 20
 191.3900
 11
2463.5500
 21
 196.5700
  0
LINE
  8
200
  6
AUSGEZOGEN
 10
2460.2700
 20
 190.0000
 11
2462.8600
 21
 191.3900
  0
LINE
  8
200
  6
AUSGEZOGEN
 10
2446.4800
 20
 224.2200
 11
2445.7800
 21
 219.0400
  0
LINE
  8
200
  6
AUSGEZOGEN
 10
2449.0600
 20
 225.6100
 11
2446.4800
 21
 224.2200
  0
LINE
  8
200
  6
AUSGEZOGEN
 10
2480.6400
 20
 191.3900
 11
2481.3400
 21
 196.5700
  0
LINE
  8
200
  6
AUSGEZOGEN
 10
2478.0500
 20
 190.0000
 11
2480.6400
 21
 191.3900
  0
LINE
  8
200
  6
AUSGEZOGEN
 10
2464.2500
 20
 224.2200
 11
2463.5500
 21
 219.0400
  0
LINE
  8
200
  6
AUSGEZOGEN
 10
2466.8400
 20
 225.6100
 11
2464.2500
 21
 224.2200
  0
LINE
  8
200
  6
AUSGEZOGEN
 10
2498.4100
 20
 191.3900
 11
2499.1100
 21
 196.5700
  0
LINE
  8
200
  6
AUSGEZOGEN
 10
2495.8300
 20
 190.0000
 11
2498.4100
 21
 191.3900
  0
LINE
  8
200
  6
AUSGEZOGEN
 10
2482.0300
 20
 224.2200
 11
2481.3400
 21
 219.0400
  0
LINE
  8
200
  6
AUSGEZOGEN
 10
2484.6200
 20
 225.6100
 11
2482.0300
 21
 224.2200
  0
LINE
  8
200
  6
AUSGEZOGEN
 10
2516.1900
 20
 191.3900
 11
2516.8900
 21
 196.5700
  0
LINE
  8
200
  6
AUSGEZOGEN
 10
2513.6100
 20
 190.0000
 11
2516.1900
 21
 191.3900
  0
LINE
  8
200
  6
AUSGEZOGEN
 10
2499.8100
 20
 224.2200
 11
2499.1100
 21
 219.0400
  0
LINE
  8
200
  6
AUSGEZOGEN
 10
2502.3900
 20
 225.6100
 11
2499.8100
 21
 224.2200
  0
LINE
  8
200
  6
AUSGEZOGEN
 10
2533.9700
 20
 191.3900
 11
2534.6700
 21
 196.5700
  0
LINE
  8
200
  6
AUSGEZOGEN
 10
2531.3800
 20
 190.0000
 11
2533.9700
 21
 191.3900
  0
LINE
  8
200
  6
AUSGEZOGEN
 10
2517.5900
 20
 224.2200
 11
2516.8900
 21
 219.0400
  0
LINE
  8
200
  6
AUSGEZOGEN
 10
2520.1700
 20
 225.6100
 11
2517.5900
 21
 224.2200
  0
LINE
  8
200
  6
AUSGEZOGEN
 10
2551.7500
 20
 191.3900
 11
2552.4500
 21
 196.5700
  0
LINE
  8
200
  6
AUSGEZOGEN
 10
2549.1600
 20
 190.0000
 11
2551.7500
 21
 191.3900
  0
LINE
  8
200
  6
AUSGEZOGEN
 10
2535.3600
 20
 224.2200
 11
2534.6700
 21
 219.0400
  0
LINE
  8
200
  6
AUSGEZOGEN
 10
2537.9500
 20
 225.6100
 11
2535.3600
 21
 224.2200
  0
LINE
  8
200
  6
AUSGEZOGEN
 10
2569.5300
 20
 191.3900
 11
2570.2200
 21
 196.5700
  0
LINE
  8
200
  6
AUSGEZOGEN
 10
2566.9400
 20
 190.0000
 11
2569.5300
 21
 191.3900
  0
LINE
  8
200
  6
AUSGEZOGEN
 10
2553.1400
 20
 224.2200
 11
2552.4500
 21
 219.0400
  0
LINE
  8
200
  6
AUSGEZOGEN
 10
2555.7300
 20
 225.6100
 11
2553.1400
 21
 224.2200
  0
LINE
  8
200
  6
AUSGEZOGEN
 10
2587.3100
 20
 191.3900
 11
2588.0000
 21
 196.5700
  0
LINE
  8
200
  6
AUSGEZOGEN
 10
2584.7200
 20
 190.0000
 11
2587.3100
 21
 191.3900
  0
LINE
  8
200
  6
AUSGEZOGEN
 10
2570.9200
 20
 224.2200
 11
2570.2200
 21
 219.0400
  0
LINE
  8
200
  6
AUSGEZOGEN
 10
2573.5000
 20
 225.6100
 11
2570.9200
 21
 224.2200
  0
LINE
  8
200
  6
AUSGEZOGEN
 10
2570.2200
 20
 196.5700
 11
2555.7300
 21
 225.6100
  0
LINE
  8
200
  6
AUSGEZOGEN
 10
2552.4500
 20
 219.0400
 11
2566.9400
 21
 190.0000
  0
LINE
  8
200
  6
AUSGEZOGEN
 10
2549.1600
 20
 190.0000
 11
2534.6700
 21
 219.0400
  0
LINE
  8
200
  6
AUSGEZOGEN
 10
2516.8900
 20
 219.0400
 11
2531.3800
 21
 190.0000
  0
LINE
  8
200
  6
AUSGEZOGEN
 10
2499.1100
 20
 196.5700
 11
2484.6200
 21
 225.6100
  0
LINE
  8
200
  6
AUSGEZOGEN
 10
2481.3400
 20
 219.0400
 11
2495.8300
 21
 190.0000
  0
LINE
  8
200
  6
AUSGEZOGEN
 10
2463.5500
 20
 196.5700
 11
2449.0600
 21
 225.6100
  0
LINE
  8
200
  6
AUSGEZOGEN
 10
2445.7800
 20
 219.0400
 11
2460.2700
 21
 190.0000
  0
LINE
  8
200
  6
AUSGEZOGEN
 10
2555.7300
 20
 271.3800
 11
2570.2200
 21
 242.3400
  0
LINE
  8
200
  6
AUSGEZOGEN
 10
2566.9400
 20
 235.7700
 11
2552.4500
 21
 264.8100
  0
LINE
  8
200
  6
AUSGEZOGEN
 10
2534.6700
 20
 264.8100
 11
2549.1600
 21
 235.7700
  0
LINE
  8
200
  6
AUSGEZOGEN
 10
2531.3800
 20
 235.7700
 11
2516.8900
 21
 264.8100
  0
LINE
  8
200
  6
AUSGEZOGEN
 10
2484.6200
 20
 271.3800
 11
2499.1100
 21
 242.3400
  0
LINE
  8
200
  6
AUSGEZOGEN
 10
2495.8300
 20
 235.7700
 11
2481.3400
 21
 264.8100
  0
LINE
  8
200
  6
AUSGEZOGEN
 10
2449.0600
 20
 271.3800
 11
2463.5500
 21
 242.3400
  0
LINE
  8
200
  6
AUSGEZOGEN
 10
2460.2700
 20
 235.7700
 11
2445.7800
 21
 264.8100
  0
LINE
  8
200
  6
AUSGEZOGEN
 10
2573.5000
 20
 317.1500
 11
2588.0000
 21
 288.1200
  0
LINE
  8
200
  6
AUSGEZOGEN
 10
2566.9400
 20
 281.5400
 11
2552.4500
 21
 310.5800
  0
LINE
  8
200
  6
AUSGEZOGEN
 10
2537.9500
 20
 317.1500
 11
2552.4500
 21
 288.1200
  0
LINE
  8
200
  6
AUSGEZOGEN
 10
2549.1600
 20
 281.5400
 11
2534.6700
 21
 310.5800
  0
LINE
  8
200
  6
AUSGEZOGEN
 10
2520.1700
 20
 317.1500
 11
2534.6700
 21
 288.1200
  0
LINE
  8
200
  6
AUSGEZOGEN
 10
2531.3800
 20
 281.5400
 11
2516.8900
 21
 310.5800
  0
LINE
  8
200
  6
AUSGEZOGEN
 10
2502.3900
 20
 317.1500
 11
2516.8900
 21
 288.1200
  0
LINE
  8
200
  6
AUSGEZOGEN
 10
2495.8300
 20
 281.5400
 11
2481.3400
 21
 310.5800
  0
LINE
  8
200
  6
AUSGEZOGEN
 10
2466.8400
 20
 317.1500
 11
2481.3400
 21
 288.1200
  0
LINE
  8
200
  6
AUSGEZOGEN
 10
2460.2700
 20
 281.5400
 11
2445.7800
 21
 310.5800
  0
LINE
  8
200
  6
AUSGEZOGEN
 10
2431.2800
 20
 317.1500
 11
2445.7800
 21
 288.1200
  0
LINE
  8
200
  6
AUSGEZOGEN
 10
2573.5000
 20
 362.9200
 11
2588.0000
 21
 333.8900
  0
LINE
  8
200
  6
AUSGEZOGEN
 10
2566.9400
 20
 327.3100
 11
2552.4500
 21
 356.3500
  0
LINE
  8
200
  6
AUSGEZOGEN
 10
2537.9500
 20
 362.9200
 11
2552.4500
 21
 333.8900
  0
LINE
  8
200
  6
AUSGEZOGEN
 10
2549.1600
 20
 327.3100
 11
2534.6700
 21
 356.3500
  0
LINE
  8
200
  6
AUSGEZOGEN
 10
2520.1700
 20
 362.9200
 11
2534.6700
 21
 333.8900
  0
LINE
  8
200
  6
AUSGEZOGEN
 10
2531.3800
 20
 327.3100
 11
2516.8900
 21
 356.3500
  0
LINE
  8
200
  6
AUSGEZOGEN
 10
2502.3900
 20
 362.9200
 11
2516.8900
 21
 333.8900
  0
LINE
  8
200
  6
AUSGEZOGEN
 10
2495.8300
 20
 327.3100
 11
2481.3400
 21
 356.3500
  0
LINE
  8
200
  6
AUSGEZOGEN
 10
2466.8400
 20
 362.9200
 11
2481.3400
 21
 333.8900
  0
LINE
  8
200
  6
AUSGEZOGEN
 10
2460.2700
 20
 327.3100
 11
2445.7800
 21
 356.3500
  0
LINE
  8
200
  6
AUSGEZOGEN
 10
2431.2800
 20
 362.9200
 11
2445.7800
 21
 333.8900
  0
LINE
  8
200
  6
AUSGEZOGEN
 10
2573.5000
 20
 408.6900
 11
2588.0000
 21
 379.6600
  0
LINE
  8
200
  6
AUSGEZOGEN
 10
2566.9400
 20
 373.0800
 11
2552.4500
 21
 402.1200
  0
LINE
  8
200
  6
AUSGEZOGEN
 10
2537.9500
 20
 408.6900
 11
2552.4500
 21
 379.6600
  0
LINE
  8
200
  6
AUSGEZOGEN
 10
2549.1600
 20
 373.0800
 11
2534.6700
 21
 402.1200
  0
LINE
  8
200
  6
AUSGEZOGEN
 10
2520.1700
 20
 408.6900
 11
2534.6700
 21
 379.6600
  0
LINE
  8
200
  6
AUSGEZOGEN
 10
2531.3800
 20
 373.0800
 11
2516.8900
 21
 402.1200
  0
LINE
  8
200
  6
AUSGEZOGEN
 10
2502.3900
 20
 408.6900
 11
2516.8900
 21
 379.6600
  0
LINE
  8
200
  6
AUSGEZOGEN
 10
2495.8300
 20
 373.0800
 11
2481.3400
 21
 402.1200
  0
LINE
  8
200
  6
AUSGEZOGEN
 10
2466.8400
 20
 408.6900
 11
2481.3400
 21
 379.6600
  0
LINE
  8
200
  6
AUSGEZOGEN
 10
2460.2700
 20
 373.0800
 11
2445.7800
 21
 402.1200
  0
LINE
  8
200
  6
AUSGEZOGEN
 10
2431.2800
 20
 408.6900
 11
2445.7800
 21
 379.6600
  0
LINE
  8
200
  6
AUSGEZOGEN
 10
2573.5000
 20
 454.4600
 11
2588.0000
 21
 425.4300
  0
LINE
  8
200
  6
AUSGEZOGEN
 10
2566.9400
 20
 418.8500
 11
2552.4500
 21
 447.8900
  0
LINE
  8
200
  6
AUSGEZOGEN
 10
2537.9500
 20
 454.4600
 11
2552.4500
 21
 425.4300
  0
LINE
  8
200
  6
AUSGEZOGEN
 10
2549.1600
 20
 418.8500
 11
2534.6700
 21
 447.8900
  0
LINE
  8
200
  6
AUSGEZOGEN
 10
2520.1700
 20
 454.4600
 11
2534.6700
 21
 425.4300
  0
LINE
  8
200
  6
AUSGEZOGEN
 10
2531.3800
 20
 418.8500
 11
2516.8900
 21
 447.8900
  0
LINE
  8
200
  6
AUSGEZOGEN
 10
2502.3900
 20
 454.4600
 11
2516.8900
 21
 425.4300
  0
LINE
  8
200
  6
AUSGEZOGEN
 10
2495.8300
 20
 418.8500
 11
2481.3400
 21
 447.8900
  0
LINE
  8
200
  6
AUSGEZOGEN
 10
2466.8400
 20
 454.4600
 11
2481.3400
 21
 425.4300
  0
LINE
  8
200
  6
AUSGEZOGEN
 10
2460.2700
 20
 418.8500
 11
2445.7800
 21
 447.8900
  0
LINE
  8
200
  6
AUSGEZOGEN
 10
2431.2800
 20
 454.4600
 11
2445.7800
 21
 425.4300
  0
LINE
  8
200
  6
AUSGEZOGEN
 10
2555.7300
 20
 500.0000
 11
2570.2200
 21
 471.2000
  0
LINE
  8
200
  6
AUSGEZOGEN
 10
2566.9400
 20
 464.6200
 11
2552.4500
 21
 493.6600
  0
LINE
  8
200
  6
AUSGEZOGEN
 10
2534.6700
 20
 493.6600
 11
2549.1600
 21
 464.6200
  0
LINE
  8
200
  6
AUSGEZOGEN
 10
2531.3800
 20
 464.6200
 11
2516.8900
 21
 493.6600
  0
LINE
  8
200
  6
AUSGEZOGEN
 10
2484.6200
 20
 500.0000
 11
2499.1100
 21
 471.2000
  0
LINE
  8
200
  6
AUSGEZOGEN
 10
2495.8300
 20
 464.6200
 11
2481.3400
 21
 493.6600
  0
LINE
  8
200
  6
AUSGEZOGEN
 10
2449.0600
 20
 500.0000
 11
2463.5500
 21
 471.2000
  0
LINE
  8
200
  6
AUSGEZOGEN
 10
2460.2700
 20
 464.6200
 11
2445.7800
 21
 493.6600
  0
LINE
  8
200
  6
AUSGEZOGEN
 10
2410.2200
 20
 196.5700
 11
2395.7300
 21
 225.6100
  0
LINE
  8
200
  6
AUSGEZOGEN
 10
2392.4500
 20
 219.0400
 11
2406.9400
 21
 190.0000
  0
LINE
  8
200
  6
AUSGEZOGEN
 10
2389.1600
 20
 190.0000
 11
2374.6700
 21
 219.0400
  0
LINE
  8
200
  6
AUSGEZOGEN
 10
2356.8900
 20
 219.0400
 11
2371.3800
 21
 190.0000
  0
LINE
  8
200
  6
AUSGEZOGEN
 10
2339.1100
 20
 196.5700
 11
2324.6200
 21
 225.6100
  0
LINE
  8
200
  6
AUSGEZOGEN
 10
2321.3400
 20
 219.0400
 11
2335.8300
 21
 190.0000
  0
LINE
  8
200
  6
AUSGEZOGEN
 10
2303.5500
 20
 196.5700
 11
2289.0600
 21
 225.6100
  0
LINE
  8
200
  6
AUSGEZOGEN
 10
2285.7800
 20
 219.0400
 11
2300.2700
 21
 190.0000
  0
LINE
  8
200
  6
AUSGEZOGEN
 10
2395.7300
 20
 271.3800
 11
2410.2200
 21
 242.3400
  0
LINE
  8
200
  6
AUSGEZOGEN
 10
2406.9400
 20
 235.7700
 11
2392.4500
 21
 264.8100
  0
LINE
  8
200
  6
AUSGEZOGEN
 10
2374.6700
 20
 264.8100
 11
2389.1600
 21
 235.7700
  0
LINE
  8
200
  6
AUSGEZOGEN
 10
2371.3800
 20
 235.7700
 11
2356.8900
 21
 264.8100
  0
LINE
  8
200
  6
AUSGEZOGEN
 10
2324.6200
 20
 271.3800
 11
2339.1100
 21
 242.3400
  0
LINE
  8
200
  6
AUSGEZOGEN
 10
2335.8300
 20
 235.7700
 11
2321.3400
 21
 264.8100
  0
LINE
  8
200
  6
AUSGEZOGEN
 10
2289.0600
 20
 271.3800
 11
2303.5500
 21
 242.3400
  0
LINE
  8
200
  6
AUSGEZOGEN
 10
2300.2700
 20
 235.7700
 11
2285.7800
 21
 264.8100
  0
LINE
  8
200
  6
AUSGEZOGEN
 10
2413.5000
 20
 317.1500
 11
2428.0000
 21
 288.1200
  0
LINE
  8
200
  6
AUSGEZOGEN
 10
2406.9400
 20
 281.5400
 11
2392.4500
 21
 310.5800
  0
LINE
  8
200
  6
AUSGEZOGEN
 10
2377.9500
 20
 317.1500
 11
2392.4500
 21
 288.1200
  0
LINE
  8
200
  6
AUSGEZOGEN
 10
2389.1600
 20
 281.5400
 11
2374.6700
 21
 310.5800
  0
LINE
  8
200
  6
AUSGEZOGEN
 10
2360.1700
 20
 317.1500
 11
2374.6700
 21
 288.1200
  0
LINE
  8
200
  6
AUSGEZOGEN
 10
2371.3800
 20
 281.5400
 11
2356.8900
 21
 310.5800
  0
LINE
  8
200
  6
AUSGEZOGEN
 10
2342.3900
 20
 317.1500
 11
2356.8900
 21
 288.1200
  0
LINE
  8
200
  6
AUSGEZOGEN
 10
2335.8300
 20
 281.5400
 11
2321.3400
 21
 310.5800
  0
LINE
  8
200
  6
AUSGEZOGEN
 10
2306.8400
 20
 317.1500
 11
2321.3400
 21
 288.1200
  0
LINE
  8
200
  6
AUSGEZOGEN
 10
2300.2700
 20
 281.5400
 11
2285.7800
 21
 310.5800
  0
LINE
  8
200
  6
AUSGEZOGEN
 10
2271.2800
 20
 317.1500
 11
2285.7800
 21
 288.1200
  0
LINE
  8
200
  6
AUSGEZOGEN
 10
2413.5000
 20
 362.9200
 11
2428.0000
 21
 333.8900
  0
LINE
  8
200
  6
AUSGEZOGEN
 10
2406.9400
 20
 327.3100
 11
2392.4500
 21
 356.3500
  0
LINE
  8
200
  6
AUSGEZOGEN
 10
2377.9500
 20
 362.9200
 11
2392.4500
 21
 333.8900
  0
LINE
  8
200
  6
AUSGEZOGEN
 10
2389.1600
 20
 327.3100
 11
2374.6700
 21
 356.3500
  0
LINE
  8
200
  6
AUSGEZOGEN
 10
2360.1700
 20
 362.9200
 11
2374.6700
 21
 333.8900
  0
LINE
  8
200
  6
AUSGEZOGEN
 10
2371.3800
 20
 327.3100
 11
2356.8900
 21
 356.3500
  0
LINE
  8
200
  6
AUSGEZOGEN
 10
2342.3900
 20
 362.9200
 11
2356.8900
 21
 333.8900
  0
LINE
  8
200
  6
AUSGEZOGEN
 10
2335.8300
 20
 327.3100
 11
2321.3400
 21
 356.3500
  0
LINE
  8
200
  6
AUSGEZOGEN
 10
2306.8400
 20
 362.9200
 11
2321.3400
 21
 333.8900
  0
LINE
  8
200
  6
AUSGEZOGEN
 10
2300.2700
 20
 327.3100
 11
2285.7800
 21
 356.3500
  0
LINE
  8
200
  6
AUSGEZOGEN
 10
2271.2800
 20
 362.9200
 11
2285.7800
 21
 333.8900
  0
LINE
  8
200
  6
AUSGEZOGEN
 10
2413.5000
 20
 408.6900
 11
2428.0000
 21
 379.6600
  0
LINE
  8
200
  6
AUSGEZOGEN
 10
2406.9400
 20
 373.0800
 11
2392.4500
 21
 402.1200
  0
LINE
  8
200
  6
AUSGEZOGEN
 10
2377.9500
 20
 408.6900
 11
2392.4500
 21
 379.6600
  0
LINE
  8
200
  6
AUSGEZOGEN
 10
2389.1600
 20
 373.0800
 11
2374.6700
 21
 402.1200
  0
LINE
  8
200
  6
AUSGEZOGEN
 10
2360.1700
 20
 408.6900
 11
2374.6700
 21
 379.6600
  0
LINE
  8
200
  6
AUSGEZOGEN
 10
2371.3800
 20
 373.0800
 11
2356.8900
 21
 402.1200
  0
LINE
  8
200
  6
AUSGEZOGEN
 10
2342.3900
 20
 408.6900
 11
2356.8900
 21
 379.6600
  0
LINE
  8
200
  6
AUSGEZOGEN
 10
2335.8300
 20
 373.0800
 11
2321.3400
 21
 402.1200
  0
LINE
  8
200
  6
AUSGEZOGEN
 10
2306.8400
 20
 408.6900
 11
2321.3400
 21
 379.6600
  0
LINE
  8
200
  6
AUSGEZOGEN
 10
2300.2700
 20
 373.0800
 11
2285.7800
 21
 402.1200
  0
LINE
  8
200
  6
AUSGEZOGEN
 10
2271.2800
 20
 408.6900
 11
2285.7800
 21
 379.6600
  0
LINE
  8
200
  6
AUSGEZOGEN
 10
2413.5000
 20
 454.4600
 11
2428.0000
 21
 425.4300
  0
LINE
  8
200
  6
AUSGEZOGEN
 10
2406.9400
 20
 418.8500
 11
2392.4500
 21
 447.8900
  0
LINE
  8
200
  6
AUSGEZOGEN
 10
2377.9500
 20
 454.4600
 11
2392.4500
 21
 425.4300
  0
LINE
  8
200
  6
AUSGEZOGEN
 10
2389.1600
 20
 418.8500
 11
2374.6700
 21
 447.8900
  0
LINE
  8
200
  6
AUSGEZOGEN
 10
2360.1700
 20
 454.4600
 11
2374.6700
 21
 425.4300
  0
LINE
  8
200
  6
AUSGEZOGEN
 10
2371.3800
 20
 418.8500
 11
2356.8900
 21
 447.8900
  0
LINE
  8
200
  6
AUSGEZOGEN
 10
2342.3900
 20
 454.4600
 11
2356.8900
 21
 425.4300
  0
LINE
  8
200
  6
AUSGEZOGEN
 10
2335.8300
 20
 418.8500
 11
2321.3400
 21
 447.8900
  0
LINE
  8
200
  6
AUSGEZOGEN
 10
2306.8400
 20
 454.4600
 11
2321.3400
 21
 425.4300
  0
LINE
  8
200
  6
AUSGEZOGEN
 10
2300.2700
 20
 418.8500
 11
2285.7800
 21
 447.8900
  0
LINE
  8
200
  6
AUSGEZOGEN
 10
2271.2800
 20
 454.4600
 11
2285.7800
 21
 425.4300
  0
LINE
  8
200
  6
AUSGEZOGEN
 10
2395.7300
 20
 500.0000
 11
2410.2200
 21
 471.2000
  0
LINE
  8
200
  6
AUSGEZOGEN
 10
2406.9400
 20
 464.6200
 11
2392.4500
 21
 493.6600
  0
LINE
  8
200
  6
AUSGEZOGEN
 10
2374.6700
 20
 493.6600
 11
2389.1600
 21
 464.6200
  0
LINE
  8
200
  6
AUSGEZOGEN
 10
2371.3800
 20
 464.6200
 11
2356.8900
 21
 493.6600
  0
LINE
  8
200
  6
AUSGEZOGEN
 10
2324.6200
 20
 500.0000
 11
2339.1100
 21
 471.2000
  0
LINE
  8
200
  6
AUSGEZOGEN
 10
2335.8300
 20
 464.6200
 11
2321.3400
 21
 493.6600
  0
LINE
  8
200
  6
AUSGEZOGEN
 10
2289.0600
 20
 500.0000
 11
2303.5500
 21
 471.2000
  0
LINE
  8
200
  6
AUSGEZOGEN
 10
2300.2700
 20
 464.6200
 11
2285.7800
 21
 493.6600
  0
LINE
  8
200
  6
AUSGEZOGEN
 10
2588.0000
 20
 196.5700
 11
2573.5000
 21
 225.6100
  0
LINE
  8
200
  6
AUSGEZOGEN
 10
2570.2200
 20
 219.0400
 11
2584.7200
 21
 190.0000
  0
LINE
  8
200
  6
AUSGEZOGEN
 10
2552.4500
 20
 196.5700
 11
2537.9500
 21
 225.6100
  0
LINE
  8
200
  6
AUSGEZOGEN
 10
2520.1700
 20
 225.6100
 11
2534.6700
 21
 196.5700
  0
LINE
  8
200
  6
AUSGEZOGEN
 10
2516.8900
 20
 196.5700
 11
2502.3900
 21
 225.6100
  0
LINE
  8
200
  6
AUSGEZOGEN
 10
2499.1100
 20
 219.0400
 11
2513.6100
 21
 190.0000
  0
LINE
  8
200
  6
AUSGEZOGEN
 10
2481.3400
 20
 196.5700
 11
2466.8400
 21
 225.6100
  0
LINE
  8
200
  6
AUSGEZOGEN
 10
2463.5500
 20
 219.0400
 11
2478.0500
 21
 190.0000
  0
LINE
  8
200
  6
AUSGEZOGEN
 10
2445.7800
 20
 196.5700
 11
2431.2800
 21
 225.6100
  0
LINE
  8
200
  6
AUSGEZOGEN
 10
2428.0000
 20
 219.0400
 11
2442.5000
 21
 190.0000
  0
LINE
  8
200
  6
AUSGEZOGEN
 10
2573.5000
 20
 271.3800
 11
2588.0000
 21
 242.3400
  0
LINE
  8
200
  6
AUSGEZOGEN
 10
2584.7200
 20
 235.7700
 11
2570.2200
 21
 264.8100
  0
LINE
  8
200
  6
AUSGEZOGEN
 10
2537.9500
 20
 271.3800
 11
2552.4500
 21
 242.3400
  0
LINE
  8
200
  6
AUSGEZOGEN
 10
2534.6700
 20
 242.3400
 11
2520.1700
 21
 271.3800
  0
LINE
  8
200
  6
AUSGEZOGEN
 10
2502.3900
 20
 271.3800
 11
2516.8900
 21
 242.3400
  0
LINE
  8
200
  6
AUSGEZOGEN
 10
2513.6100
 20
 235.7700
 11
2499.1100
 21
 264.8100
  0
LINE
  8
200
  6
AUSGEZOGEN
 10
2466.8400
 20
 271.3800
 11
2481.3400
 21
 242.3400
  0
LINE
  8
200
  6
AUSGEZOGEN
 10
2478.0500
 20
 235.7700
 11
2463.5500
 21
 264.8100
  0
LINE
  8
200
  6
AUSGEZOGEN
 10
2431.2800
 20
 271.3800
 11
2445.7800
 21
 242.3400
  0
LINE
  8
200
  6
AUSGEZOGEN
 10
2442.5000
 20
 235.7700
 11
2428.0000
 21
 264.8100
  0
LINE
  8
200
  6
AUSGEZOGEN
 10
2570.2200
 20
 310.5800
 11
2584.7200
 21
 281.5400
  0
LINE
  8
200
  6
AUSGEZOGEN
 10
2513.6100
 20
 281.5400
 11
2499.1100
 21
 310.5800
  0
LINE
  8
200
  6
AUSGEZOGEN
 10
2463.5500
 20
 310.5800
 11
2478.0500
 21
 281.5400
  0
LINE
  8
200
  6
AUSGEZOGEN
 10
2442.5000
 20
 281.5400
 11
2428.0000
 21
 310.5800
  0
LINE
  8
200
  6
AUSGEZOGEN
 10
2570.2200
 20
 356.3500
 11
2584.7200
 21
 327.3100
  0
LINE
  8
200
  6
AUSGEZOGEN
 10
2513.6100
 20
 327.3100
 11
2499.1100
 21
 356.3500
  0
LINE
  8
200
  6
AUSGEZOGEN
 10
2463.5500
 20
 356.3500
 11
2478.0500
 21
 327.3100
  0
LINE
  8
200
  6
AUSGEZOGEN
 10
2442.5000
 20
 327.3100
 11
2428.0000
 21
 356.3500
  0
LINE
  8
200
  6
AUSGEZOGEN
 10
2570.2200
 20
 402.1200
 11
2584.7200
 21
 373.0800
  0
LINE
  8
200
  6
AUSGEZOGEN
 10
2513.6100
 20
 373.0800
 11
2499.1100
 21
 402.1200
  0
LINE
  8
200
  6
AUSGEZOGEN
 10
2463.5500
 20
 402.1200
 11
2478.0500
 21
 373.0800
  0
LINE
  8
200
  6
AUSGEZOGEN
 10
2442.5000
 20
 373.0800
 11
2428.0000
 21
 402.1200
  0
LINE
  8
200
  6
AUSGEZOGEN
 10
2570.2200
 20
 447.8900
 11
2584.7200
 21
 418.8500
  0
LINE
  8
200
  6
AUSGEZOGEN
 10
2513.6100
 20
 418.8500
 11
2499.1100
 21
 447.8900
  0
LINE
  8
200
  6
AUSGEZOGEN
 10
2463.5500
 20
 447.8900
 11
2478.0500
 21
 418.8500
  0
LINE
  8
200
  6
AUSGEZOGEN
 10
2442.5000
 20
 418.8500
 11
2428.0000
 21
 447.8900
  0
LINE
  8
200
  6
AUSGEZOGEN
 10
2573.5000
 20
 500.0000
 11
2588.0000
 21
 471.2000
  0
LINE
  8
200
  6
AUSGEZOGEN
 10
2584.7200
 20
 464.6200
 11
2570.2200
 21
 493.6600
  0
LINE
  8
200
  6
AUSGEZOGEN
 10
2537.9500
 20
 500.0000
 11
2552.4500
 21
 471.2000
  0
LINE
  8
200
  6
AUSGEZOGEN
 10
2534.6700
 20
 471.2000
 11
2520.1700
 21
 500.0000
  0
LINE
  8
200
  6
AUSGEZOGEN
 10
2502.3900
 20
 500.0000
 11
2516.8900
 21
 471.2000
  0
LINE
  8
200
  6
AUSGEZOGEN
 10
2513.6100
 20
 464.6200
 11
2499.1100
 21
 493.6600
  0
LINE
  8
200
  6
AUSGEZOGEN
 10
2466.8400
 20
 500.0000
 11
2481.3400
 21
 471.2000
  0
LINE
  8
200
  6
AUSGEZOGEN
 10
2478.0500
 20
 464.6200
 11
2463.5500
 21
 493.6600
  0
LINE
  8
200
  6
AUSGEZOGEN
 10
2431.2800
 20
 500.0000
 11
2445.7800
 21
 471.2000
  0
LINE
  8
200
  6
AUSGEZOGEN
 10
2442.5000
 20
 464.6200
 11
2428.0000
 21
 493.6600
  0
LINE
  8
200
  6
AUSGEZOGEN
 10
2428.0000
 20
 196.5700
 11
2413.5000
 21
 225.6100
  0
LINE
  8
200
  6
AUSGEZOGEN
 10
2410.2200
 20
 219.0400
 11
2424.7200
 21
 190.0000
  0
LINE
  8
200
  6
AUSGEZOGEN
 10
2392.4500
 20
 196.5700
 11
2377.9500
 21
 225.6100
  0
LINE
  8
200
  6
AUSGEZOGEN
 10
2360.1700
 20
 225.6100
 11
2374.6700
 21
 196.5700
  0
LINE
  8
200
  6
AUSGEZOGEN
 10
2356.8900
 20
 196.5700
 11
2342.3900
 21
 225.6100
  0
LINE
  8
200
  6
AUSGEZOGEN
 10
2339.1100
 20
 219.0400
 11
2353.6100
 21
 190.0000
  0
LINE
  8
200
  6
AUSGEZOGEN
 10
2321.3400
 20
 196.5700
 11
2306.8400
 21
 225.6100
  0
LINE
  8
200
  6
AUSGEZOGEN
 10
2303.5500
 20
 219.0400
 11
2318.0500
 21
 190.0000
  0
LINE
  8
200
  6
AUSGEZOGEN
 10
2285.7800
 20
 196.5700
 11
2271.2800
 21
 225.6100
  0
LINE
  8
200
  6
AUSGEZOGEN
 10
2268.0000
 20
 219.0400
 11
2282.5000
 21
 190.0000
  0
LINE
  8
200
  6
AUSGEZOGEN
 10
2413.5000
 20
 271.3800
 11
2428.0000
 21
 242.3400
  0
LINE
  8
200
  6
AUSGEZOGEN
 10
2424.7200
 20
 235.7700
 11
2410.2200
 21
 264.8100
  0
LINE
  8
200
  6
AUSGEZOGEN
 10
2377.9500
 20
 271.3800
 11
2392.4500
 21
 242.3400
  0
LINE
  8
200
  6
AUSGEZOGEN
 10
2374.6700
 20
 242.3400
 11
2360.1700
 21
 271.3800
  0
LINE
  8
200
  6
AUSGEZOGEN
 10
2342.3900
 20
 271.3800
 11
2356.8900
 21
 242.3400
  0
LINE
  8
200
  6
AUSGEZOGEN
 10
2353.6100
 20
 235.7700
 11
2339.1100
 21
 264.8100
  0
LINE
  8
200
  6
AUSGEZOGEN
 10
2306.8400
 20
 271.3800
 11
2321.3400
 21
 242.3400
  0
LINE
  8
200
  6
AUSGEZOGEN
 10
2318.0500
 20
 235.7700
 11
2303.5500
 21
 264.8100
  0
LINE
  8
200
  6
AUSGEZOGEN
 10
2271.2800
 20
 271.3800
 11
2285.7800
 21
 242.3400
  0
LINE
  8
200
  6
AUSGEZOGEN
 10
2282.5000
 20
 235.7700
 11
2268.0000
 21
 264.8100
  0
LINE
  8
200
  6
AUSGEZOGEN
 10
2410.2200
 20
 310.5800
 11
2424.7200
 21
 281.5400
  0
LINE
  8
200
  6
AUSGEZOGEN
 10
2353.6100
 20
 281.5400
 11
2339.1100
 21
 310.5800
  0
LINE
  8
200
  6
AUSGEZOGEN
 10
2303.5500
 20
 310.5800
 11
2318.0500
 21
 281.5400
  0
LINE
  8
200
  6
AUSGEZOGEN
 10
2282.5000
 20
 281.5400
 11
2268.0000
 21
 310.5800
  0
LINE
  8
200
  6
AUSGEZOGEN
 10
2410.2200
 20
 356.3500
 11
2424.7200
 21
 327.3100
  0
LINE
  8
200
  6
AUSGEZOGEN
 10
2353.6100
 20
 327.3100
 11
2339.1100
 21
 356.3500
  0
LINE
  8
200
  6
AUSGEZOGEN
 10
2303.5500
 20
 356.3500
 11
2318.0500
 21
 327.3100
  0
LINE
  8
200
  6
AUSGEZOGEN
 10
2282.5000
 20
 327.3100
 11
2268.0000
 21
 356.3500
  0
LINE
  8
200
  6
AUSGEZOGEN
 10
2410.2200
 20
 402.1200
 11
2424.7200
 21
 373.0800
  0
LINE
  8
200
  6
AUSGEZOGEN
 10
2353.6100
 20
 373.0800
 11
2339.1100
 21
 402.1200
  0
LINE
  8
200
  6
AUSGEZOGEN
 10
2303.5500
 20
 402.1200
 11
2318.0500
 21
 373.0800
  0
LINE
  8
200
  6
AUSGEZOGEN
 10
2282.5000
 20
 373.0800
 11
2268.0000
 21
 402.1200
  0
LINE
  8
200
  6
AUSGEZOGEN
 10
2410.2200
 20
 447.8900
 11
2424.7200
 21
 418.8500
  0
LINE
  8
200
  6
AUSGEZOGEN
 10
2353.6100
 20
 418.8500
 11
2339.1100
 21
 447.8900
  0
LINE
  8
200
  6
AUSGEZOGEN
 10
2303.5500
 20
 447.8900
 11
2318.0500
 21
 418.8500
  0
LINE
  8
200
  6
AUSGEZOGEN
 10
2282.5000
 20
 418.8500
 11
2268.0000
 21
 447.8900
  0
LINE
  8
200
  6
AUSGEZOGEN
 10
2413.5000
 20
 500.0000
 11
2428.0000
 21
 471.2000
  0
LINE
  8
200
  6
AUSGEZOGEN
 10
2424.7200
 20
 464.6200
 11
2410.2200
 21
 493.6600
  0
LINE
  8
200
  6
AUSGEZOGEN
 10
2377.9500
 20
 500.0000
 11
2392.4500
 21
 471.2000
  0
LINE
  8
200
  6
AUSGEZOGEN
 10
2374.6700
 20
 471.2000
 11
2360.1700
 21
 500.0000
  0
LINE
  8
200
  6
AUSGEZOGEN
 10
2342.3900
 20
 500.0000
 11
2356.8900
 21
 471.2000
  0
LINE
  8
200
  6
AUSGEZOGEN
 10
2353.6100
 20
 464.6200
 11
2339.1100
 21
 493.6600
  0
LINE
  8
200
  6
AUSGEZOGEN
 10
2306.8400
 20
 500.0000
 11
2321.3400
 21
 471.2000
  0
LINE
  8
200
  6
AUSGEZOGEN
 10
2318.0500
 20
 464.6200
 11
2303.5500
 21
 493.6600
  0
LINE
  8
200
  6
AUSGEZOGEN
 10
2271.2800
 20
 500.0000
 11
2285.7800
 21
 471.2000
  0
LINE
  8
200
  6
AUSGEZOGEN
 10
2282.5000
 20
 464.6200
 11
2268.0000
 21
 493.6600
  0
LINE
  8
200
  6
AUSGEZOGEN
 10
2645.0800
 20
 851.3600
 11
2642.5000
 21
 849.9900
  0
LINE
  8
200
  6
AUSGEZOGEN
 10
2649.0600
 20
 885.0000
 11
2646.4800
 21
 883.6200
  0
LINE
  8
200
  6
AUSGEZOGEN
 10
2698.4100
 20
 851.3600
 11
2695.8300
 21
 849.9900
  0
LINE
  8
200
  6
AUSGEZOGEN
 10
2716.1900
 20
 851.3600
 11
2713.6100
 21
 849.9900
  0
LINE
  8
200
  6
AUSGEZOGEN
 10
2699.8100
 20
 883.6200
 11
2702.3900
 21
 885.0000
  0
LINE
  8
200
  6
AUSGEZOGEN
 10
2720.1700
 20
 885.0000
 11
2717.5900
 21
 883.6200
  0
LINE
  8
200
  6
AUSGEZOGEN
 10
2773.5000
 20
 885.0000
 11
2770.9200
 21
 883.6200
  0
LINE
  8
200
  6
AUSGEZOGEN
 10
2642.5000
 20
 805.0000
 11
2645.0800
 21
 806.3800
  0
LINE
  8
200
  6
AUSGEZOGEN
 10
2628.6900
 20
 838.6400
 11
2631.2800
 21
 840.0000
  0
LINE
  8
200
  6
AUSGEZOGEN
 10
2649.0600
 20
 840.0000
 11
2646.4800
 21
 838.6400
  0
LINE
  8
200
  6
AUSGEZOGEN
 10
2666.8400
 20
 840.0000
 11
2664.2500
 21
 838.6400
  0
LINE
  8
200
  6
AUSGEZOGEN
 10
2698.4100
 20
 806.3800
 11
2695.8300
 21
 805.0000
  0
LINE
  8
200
  6
AUSGEZOGEN
 10
2682.0300
 20
 838.6400
 11
2684.6200
 21
 840.0000
  0
LINE
  8
200
  6
AUSGEZOGEN
 10
2716.1900
 20
 806.3800
 11
2713.6100
 21
 805.0000
  0
LINE
  8
200
  6
AUSGEZOGEN
 10
2699.8100
 20
 838.6400
 11
2702.3900
 21
 840.0000
  0
LINE
  8
200
  6
AUSGEZOGEN
 10
2720.1700
 20
 840.0000
 11
2717.5900
 21
 838.6400
  0
LINE
  8
200
  6
AUSGEZOGEN
 10
2737.9500
 20
 840.0000
 11
2735.3600
 21
 838.6400
  0
LINE
  8
200
  6
AUSGEZOGEN
 10
2755.7300
 20
 840.0000
 11
2753.1400
 21
 838.6400
  0
LINE
  8
200
  6
AUSGEZOGEN
 10
2773.5000
 20
 840.0000
 11
2770.9200
 21
 838.6400
  0
LINE
  8
200
  6
AUSGEZOGEN
 10
2805.0800
 20
 851.3600
 11
2802.5000
 21
 849.9900
  0
LINE
  8
200
  6
AUSGEZOGEN
 10
2809.0600
 20
 885.0000
 11
2806.4800
 21
 883.6200
  0
LINE
  8
200
  6
AUSGEZOGEN
 10
2858.4100
 20
 851.3600
 11
2855.8300
 21
 849.9900
  0
LINE
  8
200
  6
AUSGEZOGEN
 10
2876.1900
 20
 851.3600
 11
2873.6100
 21
 849.9900
  0
LINE
  8
200
  6
AUSGEZOGEN
 10
2859.8100
 20
 883.6200
 11
2862.3900
 21
 885.0000
  0
LINE
  8
200
  6
AUSGEZOGEN
 10
2880.1700
 20
 885.0000
 11
2877.5900
 21
 883.6200
  0
LINE
  8
200
  6
AUSGEZOGEN
 10
2933.5000
 20
 885.0000
 11
2930.9200
 21
 883.6200
  0
LINE
  8
200
  6
AUSGEZOGEN
 10
2802.5000
 20
 805.0000
 11
2805.0800
 21
 806.3800
  0
LINE
  8
200
  6
AUSGEZOGEN
 10
2788.6900
 20
 838.6400
 11
2791.2800
 21
 840.0000
  0
LINE
  8
200
  6
AUSGEZOGEN
 10
2809.0600
 20
 840.0000
 11
2806.4800
 21
 838.6400
  0
LINE
  8
200
  6
AUSGEZOGEN
 10
2826.8400
 20
 840.0000
 11
2824.2500
 21
 838.6400
  0
LINE
  8
200
  6
AUSGEZOGEN
 10
2858.4100
 20
 806.3800
 11
2855.8300
 21
 805.0000
  0
LINE
  8
200
  6
AUSGEZOGEN
 10
2842.0300
 20
 838.6400
 11
2844.6200
 21
 840.0000
  0
LINE
  8
200
  6
AUSGEZOGEN
 10
2876.1900
 20
 806.3800
 11
2873.6100
 21
 805.0000
  0
LINE
  8
200
  6
AUSGEZOGEN
 10
2859.8100
 20
 838.6400
 11
2862.3900
 21
 840.0000
  0
LINE
  8
200
  6
AUSGEZOGEN
 10
2880.1700
 20
 840.0000
 11
2877.5900
 21
 838.6400
  0
LINE
  8
200
  6
AUSGEZOGEN
 10
2897.9500
 20
 840.0000
 11
2895.3600
 21
 838.6400
  0
LINE
  8
200
  6
AUSGEZOGEN
 10
2915.7300
 20
 840.0000
 11
2913.1400
 21
 838.6400
  0
LINE
  8
200
  6
AUSGEZOGEN
 10
2933.5000
 20
 840.0000
 11
2930.9200
 21
 838.6400
  0
LINE
  8
200
  6
AUSGEZOGEN
 10
2947.3100
 20
 851.3600
 11
2944.7200
 21
 849.9900
  0
LINE
  8
200
  6
AUSGEZOGEN
 10
2926.9400
 20
 849.9900
 11
2929.5300
 21
 851.3600
  0
LINE
  8
200
  6
AUSGEZOGEN
 10
2909.1600
 20
 849.9900
 11
2911.7500
 21
 851.3600
  0
LINE
  8
200
  6
AUSGEZOGEN
 10
2891.3800
 20
 849.9900
 11
2893.9700
 21
 851.3600
  0
LINE
  8
200
  6
AUSGEZOGEN
 10
2838.0500
 20
 849.9900
 11
2840.6400
 21
 851.3600
  0
LINE
  8
200
  6
AUSGEZOGEN
 10
2820.2700
 20
 849.9900
 11
2822.8600
 21
 851.3600
  0
LINE
  8
200
  6
AUSGEZOGEN
 10
2784.7200
 20
 849.9900
 11
2787.3100
 21
 851.3600
  0
LINE
  8
200
  6
AUSGEZOGEN
 10
2766.9400
 20
 849.9900
 11
2769.5300
 21
 851.3600
  0
LINE
  8
200
  6
AUSGEZOGEN
 10
2749.1600
 20
 849.9900
 11
2751.7500
 21
 851.3600
  0
LINE
  8
200
  6
AUSGEZOGEN
 10
2731.3800
 20
 849.9900
 11
2733.9700
 21
 851.3600
  0
LINE
  8
200
  6
AUSGEZOGEN
 10
2678.0500
 20
 849.9900
 11
2680.6400
 21
 851.3600
  0
LINE
  8
200
  6
AUSGEZOGEN
 10
2660.2700
 20
 849.9900
 11
2662.8600
 21
 851.3600
  0
LINE
  8
200
  6
AUSGEZOGEN
 10
2628.6900
 20
 883.6200
 11
2631.2800
 21
 885.0000
  0
LINE
  8
200
  6
AUSGEZOGEN
 10
2666.8400
 20
 885.0000
 11
2664.2500
 21
 883.6200
  0
LINE
  8
200
  6
AUSGEZOGEN
 10
2684.6200
 20
 885.0000
 11
2682.0300
 21
 883.6200
  0
LINE
  8
200
  6
AUSGEZOGEN
 10
2737.9500
 20
 885.0000
 11
2735.3600
 21
 883.6200
  0
LINE
  8
200
  6
AUSGEZOGEN
 10
2755.7300
 20
 885.0000
 11
2753.1400
 21
 883.6200
  0
LINE
  8
200
  6
AUSGEZOGEN
 10
2660.2700
 20
 805.0000
 11
2662.8600
 21
 806.3800
  0
LINE
  8
200
  6
AUSGEZOGEN
 10
2680.6400
 20
 806.3800
 11
2678.0500
 21
 805.0000
  0
LINE
  8
200
  6
AUSGEZOGEN
 10
2733.9700
 20
 806.3800
 11
2731.3800
 21
 805.0000
  0
LINE
  8
200
  6
AUSGEZOGEN
 10
2751.7500
 20
 806.3800
 11
2749.1600
 21
 805.0000
  0
LINE
  8
200
  6
AUSGEZOGEN
 10
2769.5300
 20
 806.3800
 11
2766.9400
 21
 805.0000
  0
LINE
  8
200
  6
AUSGEZOGEN
 10
2787.3100
 20
 806.3800
 11
2784.7200
 21
 805.0000
  0
LINE
  8
200
  6
AUSGEZOGEN
 10
2791.2800
 20
 885.0000
 11
2788.6900
 21
 883.6200
  0
LINE
  8
200
  6
AUSGEZOGEN
 10
2826.8400
 20
 885.0000
 11
2824.2500
 21
 883.6200
  0
LINE
  8
200
  6
AUSGEZOGEN
 10
2844.6200
 20
 885.0000
 11
2842.0300
 21
 883.6200
  0
LINE
  8
200
  6
AUSGEZOGEN
 10
2897.9500
 20
 885.0000
 11
2895.3600
 21
 883.6200
  0
LINE
  8
200
  6
AUSGEZOGEN
 10
2915.7300
 20
 885.0000
 11
2913.1400
 21
 883.6200
  0
LINE
  8
200
  6
AUSGEZOGEN
 10
2820.2700
 20
 805.0000
 11
2822.8600
 21
 806.3800
  0
LINE
  8
200
  6
AUSGEZOGEN
 10
2840.6400
 20
 806.3800
 11
2838.0500
 21
 805.0000
  0
LINE
  8
200
  6
AUSGEZOGEN
 10
2893.9700
 20
 806.3800
 11
2891.3800
 21
 805.0000
  0
LINE
  8
200
  6
AUSGEZOGEN
 10
2911.7500
 20
 806.3800
 11
2909.1600
 21
 805.0000
  0
LINE
  8
200
  6
AUSGEZOGEN
 10
2929.5300
 20
 806.3800
 11
2926.9400
 21
 805.0000
  0
LINE
  8
200
  6
AUSGEZOGEN
 10
2947.3100
 20
 806.3800
 11
2944.7200
 21
 805.0000
  0
LINE
  8
200
  6
AUSGEZOGEN
 10
2628.6900
 20
 883.6200
 11
2628.0000
 21
 878.5300
  0
LINE
  8
200
  6
AUSGEZOGEN
 10
2681.3400
 20
 878.5300
 11
2682.0300
 21
 883.6200
  0
LINE
  8
200
  6
AUSGEZOGEN
 10
2735.3600
 20
 883.6200
 11
2734.6700
 21
 878.5300
  0
LINE
  8
200
  6
AUSGEZOGEN
 10
2752.4500
 20
 878.5300
 11
2753.1400
 21
 883.6200
  0
LINE
  8
200
  6
AUSGEZOGEN
 10
2662.8600
 20
 806.3800
 11
2663.5500
 21
 811.4700
  0
LINE
  8
200
  6
AUSGEZOGEN
 10
2770.2200
 20
 811.4700
 11
2769.5300
 21
 806.3800
  0
LINE
  8
200
  6
AUSGEZOGEN
 10
2787.3100
 20
 806.3800
 11
2788.0000
 21
 811.4700
  0
LINE
  8
200
  6
AUSGEZOGEN
 10
2788.6900
 20
 883.6200
 11
2788.0000
 21
 878.5300
  0
LINE
  8
200
  6
AUSGEZOGEN
 10
2841.3400
 20
 878.5300
 11
2842.0300
 21
 883.6200
  0
LINE
  8
200
  6
AUSGEZOGEN
 10
2895.3600
 20
 883.6200
 11
2894.6700
 21
 878.5300
  0
LINE
  8
200
  6
AUSGEZOGEN
 10
2912.4500
 20
 878.5300
 11
2913.1400
 21
 883.6200
  0
LINE
  8
200
  6
AUSGEZOGEN
 10
2822.8600
 20
 806.3800
 11
2823.5500
 21
 811.4700
  0
LINE
  8
200
  6
AUSGEZOGEN
 10
2930.2200
 20
 811.4700
 11
2929.5300
 21
 806.3800
  0
LINE
  8
200
  6
AUSGEZOGEN
 10
2947.3100
 20
 806.3800
 11
2948.0000
 21
 811.4700
  0
LINE
  8
200
  6
AUSGEZOGEN
 10
2646.4800
 20
 883.6200
 11
2645.7800
 21
 878.5300
  0
LINE
  8
200
  6
AUSGEZOGEN
 10
2663.5500
 20
 878.5300
 11
2664.2500
 21
 883.6200
  0
LINE
  8
200
  6
AUSGEZOGEN
 10
2699.8100
 20
 883.6200
 11
2699.1100
 21
 878.5300
  0
LINE
  8
200
  6
AUSGEZOGEN
 10
2716.8900
 20
 878.5300
 11
2717.5900
 21
 883.6200
  0
LINE
  8
200
  6
AUSGEZOGEN
 10
2770.9200
 20
 883.6200
 11
2770.2200
 21
 878.5300
  0
LINE
  8
200
  6
AUSGEZOGEN
 10
2645.0800
 20
 806.3800
 11
2645.7800
 21
 811.4700
  0
LINE
  8
200
  6
AUSGEZOGEN
 10
2681.3400
 20
 811.4700
 11
2680.6400
 21
 806.3800
  0
LINE
  8
200
  6
AUSGEZOGEN
 10
2698.4100
 20
 806.3800
 11
2699.1100
 21
 811.4700
  0
LINE
  8
200
  6
AUSGEZOGEN
 10
2716.8900
 20
 811.4700
 11
2716.1900
 21
 806.3800
  0
LINE
  8
200
  6
AUSGEZOGEN
 10
2733.9700
 20
 806.3800
 11
2734.6700
 21
 811.4700
  0
LINE
  8
200
  6
AUSGEZOGEN
 10
2752.4500
 20
 811.4700
 11
2751.7500
 21
 806.3800
  0
LINE
  8
200
  6
AUSGEZOGEN
 10
2806.4800
 20
 883.6200
 11
2805.7800
 21
 878.5300
  0
LINE
  8
200
  6
AUSGEZOGEN
 10
2823.5500
 20
 878.5300
 11
2824.2500
 21
 883.6200
  0
LINE
  8
200
  6
AUSGEZOGEN
 10
2859.8100
 20
 883.6200
 11
2859.1100
 21
 878.5300
  0
LINE
  8
200
  6
AUSGEZOGEN
 10
2876.8900
 20
 878.5300
 11
2877.5900
 21
 883.6200
  0
LINE
  8
200
  6
AUSGEZOGEN
 10
2930.9200
 20
 883.6200
 11
2930.2200
 21
 878.5300
  0
LINE
  8
200
  6
AUSGEZOGEN
 10
2805.0800
 20
 806.3800
 11
2805.7800
 21
 811.4700
  0
LINE
  8
200
  6
AUSGEZOGEN
 10
2841.3400
 20
 811.4700
 11
2840.6400
 21
 806.3800
  0
LINE
  8
200
  6
AUSGEZOGEN
 10
2858.4100
 20
 806.3800
 11
2859.1100
 21
 811.4700
  0
LINE
  8
200
  6
AUSGEZOGEN
 10
2876.8900
 20
 811.4700
 11
2876.1900
 21
 806.3800
  0
LINE
  8
200
  6
AUSGEZOGEN
 10
2893.9700
 20
 806.3800
 11
2894.6700
 21
 811.4700
  0
LINE
  8
200
  6
AUSGEZOGEN
 10
2912.4500
 20
 811.4700
 11
2911.7500
 21
 806.3800
  0
LINE
  8
200
  6
AUSGEZOGEN
 10
2628.6900
 20
 838.6400
 11
2628.0000
 21
 833.5400
  0
LINE
  8
200
  6
AUSGEZOGEN
 10
2663.5500
 20
 856.4600
 11
2662.8600
 21
 851.3600
  0
LINE
  8
200
  6
AUSGEZOGEN
 10
2769.5300
 20
 851.3600
 11
2770.2200
 21
 856.4600
  0
LINE
  8
200
  6
AUSGEZOGEN
 10
2788.0000
 20
 856.4600
 11
2787.3100
 21
 851.3600
  0
LINE
  8
200
  6
AUSGEZOGEN
 10
2681.3400
 20
 833.5400
 11
2682.0300
 21
 838.6400
  0
LINE
  8
200
  6
AUSGEZOGEN
 10
2735.3600
 20
 838.6400
 11
2734.6700
 21
 833.5400
  0
LINE
  8
200
  6
AUSGEZOGEN
 10
2752.4500
 20
 833.5400
 11
2753.1400
 21
 838.6400
  0
LINE
  8
200
  6
AUSGEZOGEN
 10
2788.6900
 20
 838.6400
 11
2788.0000
 21
 833.5400
  0
LINE
  8
200
  6
AUSGEZOGEN
 10
2823.5500
 20
 856.4600
 11
2822.8600
 21
 851.3600
  0
LINE
  8
200
  6
AUSGEZOGEN
 10
2929.5300
 20
 851.3600
 11
2930.2200
 21
 856.4600
  0
LINE
  8
200
  6
AUSGEZOGEN
 10
2948.0000
 20
 856.4600
 11
2947.3100
 21
 851.3600
  0
LINE
  8
200
  6
AUSGEZOGEN
 10
2841.3400
 20
 833.5400
 11
2842.0300
 21
 838.6400
  0
LINE
  8
200
  6
AUSGEZOGEN
 10
2895.3600
 20
 838.6400
 11
2894.6700
 21
 833.5400
  0
LINE
  8
200
  6
AUSGEZOGEN
 10
2912.4500
 20
 833.5400
 11
2913.1400
 21
 838.6400
  0
LINE
  8
200
  6
AUSGEZOGEN
 10
2645.7800
 20
 856.4600
 11
2645.0800
 21
 851.3600
  0
LINE
  8
200
  6
AUSGEZOGEN
 10
2680.6400
 20
 851.3600
 11
2681.3400
 21
 856.4600
  0
LINE
  8
200
  6
AUSGEZOGEN
 10
2699.1100
 20
 856.4600
 11
2698.4100
 21
 851.3600
  0
LINE
  8
200
  6
AUSGEZOGEN
 10
2716.1900
 20
 851.3600
 11
2716.8900
 21
 856.4600
  0
LINE
  8
200
  6
AUSGEZOGEN
 10
2734.6700
 20
 856.4600
 11
2733.9700
 21
 851.3600
  0
LINE
  8
200
  6
AUSGEZOGEN
 10
2751.7500
 20
 851.3600
 11
2752.4500
 21
 856.4600
  0
LINE
  8
200
  6
AUSGEZOGEN
 10
2645.7800
 20
 833.5400
 11
2646.4800
 21
 838.6400
  0
LINE
  8
200
  6
AUSGEZOGEN
 10
2664.2500
 20
 838.6400
 11
2663.5500
 21
 833.5400
  0
LINE
  8
200
  6
AUSGEZOGEN
 10
2699.1100
 20
 833.5400
 11
2699.8100
 21
 838.6400
  0
LINE
  8
200
  6
AUSGEZOGEN
 10
2717.5900
 20
 838.6400
 11
2716.8900
 21
 833.5400
  0
LINE
  8
200
  6
AUSGEZOGEN
 10
2770.2200
 20
 833.5400
 11
2770.9200
 21
 838.6400
  0
LINE
  8
200
  6
AUSGEZOGEN
 10
2805.7800
 20
 856.4600
 11
2805.0800
 21
 851.3600
  0
LINE
  8
200
  6
AUSGEZOGEN
 10
2840.6400
 20
 851.3600
 11
2841.3400
 21
 856.4600
  0
LINE
  8
200
  6
AUSGEZOGEN
 10
2859.1100
 20
 856.4600
 11
2858.4100
 21
 851.3600
  0
LINE
  8
200
  6
AUSGEZOGEN
 10
2876.1900
 20
 851.3600
 11
2876.8900
 21
 856.4600
  0
LINE
  8
200
  6
AUSGEZOGEN
 10
2894.6700
 20
 856.4600
 11
2893.9700
 21
 851.3600
  0
LINE
  8
200
  6
AUSGEZOGEN
 10
2911.7500
 20
 851.3600
 11
2912.4500
 21
 856.4600
  0
LINE
  8
200
  6
AUSGEZOGEN
 10
2805.7800
 20
 833.5400
 11
2806.4800
 21
 838.6400
  0
LINE
  8
200
  6
AUSGEZOGEN
 10
2824.2500
 20
 838.6400
 11
2823.5500
 21
 833.5400
  0
LINE
  8
200
  6
AUSGEZOGEN
 10
2859.1100
 20
 833.5400
 11
2859.8100
 21
 838.6400
  0
LINE
  8
200
  6
AUSGEZOGEN
 10
2877.5900
 20
 838.6400
 11
2876.8900
 21
 833.5400
  0
LINE
  8
200
  6
AUSGEZOGEN
 10
2930.2200
 20
 833.5400
 11
2930.9200
 21
 838.6400
  0
LINE
  8
200
  6
AUSGEZOGEN
 10
2663.5500
 20
 811.4700
 11
2649.0600
 21
 840.0000
  0
LINE
  8
200
  6
AUSGEZOGEN
 10
2684.6200
 20
 840.0000
 11
2699.1100
 21
 811.4700
  0
LINE
  8
200
  6
AUSGEZOGEN
 10
2770.2200
 20
 811.4700
 11
2755.7300
 21
 840.0000
  0
LINE
  8
200
  6
AUSGEZOGEN
 10
2809.0600
 20
 840.0000
 11
2823.5500
 21
 811.4700
  0
LINE
  8
200
  6
AUSGEZOGEN
 10
2859.1100
 20
 811.4700
 11
2844.6200
 21
 840.0000
  0
LINE
  8
200
  6
AUSGEZOGEN
 10
2915.7300
 20
 840.0000
 11
2930.2200
 21
 811.4700
  0
LINE
  8
200
  6
AUSGEZOGEN
 10
2645.7800
 20
 878.5300
 11
2660.2700
 21
 849.9900
  0
LINE
  8
200
  6
AUSGEZOGEN
 10
2663.5500
 20
 856.4600
 11
2649.0600
 21
 885.0000
  0
LINE
  8
200
  6
AUSGEZOGEN
 10
2681.3400
 20
 878.5300
 11
2695.8300
 21
 849.9900
  0
LINE
  8
200
  6
AUSGEZOGEN
 10
2699.1100
 20
 856.4600
 11
2684.6200
 21
 885.0000
  0
LINE
  8
200
  6
AUSGEZOGEN
 10
2716.8900
 20
 878.5300
 11
2731.3800
 21
 849.9900
  0
LINE
  8
200
  6
AUSGEZOGEN
 10
2749.1600
 20
 849.9900
 11
2734.6700
 21
 878.5300
  0
LINE
  8
200
  6
AUSGEZOGEN
 10
2752.4500
 20
 878.5300
 11
2766.9400
 21
 849.9900
  0
LINE
  8
200
  6
AUSGEZOGEN
 10
2770.2200
 20
 856.4600
 11
2755.7300
 21
 885.0000
  0
LINE
  8
200
  6
AUSGEZOGEN
 10
2645.7800
 20
 811.4700
 11
2631.2800
 21
 840.0000
  0
LINE
  8
200
  6
AUSGEZOGEN
 10
2645.7800
 20
 833.5400
 11
2660.2700
 21
 805.0000
  0
LINE
  8
200
  6
AUSGEZOGEN
 10
2681.3400
 20
 811.4700
 11
2666.8400
 21
 840.0000
  0
LINE
  8
200
  6
AUSGEZOGEN
 10
2681.3400
 20
 833.5400
 11
2695.8300
 21
 805.0000
  0
LINE
  8
200
  6
AUSGEZOGEN
 10
2716.8900
 20
 811.4700
 11
2702.3900
 21
 840.0000
  0
LINE
  8
200
  6
AUSGEZOGEN
 10
2716.8900
 20
 833.5400
 11
2731.3800
 21
 805.0000
  0
LINE
  8
200
  6
AUSGEZOGEN
 10
2734.6700
 20
 811.4700
 11
2720.1700
 21
 840.0000
  0
LINE
  8
200
  6
AUSGEZOGEN
 10
2734.6700
 20
 833.5400
 11
2749.1600
 21
 805.0000
  0
LINE
  8
200
  6
AUSGEZOGEN
 10
2752.4500
 20
 811.4700
 11
2737.9500
 21
 840.0000
  0
LINE
  8
200
  6
AUSGEZOGEN
 10
2752.4500
 20
 833.5400
 11
2766.9400
 21
 805.0000
  0
LINE
  8
200
  6
AUSGEZOGEN
 10
2788.0000
 20
 811.4700
 11
2773.5000
 21
 840.0000
  0
LINE
  8
200
  6
AUSGEZOGEN
 10
2805.7800
 20
 878.5300
 11
2820.2700
 21
 849.9900
  0
LINE
  8
200
  6
AUSGEZOGEN
 10
2823.5500
 20
 856.4600
 11
2809.0600
 21
 885.0000
  0
LINE
  8
200
  6
AUSGEZOGEN
 10
2841.3400
 20
 878.5300
 11
2855.8300
 21
 849.9900
  0
LINE
  8
200
  6
AUSGEZOGEN
 10
2859.1100
 20
 856.4600
 11
2844.6200
 21
 885.0000
  0
LINE
  8
200
  6
AUSGEZOGEN
 10
2876.8900
 20
 878.5300
 11
2891.3800
 21
 849.9900
  0
LINE
  8
200
  6
AUSGEZOGEN
 10
2909.1600
 20
 849.9900
 11
2894.6700
 21
 878.5300
  0
LINE
  8
200
  6
AUSGEZOGEN
 10
2912.4500
 20
 878.5300
 11
2926.9400
 21
 849.9900
  0
LINE
  8
200
  6
AUSGEZOGEN
 10
2930.2200
 20
 856.4600
 11
2915.7300
 21
 885.0000
  0
LINE
  8
200
  6
AUSGEZOGEN
 10
2805.7800
 20
 811.4700
 11
2791.2800
 21
 840.0000
  0
LINE
  8
200
  6
AUSGEZOGEN
 10
2805.7800
 20
 833.5400
 11
2820.2700
 21
 805.0000
  0
LINE
  8
200
  6
AUSGEZOGEN
 10
2841.3400
 20
 811.4700
 11
2826.8400
 21
 840.0000
  0
LINE
  8
200
  6
AUSGEZOGEN
 10
2841.3400
 20
 833.5400
 11
2855.8300
 21
 805.0000
  0
LINE
  8
200
  6
AUSGEZOGEN
 10
2876.8900
 20
 811.4700
 11
2862.3900
 21
 840.0000
  0
LINE
  8
200
  6
AUSGEZOGEN
 10
2876.8900
 20
 833.5400
 11
2891.3800
 21
 805.0000
  0
LINE
  8
200
  6
AUSGEZOGEN
 10
2894.6700
 20
 811.4700
 11
2880.1700
 21
 840.0000
  0
LINE
  8
200
  6
AUSGEZOGEN
 10
2894.6700
 20
 833.5400
 11
2909.1600
 21
 805.0000
  0
LINE
  8
200
  6
AUSGEZOGEN
 10
2912.4500
 20
 811.4700
 11
2897.9500
 21
 840.0000
  0
LINE
  8
200
  6
AUSGEZOGEN
 10
2912.4500
 20
 833.5400
 11
2926.9400
 21
 805.0000
  0
LINE
  8
200
  6
AUSGEZOGEN
 10
2948.0000
 20
 811.4700
 11
2933.5000
 21
 840.0000
  0
LINE
  8
200
  6
AUSGEZOGEN
 10
2628.0000
 20
 878.5300
 11
2642.5000
 21
 849.9900
  0
LINE
  8
200
  6
AUSGEZOGEN
 10
2645.7800
 20
 856.4600
 11
2631.2800
 21
 885.0000
  0
LINE
  8
200
  6
AUSGEZOGEN
 10
2663.5500
 20
 878.5300
 11
2678.0500
 21
 849.9900
  0
LINE
  8
200
  6
AUSGEZOGEN
 10
2681.3400
 20
 856.4600
 11
2666.8400
 21
 885.0000
  0
LINE
  8
200
  6
AUSGEZOGEN
 10
2699.1100
 20
 878.5300
 11
2713.6100
 21
 849.9900
  0
LINE
  8
200
  6
AUSGEZOGEN
 10
2716.8900
 20
 856.4600
 11
2702.3900
 21
 885.0000
  0
LINE
  8
200
  6
AUSGEZOGEN
 10
2720.1700
 20
 885.0000
 11
2734.6700
 21
 856.4600
  0
LINE
  8
200
  6
AUSGEZOGEN
 10
2752.4500
 20
 856.4600
 11
2737.9500
 21
 885.0000
  0
LINE
  8
200
  6
AUSGEZOGEN
 10
2770.2200
 20
 878.5300
 11
2784.7200
 21
 849.9900
  0
LINE
  8
200
  6
AUSGEZOGEN
 10
2788.0000
 20
 856.4600
 11
2773.5000
 21
 885.0000
  0
LINE
  8
200
  6
AUSGEZOGEN
 10
2642.5000
 20
 805.0000
 11
2628.0000
 21
 833.5400
  0
LINE
  8
200
  6
AUSGEZOGEN
 10
2663.5500
 20
 833.5400
 11
2678.0500
 21
 805.0000
  0
LINE
  8
200
  6
AUSGEZOGEN
 10
2713.6100
 20
 805.0000
 11
2699.1100
 21
 833.5400
  0
LINE
  8
200
  6
AUSGEZOGEN
 10
2770.2200
 20
 833.5400
 11
2784.7200
 21
 805.0000
  0
LINE
  8
200
  6
AUSGEZOGEN
 10
2788.0000
 20
 878.5300
 11
2802.5000
 21
 849.9900
  0
LINE
  8
200
  6
AUSGEZOGEN
 10
2805.7800
 20
 856.4600
 11
2791.2800
 21
 885.0000
  0
LINE
  8
200
  6
AUSGEZOGEN
 10
2823.5500
 20
 878.5300
 11
2838.0500
 21
 849.9900
  0
LINE
  8
200
  6
AUSGEZOGEN
 10
2841.3400
 20
 856.4600
 11
2826.8400
 21
 885.0000
  0
LINE
  8
200
  6
AUSGEZOGEN
 10
2859.1100
 20
 878.5300
 11
2873.6100
 21
 849.9900
  0
LINE
  8
200
  6
AUSGEZOGEN
 10
2876.8900
 20
 856.4600
 11
2862.3900
 21
 885.0000
  0
LINE
  8
200
  6
AUSGEZOGEN
 10
2880.1700
 20
 885.0000
 11
2894.6700
 21
 856.4600
  0
LINE
  8
200
  6
AUSGEZOGEN
 10
2912.4500
 20
 856.4600
 11
2897.9500
 21
 885.0000
  0
LINE
  8
200
  6
AUSGEZOGEN
 10
2930.2200
 20
 878.5300
 11
2944.7200
 21
 849.9900
  0
LINE
  8
200
  6
AUSGEZOGEN
 10
2948.0000
 20
 856.4600
 11
2933.5000
 21
 885.0000
  0
LINE
  8
200
  6
AUSGEZOGEN
 10
2802.5000
 20
 805.0000
 11
2788.0000
 21
 833.5400
  0
LINE
  8
200
  6
AUSGEZOGEN
 10
2823.5500
 20
 833.5400
 11
2838.0500
 21
 805.0000
  0
LINE
  8
200
  6
AUSGEZOGEN
 10
2873.6100
 20
 805.0000
 11
2859.1100
 21
 833.5400
  0
LINE
  8
200
  6
AUSGEZOGEN
 10
2930.2200
 20
 833.5400
 11
2944.7200
 21
 805.0000
  0
LINE
  8
200
  6
AUSGEZOGEN
 10
2312.5000
 20
 849.9900
 11
2315.0800
 21
 851.3600
  0
LINE
  8
200
  6
AUSGEZOGEN
 10
2319.0600
 20
 885.0000
 11
2316.4800
 21
 883.6200
  0
LINE
  8
200
  6
AUSGEZOGEN
 10
2368.4100
 20
 851.3600
 11
2365.8300
 21
 849.9900
  0
LINE
  8
200
  6
AUSGEZOGEN
 10
2386.1900
 20
 851.3600
 11
2383.6100
 21
 849.9900
  0
LINE
  8
200
  6
AUSGEZOGEN
 10
2369.8100
 20
 883.6200
 11
2372.3900
 21
 885.0000
  0
LINE
  8
200
  6
AUSGEZOGEN
 10
2390.1700
 20
 885.0000
 11
2387.5900
 21
 883.6200
  0
LINE
  8
200
  6
AUSGEZOGEN
 10
2443.5000
 20
 885.0000
 11
2440.9200
 21
 883.6200
  0
LINE
  8
200
  6
AUSGEZOGEN
 10
2312.5000
 20
 805.0000
 11
2315.0800
 21
 806.3800
  0
LINE
  8
200
  6
AUSGEZOGEN
 10
2298.6900
 20
 838.6400
 11
2301.2800
 21
 840.0000
  0
LINE
  8
200
  6
AUSGEZOGEN
 10
2319.0600
 20
 840.0000
 11
2316.4800
 21
 838.6400
  0
LINE
  8
200
  6
AUSGEZOGEN
 10
2336.8400
 20
 840.0000
 11
2334.2500
 21
 838.6400
  0
LINE
  8
200
  6
AUSGEZOGEN
 10
2368.4100
 20
 806.3800
 11
2365.8300
 21
 805.0000
  0
LINE
  8
200
  6
AUSGEZOGEN
 10
2352.0300
 20
 838.6400
 11
2354.6200
 21
 840.0000
  0
LINE
  8
200
  6
AUSGEZOGEN
 10
2386.1900
 20
 806.3800
 11
2383.6100
 21
 805.0000
  0
LINE
  8
200
  6
AUSGEZOGEN
 10
2369.8100
 20
 838.6400
 11
2372.3900
 21
 840.0000
  0
LINE
  8
200
  6
AUSGEZOGEN
 10
2390.1700
 20
 840.0000
 11
2387.5900
 21
 838.6400
  0
LINE
  8
200
  6
AUSGEZOGEN
 10
2407.9500
 20
 840.0000
 11
2405.3600
 21
 838.6400
  0
LINE
  8
200
  6
AUSGEZOGEN
 10
2425.7300
 20
 840.0000
 11
2423.1400
 21
 838.6400
  0
LINE
  8
200
  6
AUSGEZOGEN
 10
2443.5000
 20
 840.0000
 11
2440.9200
 21
 838.6400
  0
LINE
  8
200
  6
AUSGEZOGEN
 10
2475.0800
 20
 851.3600
 11
2472.5000
 21
 849.9900
  0
LINE
  8
200
  6
AUSGEZOGEN
 10
2479.0600
 20
 885.0000
 11
2476.4800
 21
 883.6200
  0
LINE
  8
200
  6
AUSGEZOGEN
 10
2528.4100
 20
 851.3600
 11
2525.8300
 21
 849.9900
  0
LINE
  8
200
  6
AUSGEZOGEN
 10
2546.1900
 20
 851.3600
 11
2543.6100
 21
 849.9900
  0
LINE
  8
200
  6
AUSGEZOGEN
 10
2529.8100
 20
 883.6200
 11
2532.3900
 21
 885.0000
  0
LINE
  8
200
  6
AUSGEZOGEN
 10
2550.1700
 20
 885.0000
 11
2547.5900
 21
 883.6200
  0
LINE
  8
200
  6
AUSGEZOGEN
 10
2603.5000
 20
 885.0000
 11
2600.9200
 21
 883.6200
  0
LINE
  8
200
  6
AUSGEZOGEN
 10
2472.5000
 20
 805.0000
 11
2475.0800
 21
 806.3800
  0
LINE
  8
200
  6
AUSGEZOGEN
 10
2458.6900
 20
 838.6400
 11
2461.2800
 21
 840.0000
  0
LINE
  8
200
  6
AUSGEZOGEN
 10
2479.0600
 20
 840.0000
 11
2476.4800
 21
 838.6400
  0
LINE
  8
200
  6
AUSGEZOGEN
 10
2496.8400
 20
 840.0000
 11
2494.2500
 21
 838.6400
  0
LINE
  8
200
  6
AUSGEZOGEN
 10
2528.4100
 20
 806.3800
 11
2525.8300
 21
 805.0000
  0
LINE
  8
200
  6
AUSGEZOGEN
 10
2512.0300
 20
 838.6400
 11
2514.6200
 21
 840.0000
  0
LINE
  8
200
  6
AUSGEZOGEN
 10
2546.1900
 20
 806.3800
 11
2543.6100
 21
 805.0000
  0
LINE
  8
200
  6
AUSGEZOGEN
 10
2529.8100
 20
 838.6400
 11
2532.3900
 21
 840.0000
  0
LINE
  8
200
  6
AUSGEZOGEN
 10
2550.1700
 20
 840.0000
 11
2547.5900
 21
 838.6400
  0
LINE
  8
200
  6
AUSGEZOGEN
 10
2567.9500
 20
 840.0000
 11
2565.3600
 21
 838.6400
  0
LINE
  8
200
  6
AUSGEZOGEN
 10
2585.7300
 20
 840.0000
 11
2583.1400
 21
 838.6400
  0
LINE
  8
200
  6
AUSGEZOGEN
 10
2603.5000
 20
 840.0000
 11
2600.9200
 21
 838.6400
  0
LINE
  8
200
  6
AUSGEZOGEN
 10
2617.3100
 20
 851.3600
 11
2614.7200
 21
 849.9900
  0
LINE
  8
200
  6
AUSGEZOGEN
 10
2596.9400
 20
 849.9900
 11
2599.5300
 21
 851.3600
  0
LINE
  8
200
  6
AUSGEZOGEN
 10
2579.1600
 20
 849.9900
 11
2581.7500
 21
 851.3600
  0
LINE
  8
200
  6
AUSGEZOGEN
 10
2561.3800
 20
 849.9900
 11
2563.9700
 21
 851.3600
  0
LINE
  8
200
  6
AUSGEZOGEN
 10
2508.0500
 20
 849.9900
 11
2510.6400
 21
 851.3600
  0
LINE
  8
200
  6
AUSGEZOGEN
 10
2490.2700
 20
 849.9900
 11
2492.8600
 21
 851.3600
  0
LINE
  8
200
  6
AUSGEZOGEN
 10
2454.7200
 20
 849.9900
 11
2457.3100
 21
 851.3600
  0
LINE
  8
200
  6
AUSGEZOGEN
 10
2436.9400
 20
 849.9900
 11
2439.5300
 21
 851.3600
  0
LINE
  8
200
  6
AUSGEZOGEN
 10
2419.1600
 20
 849.9900
 11
2421.7500
 21
 851.3600
  0
LINE
  8
200
  6
AUSGEZOGEN
 10
2401.3800
 20
 849.9900
 11
2403.9700
 21
 851.3600
  0
LINE
  8
200
  6
AUSGEZOGEN
 10
2348.0500
 20
 849.9900
 11
2350.6400
 21
 851.3600
  0
LINE
  8
200
  6
AUSGEZOGEN
 10
2330.2700
 20
 849.9900
 11
2332.8600
 21
 851.3600
  0
LINE
  8
200
  6
AUSGEZOGEN
 10
2298.6900
 20
 883.6200
 11
2301.2800
 21
 885.0000
  0
LINE
  8
200
  6
AUSGEZOGEN
 10
2336.8400
 20
 885.0000
 11
2334.2500
 21
 883.6200
  0
LINE
  8
200
  6
AUSGEZOGEN
 10
2354.6200
 20
 885.0000
 11
2352.0300
 21
 883.6200
  0
LINE
  8
200
  6
AUSGEZOGEN
 10
2407.9500
 20
 885.0000
 11
2405.3600
 21
 883.6200
  0
LINE
  8
200
  6
AUSGEZOGEN
 10
2425.7300
 20
 885.0000
 11
2423.1400
 21
 883.6200
  0
LINE
  8
200
  6
AUSGEZOGEN
 10
2330.2700
 20
 805.0000
 11
2332.8600
 21
 806.3800
  0
LINE
  8
200
  6
AUSGEZOGEN
 10
2350.6400
 20
 806.3800
 11
2348.0500
 21
 805.0000
  0
LINE
  8
200
  6
AUSGEZOGEN
 10
2403.9700
 20
 806.3800
 11
2401.3800
 21
 805.0000
  0
LINE
  8
200
  6
AUSGEZOGEN
 10
2421.7500
 20
 806.3800
 11
2419.1600
 21
 805.0000
  0
LINE
  8
200
  6
AUSGEZOGEN
 10
2439.5300
 20
 806.3800
 11
2436.9400
 21
 805.0000
  0
LINE
  8
200
  6
AUSGEZOGEN
 10
2457.3100
 20
 806.3800
 11
2454.7200
 21
 805.0000
  0
LINE
  8
200
  6
AUSGEZOGEN
 10
2461.2800
 20
 885.0000
 11
2458.6900
 21
 883.6200
  0
LINE
  8
200
  6
AUSGEZOGEN
 10
2496.8400
 20
 885.0000
 11
2494.2500
 21
 883.6200
  0
LINE
  8
200
  6
AUSGEZOGEN
 10
2514.6200
 20
 885.0000
 11
2512.0300
 21
 883.6200
  0
LINE
  8
200
  6
AUSGEZOGEN
 10
2567.9500
 20
 885.0000
 11
2565.3600
 21
 883.6200
  0
LINE
  8
200
  6
AUSGEZOGEN
 10
2585.7300
 20
 885.0000
 11
2583.1400
 21
 883.6200
  0
LINE
  8
200
  6
AUSGEZOGEN
 10
2490.2700
 20
 805.0000
 11
2492.8600
 21
 806.3800
  0
LINE
  8
200
  6
AUSGEZOGEN
 10
2510.6400
 20
 806.3800
 11
2508.0500
 21
 805.0000
  0
LINE
  8
200
  6
AUSGEZOGEN
 10
2563.9700
 20
 806.3800
 11
2561.3800
 21
 805.0000
  0
LINE
  8
200
  6
AUSGEZOGEN
 10
2581.7500
 20
 806.3800
 11
2579.1600
 21
 805.0000
  0
LINE
  8
200
  6
AUSGEZOGEN
 10
2599.5300
 20
 806.3800
 11
2596.9400
 21
 805.0000
  0
LINE
  8
200
  6
AUSGEZOGEN
 10
2617.3100
 20
 806.3800
 11
2614.7200
 21
 805.0000
  0
LINE
  8
200
  6
AUSGEZOGEN
 10
2298.6900
 20
 883.6200
 11
2298.0000
 21
 878.5300
  0
LINE
  8
200
  6
AUSGEZOGEN
 10
2351.3400
 20
 878.5300
 11
2352.0300
 21
 883.6200
  0
LINE
  8
200
  6
AUSGEZOGEN
 10
2405.3600
 20
 883.6200
 11
2404.6700
 21
 878.5300
  0
LINE
  8
200
  6
AUSGEZOGEN
 10
2422.4500
 20
 878.5300
 11
2423.1400
 21
 883.6200
  0
LINE
  8
200
  6
AUSGEZOGEN
 10
2332.8600
 20
 806.3800
 11
2333.5500
 21
 811.4700
  0
LINE
  8
200
  6
AUSGEZOGEN
 10
2440.2200
 20
 811.4700
 11
2439.5300
 21
 806.3800
  0
LINE
  8
200
  6
AUSGEZOGEN
 10
2457.3100
 20
 806.3800
 11
2458.0000
 21
 811.4700
  0
LINE
  8
200
  6
AUSGEZOGEN
 10
2458.6900
 20
 883.6200
 11
2458.0000
 21
 878.5300
  0
LINE
  8
200
  6
AUSGEZOGEN
 10
2511.3400
 20
 878.5300
 11
2512.0300
 21
 883.6200
  0
LINE
  8
200
  6
AUSGEZOGEN
 10
2565.3600
 20
 883.6200
 11
2564.6700
 21
 878.5300
  0
LINE
  8
200
  6
AUSGEZOGEN
 10
2582.4500
 20
 878.5300
 11
2583.1400
 21
 883.6200
  0
LINE
  8
200
  6
AUSGEZOGEN
 10
2492.8600
 20
 806.3800
 11
2493.5500
 21
 811.4700
  0
LINE
  8
200
  6
AUSGEZOGEN
 10
2600.2200
 20
 811.4700
 11
2599.5300
 21
 806.3800
  0
LINE
  8
200
  6
AUSGEZOGEN
 10
2617.3100
 20
 806.3800
 11
2618.0000
 21
 811.4700
  0
LINE
  8
200
  6
AUSGEZOGEN
 10
2316.4800
 20
 883.6200
 11
2315.7800
 21
 878.5300
  0
LINE
  8
200
  6
AUSGEZOGEN
 10
2333.5500
 20
 878.5300
 11
2334.2500
 21
 883.6200
  0
LINE
  8
200
  6
AUSGEZOGEN
 10
2369.8100
 20
 883.6200
 11
2369.1100
 21
 878.5300
  0
LINE
  8
200
  6
AUSGEZOGEN
 10
2386.8900
 20
 878.5300
 11
2387.5900
 21
 883.6200
  0
LINE
  8
200
  6
AUSGEZOGEN
 10
2440.9200
 20
 883.6200
 11
2440.2200
 21
 878.5300
  0
LINE
  8
200
  6
AUSGEZOGEN
 10
2315.0800
 20
 806.3800
 11
2315.7800
 21
 811.4700
  0
LINE
  8
200
  6
AUSGEZOGEN
 10
2351.3400
 20
 811.4700
 11
2350.6400
 21
 806.3800
  0
LINE
  8
200
  6
AUSGEZOGEN
 10
2368.4100
 20
 806.3800
 11
2369.1100
 21
 811.4700
  0
LINE
  8
200
  6
AUSGEZOGEN
 10
2386.8900
 20
 811.4700
 11
2386.1900
 21
 806.3800
  0
LINE
  8
200
  6
AUSGEZOGEN
 10
2403.9700
 20
 806.3800
 11
2404.6700
 21
 811.4700
  0
LINE
  8
200
  6
AUSGEZOGEN
 10
2422.4500
 20
 811.4700
 11
2421.7500
 21
 806.3800
  0
LINE
  8
200
  6
AUSGEZOGEN
 10
2476.4800
 20
 883.6200
 11
2475.7800
 21
 878.5300
  0
LINE
  8
200
  6
AUSGEZOGEN
 10
2493.5500
 20
 878.5300
 11
2494.2500
 21
 883.6200
  0
LINE
  8
200
  6
AUSGEZOGEN
 10
2529.8100
 20
 883.6200
 11
2529.1100
 21
 878.5300
  0
LINE
  8
200
  6
AUSGEZOGEN
 10
2546.8900
 20
 878.5300
 11
2547.5900
 21
 883.6200
  0
LINE
  8
200
  6
AUSGEZOGEN
 10
2600.9200
 20
 883.6200
 11
2600.2200
 21
 878.5300
  0
LINE
  8
200
  6
AUSGEZOGEN
 10
2475.0800
 20
 806.3800
 11
2475.7800
 21
 811.4700
  0
LINE
  8
200
  6
AUSGEZOGEN
 10
2511.3400
 20
 811.4700
 11
2510.6400
 21
 806.3800
  0
LINE
  8
200
  6
AUSGEZOGEN
 10
2528.4100
 20
 806.3800
 11
2529.1100
 21
 811.4700
  0
LINE
  8
200
  6
AUSGEZOGEN
 10
2546.8900
 20
 811.4700
 11
2546.1900
 21
 806.3800
  0
LINE
  8
200
  6
AUSGEZOGEN
 10
2563.9700
 20
 806.3800
 11
2564.6700
 21
 811.4700
  0
LINE
  8
200
  6
AUSGEZOGEN
 10
2582.4500
 20
 811.4700
 11
2581.7500
 21
 806.3800
  0
LINE
  8
200
  6
AUSGEZOGEN
 10
2298.6900
 20
 838.6400
 11
2298.0000
 21
 833.5400
  0
LINE
  8
200
  6
AUSGEZOGEN
 10
2333.5500
 20
 856.4600
 11
2332.8600
 21
 851.3600
  0
LINE
  8
200
  6
AUSGEZOGEN
 10
2439.5300
 20
 851.3600
 11
2440.2200
 21
 856.4600
  0
LINE
  8
200
  6
AUSGEZOGEN
 10
2458.0000
 20
 856.4600
 11
2457.3100
 21
 851.3600
  0
LINE
  8
200
  6
AUSGEZOGEN
 10
2351.3400
 20
 833.5400
 11
2352.0300
 21
 838.6400
  0
LINE
  8
200
  6
AUSGEZOGEN
 10
2405.3600
 20
 838.6400
 11
2404.6700
 21
 833.5400
  0
LINE
  8
200
  6
AUSGEZOGEN
 10
2422.4500
 20
 833.5400
 11
2423.1400
 21
 838.6400
  0
LINE
  8
200
  6
AUSGEZOGEN
 10
2458.6900
 20
 838.6400
 11
2458.0000
 21
 833.5400
  0
LINE
  8
200
  6
AUSGEZOGEN
 10
2493.5500
 20
 856.4600
 11
2492.8600
 21
 851.3600
  0
LINE
  8
200
  6
AUSGEZOGEN
 10
2599.5300
 20
 851.3600
 11
2600.2200
 21
 856.4600
  0
LINE
  8
200
  6
AUSGEZOGEN
 10
2618.0000
 20
 856.4600
 11
2617.3100
 21
 851.3600
  0
LINE
  8
200
  6
AUSGEZOGEN
 10
2511.3400
 20
 833.5400
 11
2512.0300
 21
 838.6400
  0
LINE
  8
200
  6
AUSGEZOGEN
 10
2565.3600
 20
 838.6400
 11
2564.6700
 21
 833.5400
  0
LINE
  8
200
  6
AUSGEZOGEN
 10
2582.4500
 20
 833.5400
 11
2583.1400
 21
 838.6400
  0
LINE
  8
200
  6
AUSGEZOGEN
 10
2315.7800
 20
 856.4600
 11
2315.0800
 21
 851.3600
  0
LINE
  8
200
  6
AUSGEZOGEN
 10
2350.6400
 20
 851.3600
 11
2351.3400
 21
 856.4600
  0
LINE
  8
200
  6
AUSGEZOGEN
 10
2369.1100
 20
 856.4600
 11
2368.4100
 21
 851.3600
  0
LINE
  8
200
  6
AUSGEZOGEN
 10
2386.1900
 20
 851.3600
 11
2386.8900
 21
 856.4600
  0
LINE
  8
200
  6
AUSGEZOGEN
 10
2404.6700
 20
 856.4600
 11
2403.9700
 21
 851.3600
  0
LINE
  8
200
  6
AUSGEZOGEN
 10
2421.7500
 20
 851.3600
 11
2422.4500
 21
 856.4600
  0
LINE
  8
200
  6
AUSGEZOGEN
 10
2315.7800
 20
 833.5400
 11
2316.4800
 21
 838.6400
  0
LINE
  8
200
  6
AUSGEZOGEN
 10
2334.2500
 20
 838.6400
 11
2333.5500
 21
 833.5400
  0
LINE
  8
200
  6
AUSGEZOGEN
 10
2369.1100
 20
 833.5400
 11
2369.8100
 21
 838.6400
  0
LINE
  8
200
  6
AUSGEZOGEN
 10
2387.5900
 20
 838.6400
 11
2386.8900
 21
 833.5400
  0
LINE
  8
200
  6
AUSGEZOGEN
 10
2440.2200
 20
 833.5400
 11
2440.9200
 21
 838.6400
  0
LINE
  8
200
  6
AUSGEZOGEN
 10
2475.7800
 20
 856.4600
 11
2475.0800
 21
 851.3600
  0
LINE
  8
200
  6
AUSGEZOGEN
 10
2510.6400
 20
 851.3600
 11
2511.3400
 21
 856.4600
  0
LINE
  8
200
  6
AUSGEZOGEN
 10
2529.1100
 20
 856.4600
 11
2528.4100
 21
 851.3600
  0
LINE
  8
200
  6
AUSGEZOGEN
 10
2546.1900
 20
 851.3600
 11
2546.8900
 21
 856.4600
  0
LINE
  8
200
  6
AUSGEZOGEN
 10
2564.6700
 20
 856.4600
 11
2563.9700
 21
 851.3600
  0
LINE
  8
200
  6
AUSGEZOGEN
 10
2581.7500
 20
 851.3600
 11
2582.4500
 21
 856.4600
  0
LINE
  8
200
  6
AUSGEZOGEN
 10
2475.7800
 20
 833.5400
 11
2476.4800
 21
 838.6400
  0
LINE
  8
200
  6
AUSGEZOGEN
 10
2494.2500
 20
 838.6400
 11
2493.5500
 21
 833.5400
  0
LINE
  8
200
  6
AUSGEZOGEN
 10
2529.1100
 20
 833.5400
 11
2529.8100
 21
 838.6400
  0
LINE
  8
200
  6
AUSGEZOGEN
 10
2547.5900
 20
 838.6400
 11
2546.8900
 21
 833.5400
  0
LINE
  8
200
  6
AUSGEZOGEN
 10
2600.2200
 20
 833.5400
 11
2600.9200
 21
 838.6400
  0
LINE
  8
200
  6
AUSGEZOGEN
 10
2333.5500
 20
 811.4700
 11
2319.0600
 21
 840.0000
  0
LINE
  8
200
  6
AUSGEZOGEN
 10
2354.6200
 20
 840.0000
 11
2369.1100
 21
 811.4700
  0
LINE
  8
200
  6
AUSGEZOGEN
 10
2440.2200
 20
 811.4700
 11
2425.7300
 21
 840.0000
  0
LINE
  8
200
  6
AUSGEZOGEN
 10
2479.0600
 20
 840.0000
 11
2493.5500
 21
 811.4700
  0
LINE
  8
200
  6
AUSGEZOGEN
 10
2529.1100
 20
 811.4700
 11
2514.6200
 21
 840.0000
  0
LINE
  8
200
  6
AUSGEZOGEN
 10
2585.7300
 20
 840.0000
 11
2600.2200
 21
 811.4700
  0
LINE
  8
200
  6
AUSGEZOGEN
 10
2315.7800
 20
 878.5300
 11
2330.2700
 21
 849.9900
  0
LINE
  8
200
  6
AUSGEZOGEN
 10
2333.5500
 20
 856.4600
 11
2319.0600
 21
 885.0000
  0
LINE
  8
200
  6
AUSGEZOGEN
 10
2351.3400
 20
 878.5300
 11
2365.8300
 21
 849.9900
  0
LINE
  8
200
  6
AUSGEZOGEN
 10
2369.1100
 20
 856.4600
 11
2354.6200
 21
 885.0000
  0
LINE
  8
200
  6
AUSGEZOGEN
 10
2386.8900
 20
 878.5300
 11
2401.3800
 21
 849.9900
  0
LINE
  8
200
  6
AUSGEZOGEN
 10
2419.1600
 20
 849.9900
 11
2404.6700
 21
 878.5300
  0
LINE
  8
200
  6
AUSGEZOGEN
 10
2422.4500
 20
 878.5300
 11
2436.9400
 21
 849.9900
  0
LINE
  8
200
  6
AUSGEZOGEN
 10
2440.2200
 20
 856.4600
 11
2425.7300
 21
 885.0000
  0
LINE
  8
200
  6
AUSGEZOGEN
 10
2315.7800
 20
 811.4700
 11
2301.2800
 21
 840.0000
  0
LINE
  8
200
  6
AUSGEZOGEN
 10
2315.7800
 20
 833.5400
 11
2330.2700
 21
 805.0000
  0
LINE
  8
200
  6
AUSGEZOGEN
 10
2351.3400
 20
 811.4700
 11
2336.8400
 21
 840.0000
  0
LINE
  8
200
  6
AUSGEZOGEN
 10
2351.3400
 20
 833.5400
 11
2365.8300
 21
 805.0000
  0
LINE
  8
200
  6
AUSGEZOGEN
 10
2386.8900
 20
 811.4700
 11
2372.3900
 21
 840.0000
  0
LINE
  8
200
  6
AUSGEZOGEN
 10
2386.8900
 20
 833.5400
 11
2401.3800
 21
 805.0000
  0
LINE
  8
200
  6
AUSGEZOGEN
 10
2404.6700
 20
 811.4700
 11
2390.1700
 21
 840.0000
  0
LINE
  8
200
  6
AUSGEZOGEN
 10
2404.6700
 20
 833.5400
 11
2419.1600
 21
 805.0000
  0
LINE
  8
200
  6
AUSGEZOGEN
 10
2422.4500
 20
 811.4700
 11
2407.9500
 21
 840.0000
  0
LINE
  8
200
  6
AUSGEZOGEN
 10
2422.4500
 20
 833.5400
 11
2436.9400
 21
 805.0000
  0
LINE
  8
200
  6
AUSGEZOGEN
 10
2458.0000
 20
 811.4700
 11
2443.5000
 21
 840.0000
  0
LINE
  8
200
  6
AUSGEZOGEN
 10
2475.7800
 20
 878.5300
 11
2490.2700
 21
 849.9900
  0
LINE
  8
200
  6
AUSGEZOGEN
 10
2493.5500
 20
 856.4600
 11
2479.0600
 21
 885.0000
  0
LINE
  8
200
  6
AUSGEZOGEN
 10
2511.3400
 20
 878.5300
 11
2525.8300
 21
 849.9900
  0
LINE
  8
200
  6
AUSGEZOGEN
 10
2529.1100
 20
 856.4600
 11
2514.6200
 21
 885.0000
  0
LINE
  8
200
  6
AUSGEZOGEN
 10
2546.8900
 20
 878.5300
 11
2561.3800
 21
 849.9900
  0
LINE
  8
200
  6
AUSGEZOGEN
 10
2579.1600
 20
 849.9900
 11
2564.6700
 21
 878.5300
  0
LINE
  8
200
  6
AUSGEZOGEN
 10
2582.4500
 20
 878.5300
 11
2596.9400
 21
 849.9900
  0
LINE
  8
200
  6
AUSGEZOGEN
 10
2600.2200
 20
 856.4600
 11
2585.7300
 21
 885.0000
  0
LINE
  8
200
  6
AUSGEZOGEN
 10
2475.7800
 20
 811.4700
 11
2461.2800
 21
 840.0000
  0
LINE
  8
200
  6
AUSGEZOGEN
 10
2475.7800
 20
 833.5400
 11
2490.2700
 21
 805.0000
  0
LINE
  8
200
  6
AUSGEZOGEN
 10
2511.3400
 20
 811.4700
 11
2496.8400
 21
 840.0000
  0
LINE
  8
200
  6
AUSGEZOGEN
 10
2511.3400
 20
 833.5400
 11
2525.8300
 21
 805.0000
  0
LINE
  8
200
  6
AUSGEZOGEN
 10
2546.8900
 20
 811.4700
 11
2532.3900
 21
 840.0000
  0
LINE
  8
200
  6
AUSGEZOGEN
 10
2546.8900
 20
 833.5400
 11
2561.3800
 21
 805.0000
  0
LINE
  8
200
  6
AUSGEZOGEN
 10
2564.6700
 20
 811.4700
 11
2550.1700
 21
 840.0000
  0
LINE
  8
200
  6
AUSGEZOGEN
 10
2564.6700
 20
 833.5400
 11
2579.1600
 21
 805.0000
  0
LINE
  8
200
  6
AUSGEZOGEN
 10
2582.4500
 20
 811.4700
 11
2567.9500
 21
 840.0000
  0
LINE
  8
200
  6
AUSGEZOGEN
 10
2582.4500
 20
 833.5400
 11
2596.9400
 21
 805.0000
  0
LINE
  8
200
  6
AUSGEZOGEN
 10
2618.0000
 20
 811.4700
 11
2603.5000
 21
 840.0000
  0
LINE
  8
200
  6
AUSGEZOGEN
 10
2298.0000
 20
 878.5300
 11
2312.5000
 21
 849.9900
  0
LINE
  8
200
  6
AUSGEZOGEN
 10
2315.7800
 20
 856.4600
 11
2301.2800
 21
 885.0000
  0
LINE
  8
200
  6
AUSGEZOGEN
 10
2333.5500
 20
 878.5300
 11
2348.0500
 21
 849.9900
  0
LINE
  8
200
  6
AUSGEZOGEN
 10
2351.3400
 20
 856.4600
 11
2336.8400
 21
 885.0000
  0
LINE
  8
200
  6
AUSGEZOGEN
 10
2369.1100
 20
 878.5300
 11
2383.6100
 21
 849.9900
  0
LINE
  8
200
  6
AUSGEZOGEN
 10
2386.8900
 20
 856.4600
 11
2372.3900
 21
 885.0000
  0
LINE
  8
200
  6
AUSGEZOGEN
 10
2390.1700
 20
 885.0000
 11
2404.6700
 21
 856.4600
  0
LINE
  8
200
  6
AUSGEZOGEN
 10
2422.4500
 20
 856.4600
 11
2407.9500
 21
 885.0000
  0
LINE
  8
200
  6
AUSGEZOGEN
 10
2440.2200
 20
 878.5300
 11
2454.7200
 21
 849.9900
  0
LINE
  8
200
  6
AUSGEZOGEN
 10
2458.0000
 20
 856.4600
 11
2443.5000
 21
 885.0000
  0
LINE
  8
200
  6
AUSGEZOGEN
 10
2312.5000
 20
 805.0000
 11
2298.0000
 21
 833.5400
  0
LINE
  8
200
  6
AUSGEZOGEN
 10
2333.5500
 20
 833.5400
 11
2348.0500
 21
 805.0000
  0
LINE
  8
200
  6
AUSGEZOGEN
 10
2383.6100
 20
 805.0000
 11
2369.1100
 21
 833.5400
  0
LINE
  8
200
  6
AUSGEZOGEN
 10
2440.2200
 20
 833.5400
 11
2454.7200
 21
 805.0000
  0
LINE
  8
200
  6
AUSGEZOGEN
 10
2458.0000
 20
 878.5300
 11
2472.5000
 21
 849.9900
  0
LINE
  8
200
  6
AUSGEZOGEN
 10
2475.7800
 20
 856.4600
 11
2461.2800
 21
 885.0000
  0
LINE
  8
200
  6
AUSGEZOGEN
 10
2493.5500
 20
 878.5300
 11
2508.0500
 21
 849.9900
  0
LINE
  8
200
  6
AUSGEZOGEN
 10
2511.3400
 20
 856.4600
 11
2496.8400
 21
 885.0000
  0
LINE
  8
200
  6
AUSGEZOGEN
 10
2529.1100
 20
 878.5300
 11
2543.6100
 21
 849.9900
  0
LINE
  8
200
  6
AUSGEZOGEN
 10
2546.8900
 20
 856.4600
 11
2532.3900
 21
 885.0000
  0
LINE
  8
200
  6
AUSGEZOGEN
 10
2550.1700
 20
 885.0000
 11
2564.6700
 21
 856.4600
  0
LINE
  8
200
  6
AUSGEZOGEN
 10
2582.4500
 20
 856.4600
 11
2567.9500
 21
 885.0000
  0
LINE
  8
200
  6
AUSGEZOGEN
 10
2600.2200
 20
 878.5300
 11
2614.7200
 21
 849.9900
  0
LINE
  8
200
  6
AUSGEZOGEN
 10
2618.0000
 20
 856.4600
 11
2603.5000
 21
 885.0000
  0
LINE
  8
200
  6
AUSGEZOGEN
 10
2472.5000
 20
 805.0000
 11
2458.0000
 21
 833.5400
  0
LINE
  8
200
  6
AUSGEZOGEN
 10
2493.5500
 20
 833.5400
 11
2508.0500
 21
 805.0000
  0
LINE
  8
200
  6
AUSGEZOGEN
 10
2543.6100
 20
 805.0000
 11
2529.1100
 21
 833.5400
  0
LINE
  8
200
  6
AUSGEZOGEN
 10
2600.2200
 20
 833.5400
 11
2614.7200
 21
 805.0000
  0
LINE
  8
200
  6
AUSGEZOGEN
 10
   0.0000
 20
 980.0000
 11
   0.0000
 21
 930.0000
  0
LINE
  8
200
  6
AUSGEZOGEN
 10
3050.0000
 20
 930.0000
 11
3050.0000
 21
 980.0000
  0
LINE
  8
200
  6
AUSGEZOGEN
 10
   0.0000
 20
 980.0000
 11
3050.0000
 21
 980.0000
  0
LINE
  8
200
  6
AUSGEZOGEN
 10
 545.0000
 20
 854.4000
 11
  50.0000
 21
 854.4000
  0
LINE
  8
200
  6
AUSGEZOGEN
 10
  50.0000
 20
  62.0000
 11
 545.0000
 21
  62.0000
  0
LINE
  8
200
  6
AUSGEZOGEN
 10
 545.0000
 20
 883.9000
 11
 545.0000
 21
  62.0000
  0
LINE
  8
200
  6
AUSGEZOGEN
 10
  50.0000
 20
  62.0000
 11
  50.0000
 21
 883.9000
  0
LINE
  8
200
  6
AUSGEZOGEN
 10
 545.0000
 20
 883.9000
 11
  50.0000
 21
 883.9000
  0
LINE
  8
200
  6
AUSGEZOGEN
 10
  50.0000
 20
 897.0000
 11
 545.0000
 21
 897.0000
  0
LINE
  8
200
  6
AUSGEZOGEN
 10
  50.0000
 20
 919.0000
 11
  50.0000
 21
 897.0000
  0
LINE
  8
200
  6
AUSGEZOGEN
 10
 545.0000
 20
 919.0000
 11
  50.0000
 21
 919.0000
  0
LINE
  8
200
  6
AUSGEZOGEN
 10
 545.0000
 20
 897.0000
 11
 545.0000
 21
 919.0000
  0
LINE
  8
200
  6
AUSGEZOGEN
 10
1098.0000
 20
 854.4000
 11
 603.0000
 21
 854.4000
  0
LINE
  8
200
  6
AUSGEZOGEN
 10
 603.0000
 20
  62.0000
 11
1098.0000
 21
  62.0000
  0
LINE
  8
200
  6
AUSGEZOGEN
 10
1098.0000
 20
 883.9000
 11
1098.0000
 21
  62.0000
  0
LINE
  8
200
  6
AUSGEZOGEN
 10
 603.0000
 20
  62.0000
 11
 603.0000
 21
 883.9000
  0
LINE
  8
200
  6
AUSGEZOGEN
 10
1098.0000
 20
 883.9000
 11
 603.0000
 21
 883.9000
  0
LINE
  8
200
  6
AUSGEZOGEN
 10
 603.0000
 20
 897.0000
 11
1098.0000
 21
 897.0000
  0
LINE
  8
200
  6
AUSGEZOGEN
 10
 603.0000
 20
 919.0000
 11
 603.0000
 21
 897.0000
  0
LINE
  8
200
  6
AUSGEZOGEN
 10
1098.0000
 20
 919.0000
 11
 603.0000
 21
 919.0000
  0
LINE
  8
200
  6
AUSGEZOGEN
 10
1098.0000
 20
 897.0000
 11
1098.0000
 21
 919.0000
  0
LINE
  8
200
  6
AUSGEZOGEN
 10
2196.0000
 20
 854.4000
 11
1701.0000
 21
 854.4000
  0
LINE
  8
200
  6
AUSGEZOGEN
 10
1701.0000
 20
  62.0000
 11
2196.0000
 21
  62.0000
  0
LINE
  8
200
  6
AUSGEZOGEN
 10
2196.0000
 20
 883.9000
 11
2196.0000
 21
  62.0000
  0
LINE
  8
200
  6
AUSGEZOGEN
 10
1701.0000
 20
  62.0000
 11
1701.0000
 21
 883.9000
  0
LINE
  8
200
  6
AUSGEZOGEN
 10
2196.0000
 20
 883.9000
 11
1701.0000
 21
 883.9000
  0
LINE
  8
200
  6
AUSGEZOGEN
 10
1701.0000
 20
 897.0000
 11
2196.0000
 21
 897.0000
  0
LINE
  8
200
  6
AUSGEZOGEN
 10
1701.0000
 20
 919.0000
 11
1701.0000
 21
 897.0000
  0
LINE
  8
200
  6
AUSGEZOGEN
 10
2196.0000
 20
 919.0000
 11
1701.0000
 21
 919.0000
  0
LINE
  8
200
  6
AUSGEZOGEN
 10
2196.0000
 20
 897.0000
 11
2196.0000
 21
 919.0000
  0
LINE
  8
200
  6
AUSGEZOGEN
 10
1153.0000
 20
 854.4000
 11
1648.0000
 21
 854.4000
  0
LINE
  8
200
  6
AUSGEZOGEN
 10
1648.0000
 20
  62.0000
 11
1153.0000
 21
  62.0000
  0
LINE
  8
200
  6
AUSGEZOGEN
 10
1648.0000
 20
 883.9000
 11
1648.0000
 21
  62.0000
  0
LINE
  8
200
  6
AUSGEZOGEN
 10
1153.0000
 20
  62.0000
 11
1153.0000
 21
 883.9000
  0
LINE
  8
200
  6
AUSGEZOGEN
 10
1648.0000
 20
 883.9000
 11
1153.0000
 21
 883.9000
  0
LINE
  8
200
  6
AUSGEZOGEN
 10
1153.0000
 20
 897.0000
 11
1648.0000
 21
 897.0000
  0
LINE
  8
200
  6
AUSGEZOGEN
 10
1153.0000
 20
 919.0000
 11
1153.0000
 21
 897.0000
  0
LINE
  8
200
  6
AUSGEZOGEN
 10
1648.0000
 20
 919.0000
 11
1153.0000
 21
 919.0000
  0
LINE
  8
200
  6
AUSGEZOGEN
 10
1648.0000
 20
 897.0000
 11
1648.0000
 21
 919.0000
  0
LINE
  8
200
  6
AUSGEZOGEN
 10
3015.0000
 20
 920.0000
 11
2235.0000
 21
 920.0000
  0
LINE
  8
200
  6
AUSGEZOGEN
 10
2235.0000
 20
 755.0000
 11
3015.0000
 21
 755.0000
  0
LINE
  8
200
  6
AUSGEZOGEN
 10
3015.0000
 20
 920.0000
 11
3015.0000
 21
 735.0000
  0
LINE
  8
200
  6
AUSGEZOGEN
 10
2235.0000
 20
 735.0000
 11
3015.0000
 21
 735.0000
  0
LINE
  8
200
  6
AUSGEZOGEN
 10
2235.0000
 20
 920.0000
 11
2235.0000
 21
 735.0000
  0
LINE
  8
200
  6
AUSGEZOGEN
 10
2608.0000
 20
  62.0000
 11
2244.0000
 21
  62.0000
  0
LINE
  8
200
  6
AUSGEZOGEN
 10
2244.0000
 20
 562.0000
 11
2608.0000
 21
 562.0000
  0
LINE
  8
200
  6
AUSGEZOGEN
 10
2244.0000
 20
  62.0000
 11
2244.0000
 21
 582.0000
  0
LINE
  8
200
  6
AUSGEZOGEN
 10
2608.0000
 20
 582.0000
 11
2608.0000
 21
  62.0000
  0
LINE
  8
200
  6
AUSGEZOGEN
 10
2244.0000
 20
 582.0000
 11
2608.0000
 21
 582.0000
  0
LINE
  8
200
  6
AUSGEZOGEN
 10
2495.0000
 20
 679.0000
 11
2345.0000
 21
 679.0000
  0
LINE
  8
200
  6
AUSGEZOGEN
 10
2345.0000
 20
 639.0000
 11
2495.0000
 21
 639.0000
  0
LINE
  8
200
  6
AUSGEZOGEN
 10
2345.0000
 20
 679.0000
 11
2345.0000
 21
 639.0000
  0
LINE
  8
200
  6
AUSGEZOGEN
 10
2495.0000
 20
 639.0000
 11
2495.0000
 21
 679.0000
  0
LINE
  8
200
  6
AUSGEZOGEN
 10
3010.0000
 20
 604.0000
 11
2240.0000
 21
 604.0000
  0
LINE
  8
200
  6
AUSGEZOGEN
 10
2240.0000
 20
 594.0000
 11
3010.0000
 21
 594.0000
  0
LINE
  8
200
  6
AUSGEZOGEN
 10
3010.0000
 20
 704.0000
 11
2240.0000
 21
 704.0000
  0
LINE
  8
200
  6
AUSGEZOGEN
 10
2240.0000
 20
 699.0000
 11
3010.0000
 21
 699.0000
  0
LINE
  8
200
  6
AUSGEZOGEN
 10
3010.0000
 20
 619.0000
 11
2240.0000
 21
 619.0000
  0
LINE
  8
200
  6
AUSGEZOGEN
 10
2240.0000
 20
 614.0000
 11
3010.0000
 21
 614.0000
  0
LINE
  8
200
  6
AUSGEZOGEN
 10
3010.0000
 20
 724.0000
 11
2240.0000
 21
 724.0000
  0
LINE
  8
200
  6
AUSGEZOGEN
 10
2240.0000
 20
 714.0000
 11
3010.0000
 21
 714.0000
  0
LINE
  8
200
  6
AUSGEZOGEN
 10
3010.0000
 20
 729.0000
 11
2240.0000
 21
 729.0000
  0
LINE
  8
200
  6
AUSGEZOGEN
 10
2240.0000
 20
 589.0000
 11
3010.0000
 21
 589.0000
  0
LINE
  8
200
  6
AUSGEZOGEN
 10
2240.0000
 20
 729.0000
 11
2240.0000
 21
 589.0000
  0
LINE
  8
200
  6
AUSGEZOGEN
 10
3010.0000
 20
 589.0000
 11
3010.0000
 21
 729.0000
  0
LINE
  8
200
  6
AUSGEZOGEN
 10
2235.0000
 20
 734.0000
 11
3015.0000
 21
 734.0000
  0
LINE
  8
200
  6
AUSGEZOGEN
 10
3015.0000
 20
 584.0000
 11
3015.0000
 21
 734.0000
  0
LINE
  8
200
  6
AUSGEZOGEN
 10
2235.0000
 20
 584.0000
 11
3015.0000
 21
 584.0000
  0
LINE
  8
200
  6
AUSGEZOGEN
 10
2235.0000
 20
 734.0000
 11
2235.0000
 21
 584.0000
  0
LINE
  8
200
  6
AUSGEZOGEN
 10
2697.6000
 20
  62.0000
 11
2697.6000
 21
 582.0000
  0
LINE
  8
200
  6
AUSGEZOGEN
 10
3007.0000
 20
 582.0000
 11
3007.0000
 21
  62.0000
  0
LINE
  8
200
  6
AUSGEZOGEN
 10
2672.1000
 20
 582.0000
 11
3007.0000
 21
 582.0000
  0
LINE
  8
200
  6
AUSGEZOGEN
 10
3007.0000
 20
  62.0000
 11
2672.1000
 21
  62.0000
  0
LINE
  8
200
  6
AUSGEZOGEN
 10
2672.1000
 20
 582.0000
 11
2672.1000
 21
  62.0000
  0
LINE
  8
200
  6
AUSGEZOGEN
 10
2665.0000
 20
  62.0000
 11
2665.0000
 21
 582.0000
  0
LINE
  8
200
  6
AUSGEZOGEN
 10
2643.0000
 20
  62.0000
 11
2665.0000
 21
  62.0000
  0
LINE
  8
200
  6
AUSGEZOGEN
 10
2643.0000
 20
 582.0000
 11
2643.0000
 21
  62.0000
  0
LINE
  8
200
  6
AUSGEZOGEN
 10
2665.0000
 20
 582.0000
 11
2643.0000
 21
 582.0000
  0
LINE
  8
200
  6
AUSGEZOGEN
 10
2215.0000
 20
  40.0000
 11
2215.0000
 21
 930.0000
  0
LINE
  8
200
  6
AUSGEZOGEN
 10
2225.0000
 20
 930.0000
 11
2225.0000
 21
  40.0000
  0
LINE
  8
200
  6
AUSGEZOGEN
 10
  25.0000
 20
   0.0000
 11
3025.0000
 21
   0.0000
  0
LINE
  8
200
  6
AUSGEZOGEN
 10
3025.0000
 20
  40.0000
 11
  25.0000
 21
  40.0000
  0
LINE
  8
200
  6
AUSGEZOGEN
 10
   0.0000
 20
 930.0000
 11
3050.0000
 21
 930.0000
  0
LINE
  8
200
  6
AUSGEZOGEN
 10
  25.0000
 20
   0.0000
 11
  25.0000
 21
 930.0000
  0
LINE
  8
200
  6
AUSGEZOGEN
 10
3025.0000
 20
 930.0000
 11
3025.0000
 21
   0.0000
  0
TEXT
  8
400
 10
3812.5000
 20
 860.0000
 40
  45.0000
  1
EZ: 230V 50Hz, Kabellänge 2,5m mit Schukostecker 0,44kW
 50
   0.0000
 41
   0.6000
  7
STANDARD
  0
TEXT
  8
410
 10
3812.5000
 20
 740.0000
 40
  45.0000
  1
TWk: DN15
 50
   0.0000
 41
   0.6000
  7
STANDARD
  0
TEXT
  8
420
 10
3812.5000
 20
 620.0000
 40
  45.0000
  1
A: DN50 Trichterablauf, unter Boden baus. syphoniert
 50
   0.0000
 41
   0.6000
  7
STANDARD
  0
ATTDEF
  8
550
 10
10.0
 20
100.0
 30
0.0
 40
30
  1
CCO-GTM742R81-MS
  2
CCO-GTM742R81-MSV
  3
HKI-Nummer
 70
1
  0
TEXT
  8
510
 10
10.0
 20
-45.0
 30
0.0
 40
30
  1
CCO-GTM742R81-MS
 50
0.0
 41
1.0
  7
STANDARD
  0
ENDSEC
  0
EOF
