  0
SECTION
  2
HEADER
  9
$ACADVER
  1
AC1009
  9
$INSBASE
 10
   0.0000
 20
   0.0000
 30
    0.0
  9
$EXTMIN
 10
-155.0000
 20
-147.5000
 30
   0.0000
  9
$EXTMAX
 10
3501.2130
 20
1013.0000
 30
   0.0000
  9
$LTSCALE
 40
1.00
  9
$PSLTSCALE
 70
1
  0
ENDSEC
  0
SECTION
  2
TABLES
  0
TABLE
  2
LTYPE
 70
  5
  0
LTYPE
  2
AUSGEZOGEN
 70
 64
  3
AUSGEZOGEN
 72
 65
 73
  0
 40
0.0
  0
LTYPE
  2
PUNKTIERT
 70
 64
  3
Gepunktet
 72
 65
 73
  2
 40
30.0000
 49
0.0
 49
-30.0000
  0
LTYPE
  2
STRICHLIERT
 70
 64
  3
Strichliert
 72
 65
 73
  2
 40
80.0000
 49
50.0000
 49
-30.0000
  0
LTYPE
  2
STRICHPUNKT
 70
 64
  3
Strichpunktet
 72
 65
 73
  4
 40
160.0000
 49
100.0000
 49
-30.0000
 49
0.0
 49
-30.0000
  0
LTYPE
  2
STRICHPUNKTPUNKT
 70
 64
  3
Strichpunktpunktet
 72
 65
 73
  6
 40
190.0000
 49
100.0000
 49
-30.0000
 49
0.0
 49
-30.0000
 49
0.0
 49
-30.0000
  0
ENDTAB
  0
TABLE
  2
LAYER
 70
7
  0
LAYER
  2
550
 70
  0
 62
  2
  6
AUSGEZOGEN
  0
LAYER
  2
510
 70
  0
 62
  2
  6
AUSGEZOGEN
  0
LAYER
  2
0
 70
  0
 62
  1
  6
AUSGEZOGEN
  0
LAYER
  2
200
 70
  0
 62
  7
  6
AUSGEZOGEN
999
SWS-Layer-Line-Width
999
0.20
  0
LAYER
  2
400
 70
  0
 62
  4
  6
AUSGEZOGEN
999
SWS-Layer-Line-Width
999
0.30
  0
LAYER
  2
410
 70
  0
 62
  6
  6
AUSGEZOGEN
  0
LAYER
  2
420
 70
  0
 62
  2
  6
AUSGEZOGEN
  0
ENDTAB
  0
TABLE
  2
STYLE
 70
  1
  0
STYLE
  2
STANDARD
 70
 64
 40
0.0
 41
1.0
 50
0.0
 71
  0
 42
30.0
  3
TXT.SHX
  4

  0
ENDTAB
  0
ENDSEC
  0
SECTION
  2
ENTITIES
  0
LINE
  8
400
  6
AUSGEZOGEN
 10
 250.0000
 20
   0.0000
 11
1924.0000
 21
 846.5000
  0
LINE
  8
400
  6
AUSGEZOGEN
 10
3323.8300
 20
 846.5000
 11
1924.0000
 21
 846.5000
  0
LINE
  8
400
  6
AUSGEZOGEN
 10
 250.0000
 20
   0.0000
 11
 250.0000
 21
  75.0000
  0
LINE
  8
400
  6
AUSGEZOGEN
 10
 250.0000
 20
 -75.0000
 11
 250.0000
 21
   0.0000
  0
LINE
  8
400
  6
AUSGEZOGEN
 10
 325.0000
 20
   0.0000
 11
 250.0000
 21
   0.0000
  0
LINE
  8
400
  6
AUSGEZOGEN
 10
 175.0000
 20
   0.0000
 11
 250.0000
 21
   0.0000
  0
CIRCLE
  8
400
  6
AUSGEZOGEN
 10
 250.0000
 20
   0.0000
 40
  50.0000
  0
LINE
  8
410
  6
AUSGEZOGEN
 10
 250.0000
 20
   0.0000
 11
1924.0000
 21
 726.5000
  0
LINE
  8
410
  6
AUSGEZOGEN
 10
2167.2600
 20
 726.5000
 11
1924.0000
 21
 726.5000
  0
LINE
  8
410
  6
AUSGEZOGEN
 10
 250.0000
 20
   0.0000
 11
 250.0000
 21
  75.0000
  0
LINE
  8
410
  6
AUSGEZOGEN
 10
 250.0000
 20
 -75.0000
 11
 250.0000
 21
   0.0000
  0
LINE
  8
410
  6
AUSGEZOGEN
 10
 325.0000
 20
   0.0000
 11
 250.0000
 21
   0.0000
  0
LINE
  8
410
  6
AUSGEZOGEN
 10
 175.0000
 20
   0.0000
 11
 250.0000
 21
   0.0000
  0
CIRCLE
  8
410
  6
AUSGEZOGEN
 10
 250.0000
 20
   0.0000
 40
  50.0000
  0
LINE
  8
420
  6
AUSGEZOGEN
 10
 250.0000
 20
   0.0000
 11
1924.0000
 21
 606.5000
  0
LINE
  8
420
  6
AUSGEZOGEN
 10
3228.9300
 20
 606.5000
 11
1924.0000
 21
 606.5000
  0
LINE
  8
420
  6
AUSGEZOGEN
 10
 250.0000
 20
   0.0000
 11
 250.0000
 21
  75.0000
  0
LINE
  8
420
  6
AUSGEZOGEN
 10
 250.0000
 20
 -75.0000
 11
 250.0000
 21
   0.0000
  0
LINE
  8
420
  6
AUSGEZOGEN
 10
 325.0000
 20
   0.0000
 11
 250.0000
 21
   0.0000
  0
LINE
  8
420
  6
AUSGEZOGEN
 10
 175.0000
 20
   0.0000
 11
 250.0000
 21
   0.0000
  0
CIRCLE
  8
420
  6
AUSGEZOGEN
 10
 250.0000
 20
   0.0000
 40
  50.0000
  0
LINE
  8
200
  6
AUSGEZOGEN
 10
 425.0000
 20
 930.0000
 11
 425.0000
 21
  40.0000
  0
LINE
  8
200
  6
AUSGEZOGEN
 10
1497.0000
 20
 855.4000
 11
1002.0000
 21
 855.4000
  0
LINE
  8
200
  6
AUSGEZOGEN
 10
1002.0000
 20
  63.0000
 11
1497.0000
 21
  63.0000
  0
LINE
  8
200
  6
AUSGEZOGEN
 10
1497.0000
 20
 884.9000
 11
1497.0000
 21
  63.0000
  0
LINE
  8
200
  6
AUSGEZOGEN
 10
1002.0000
 20
  63.0000
 11
1002.0000
 21
 884.9000
  0
LINE
  8
200
  6
AUSGEZOGEN
 10
1497.0000
 20
 884.9000
 11
1002.0000
 21
 884.9000
  0
LINE
  8
200
  6
AUSGEZOGEN
 10
1002.0000
 20
 898.0000
 11
1497.0000
 21
 898.0000
  0
LINE
  8
200
  6
AUSGEZOGEN
 10
1002.0000
 20
 920.0000
 11
1002.0000
 21
 898.0000
  0
LINE
  8
200
  6
AUSGEZOGEN
 10
1497.0000
 20
 920.0000
 11
1002.0000
 21
 920.0000
  0
LINE
  8
200
  6
AUSGEZOGEN
 10
1497.0000
 20
 898.0000
 11
1497.0000
 21
 920.0000
  0
LINE
  8
200
  6
AUSGEZOGEN
 10
 453.0000
 20
 855.4000
 11
 948.0000
 21
 855.4000
  0
LINE
  8
200
  6
AUSGEZOGEN
 10
 948.0000
 20
  63.0000
 11
 453.0000
 21
  63.0000
  0
LINE
  8
200
  6
AUSGEZOGEN
 10
 948.0000
 20
 884.9000
 11
 948.0000
 21
  63.0000
  0
LINE
  8
200
  6
AUSGEZOGEN
 10
 453.0000
 20
  63.0000
 11
 453.0000
 21
 884.9000
  0
LINE
  8
200
  6
AUSGEZOGEN
 10
 948.0000
 20
 884.9000
 11
 453.0000
 21
 884.9000
  0
LINE
  8
200
  6
AUSGEZOGEN
 10
 453.0000
 20
 898.0000
 11
 948.0000
 21
 898.0000
  0
LINE
  8
200
  6
AUSGEZOGEN
 10
 453.0000
 20
 920.0000
 11
 453.0000
 21
 898.0000
  0
LINE
  8
200
  6
AUSGEZOGEN
 10
 948.0000
 20
 920.0000
 11
 453.0000
 21
 920.0000
  0
LINE
  8
200
  6
AUSGEZOGEN
 10
 948.0000
 20
 898.0000
 11
 948.0000
 21
 920.0000
  0
LINE
  8
200
  6
AUSGEZOGEN
 10
  68.2800
 20
 815.0000
 11
  82.7800
 21
 843.5400
  0
LINE
  8
200
  6
AUSGEZOGEN
 10
 153.8900
 20
 843.5400
 11
 139.3900
 21
 815.0000
  0
LINE
  8
200
  6
AUSGEZOGEN
 10
 174.9500
 20
 815.0000
 11
 189.4500
 21
 843.5400
  0
LINE
  8
200
  6
AUSGEZOGEN
 10
 225.0000
 20
 843.5400
 11
 210.5000
 21
 815.0000
  0
LINE
  8
200
  6
AUSGEZOGEN
 10
  79.5000
 20
 895.0000
 11
  65.0000
 21
 866.4600
  0
LINE
  8
200
  6
AUSGEZOGEN
 10
  68.2800
 20
 859.9900
 11
  82.7800
 21
 888.5300
  0
LINE
  8
200
  6
AUSGEZOGEN
 10
 115.0500
 20
 895.0000
 11
 100.5500
 21
 866.4600
  0
LINE
  8
200
  6
AUSGEZOGEN
 10
 118.3300
 20
 866.4600
 11
 132.8300
 21
 895.0000
  0
LINE
  8
200
  6
AUSGEZOGEN
 10
 150.6100
 20
 895.0000
 11
 136.1100
 21
 866.4600
  0
LINE
  8
200
  6
AUSGEZOGEN
 10
 139.3900
 20
 859.9900
 11
 153.8900
 21
 888.5300
  0
LINE
  8
200
  6
AUSGEZOGEN
 10
 186.1600
 20
 895.0000
 11
 171.6600
 21
 866.4600
  0
LINE
  8
200
  6
AUSGEZOGEN
 10
 174.9500
 20
 859.9900
 11
 189.4500
 21
 888.5300
  0
LINE
  8
200
  6
AUSGEZOGEN
 10
 221.7200
 20
 895.0000
 11
 207.2200
 21
 866.4600
  0
LINE
  8
200
  6
AUSGEZOGEN
 10
 210.5000
 20
 859.9900
 11
 225.0000
 21
 888.5300
  0
LINE
  8
200
  6
AUSGEZOGEN
 10
 228.2800
 20
 815.0000
 11
 242.7800
 21
 843.5400
  0
LINE
  8
200
  6
AUSGEZOGEN
 10
 313.8900
 20
 843.5400
 11
 299.3900
 21
 815.0000
  0
LINE
  8
200
  6
AUSGEZOGEN
 10
 334.9500
 20
 815.0000
 11
 349.4500
 21
 843.5400
  0
LINE
  8
200
  6
AUSGEZOGEN
 10
 385.0000
 20
 843.5400
 11
 370.5000
 21
 815.0000
  0
LINE
  8
200
  6
AUSGEZOGEN
 10
 239.5000
 20
 895.0000
 11
 225.0000
 21
 866.4600
  0
LINE
  8
200
  6
AUSGEZOGEN
 10
 228.2800
 20
 859.9900
 11
 242.7800
 21
 888.5300
  0
LINE
  8
200
  6
AUSGEZOGEN
 10
 275.0500
 20
 895.0000
 11
 260.5500
 21
 866.4600
  0
LINE
  8
200
  6
AUSGEZOGEN
 10
 278.3300
 20
 866.4600
 11
 292.8300
 21
 895.0000
  0
LINE
  8
200
  6
AUSGEZOGEN
 10
 310.6100
 20
 895.0000
 11
 296.1100
 21
 866.4600
  0
LINE
  8
200
  6
AUSGEZOGEN
 10
 299.3900
 20
 859.9900
 11
 313.8900
 21
 888.5300
  0
LINE
  8
200
  6
AUSGEZOGEN
 10
 346.1600
 20
 895.0000
 11
 331.6600
 21
 866.4600
  0
LINE
  8
200
  6
AUSGEZOGEN
 10
 334.9500
 20
 859.9900
 11
 349.4500
 21
 888.5300
  0
LINE
  8
200
  6
AUSGEZOGEN
 10
 381.7200
 20
 895.0000
 11
 367.2200
 21
 866.4600
  0
LINE
  8
200
  6
AUSGEZOGEN
 10
 370.5000
 20
 859.9900
 11
 385.0000
 21
 888.5300
  0
LINE
  8
200
  6
AUSGEZOGEN
 10
  65.0000
 20
 821.4700
 11
  79.5000
 21
 850.0000
  0
LINE
  8
200
  6
AUSGEZOGEN
 10
 100.5500
 20
 843.5400
 11
  86.0600
 21
 815.0000
  0
LINE
  8
200
  6
AUSGEZOGEN
 10
 100.5500
 20
 821.4700
 11
 115.0500
 21
 850.0000
  0
LINE
  8
200
  6
AUSGEZOGEN
 10
 118.3300
 20
 843.5400
 11
 103.8400
 21
 815.0000
  0
LINE
  8
200
  6
AUSGEZOGEN
 10
 118.3300
 20
 821.4700
 11
 132.8300
 21
 850.0000
  0
LINE
  8
200
  6
AUSGEZOGEN
 10
 136.1100
 20
 843.5400
 11
 121.6200
 21
 815.0000
  0
LINE
  8
200
  6
AUSGEZOGEN
 10
 136.1100
 20
 821.4700
 11
 150.6100
 21
 850.0000
  0
LINE
  8
200
  6
AUSGEZOGEN
 10
 171.6600
 20
 843.5400
 11
 157.1700
 21
 815.0000
  0
LINE
  8
200
  6
AUSGEZOGEN
 10
 171.6600
 20
 821.4700
 11
 186.1600
 21
 850.0000
  0
LINE
  8
200
  6
AUSGEZOGEN
 10
 207.2200
 20
 843.5400
 11
 192.7300
 21
 815.0000
  0
LINE
  8
200
  6
AUSGEZOGEN
 10
 207.2200
 20
 821.4700
 11
 221.7200
 21
 850.0000
  0
LINE
  8
200
  6
AUSGEZOGEN
 10
  97.2700
 20
 895.0000
 11
  82.7800
 21
 866.4600
  0
LINE
  8
200
  6
AUSGEZOGEN
 10
  86.0600
 20
 859.9900
 11
 100.5500
 21
 888.5300
  0
LINE
  8
200
  6
AUSGEZOGEN
 10
 118.3300
 20
 888.5300
 11
 103.8400
 21
 859.9900
  0
LINE
  8
200
  6
AUSGEZOGEN
 10
 121.6200
 20
 859.9900
 11
 136.1100
 21
 888.5300
  0
LINE
  8
200
  6
AUSGEZOGEN
 10
 168.3800
 20
 895.0000
 11
 153.8900
 21
 866.4600
  0
LINE
  8
200
  6
AUSGEZOGEN
 10
 157.1700
 20
 859.9900
 11
 171.6600
 21
 888.5300
  0
LINE
  8
200
  6
AUSGEZOGEN
 10
 203.9400
 20
 895.0000
 11
 189.4500
 21
 866.4600
  0
LINE
  8
200
  6
AUSGEZOGEN
 10
 192.7300
 20
 859.9900
 11
 207.2200
 21
 888.5300
  0
LINE
  8
200
  6
AUSGEZOGEN
 10
 225.0000
 20
 821.4700
 11
 239.5000
 21
 850.0000
  0
LINE
  8
200
  6
AUSGEZOGEN
 10
 260.5500
 20
 843.5400
 11
 246.0600
 21
 815.0000
  0
LINE
  8
200
  6
AUSGEZOGEN
 10
 260.5500
 20
 821.4700
 11
 275.0500
 21
 850.0000
  0
LINE
  8
200
  6
AUSGEZOGEN
 10
 278.3300
 20
 843.5400
 11
 263.8400
 21
 815.0000
  0
LINE
  8
200
  6
AUSGEZOGEN
 10
 278.3300
 20
 821.4700
 11
 292.8300
 21
 850.0000
  0
LINE
  8
200
  6
AUSGEZOGEN
 10
 296.1100
 20
 843.5400
 11
 281.6200
 21
 815.0000
  0
LINE
  8
200
  6
AUSGEZOGEN
 10
 296.1100
 20
 821.4700
 11
 310.6100
 21
 850.0000
  0
LINE
  8
200
  6
AUSGEZOGEN
 10
 331.6600
 20
 843.5400
 11
 317.1700
 21
 815.0000
  0
LINE
  8
200
  6
AUSGEZOGEN
 10
 331.6600
 20
 821.4700
 11
 346.1600
 21
 850.0000
  0
LINE
  8
200
  6
AUSGEZOGEN
 10
 367.2200
 20
 843.5400
 11
 352.7300
 21
 815.0000
  0
LINE
  8
200
  6
AUSGEZOGEN
 10
 367.2200
 20
 821.4700
 11
 381.7200
 21
 850.0000
  0
LINE
  8
200
  6
AUSGEZOGEN
 10
 257.2700
 20
 895.0000
 11
 242.7800
 21
 866.4600
  0
LINE
  8
200
  6
AUSGEZOGEN
 10
 246.0600
 20
 859.9900
 11
 260.5500
 21
 888.5300
  0
LINE
  8
200
  6
AUSGEZOGEN
 10
 278.3300
 20
 888.5300
 11
 263.8400
 21
 859.9900
  0
LINE
  8
200
  6
AUSGEZOGEN
 10
 281.6200
 20
 859.9900
 11
 296.1100
 21
 888.5300
  0
LINE
  8
200
  6
AUSGEZOGEN
 10
 328.3800
 20
 895.0000
 11
 313.8900
 21
 866.4600
  0
LINE
  8
200
  6
AUSGEZOGEN
 10
 317.1700
 20
 859.9900
 11
 331.6600
 21
 888.5300
  0
LINE
  8
200
  6
AUSGEZOGEN
 10
 363.9400
 20
 895.0000
 11
 349.4500
 21
 866.4600
  0
LINE
  8
200
  6
AUSGEZOGEN
 10
 352.7300
 20
 859.9900
 11
 367.2200
 21
 888.5300
  0
LINE
  8
200
  6
AUSGEZOGEN
 10
  82.7800
 20
 821.4700
 11
  97.2700
 21
 850.0000
  0
LINE
  8
200
  6
AUSGEZOGEN
 10
 168.3800
 20
 850.0000
 11
 153.8900
 21
 821.4700
  0
LINE
  8
200
  6
AUSGEZOGEN
 10
 189.4500
 20
 821.4700
 11
 203.9400
 21
 850.0000
  0
LINE
  8
200
  6
AUSGEZOGEN
 10
 257.2700
 20
 850.0000
 11
 242.7800
 21
 821.4700
  0
LINE
  8
200
  6
AUSGEZOGEN
 10
 313.8900
 20
 821.4700
 11
 328.3800
 21
 850.0000
  0
LINE
  8
200
  6
AUSGEZOGEN
 10
 363.9400
 20
 850.0000
 11
 349.4500
 21
 821.4700
  0
LINE
  8
200
  6
AUSGEZOGEN
 10
  82.7800
 20
 843.5400
 11
  82.0800
 21
 848.6400
  0
LINE
  8
200
  6
AUSGEZOGEN
 10
 135.4100
 20
 848.6400
 11
 136.1100
 21
 843.5400
  0
LINE
  8
200
  6
AUSGEZOGEN
 10
 153.8900
 20
 843.5400
 11
 153.1900
 21
 848.6400
  0
LINE
  8
200
  6
AUSGEZOGEN
 10
 188.7500
 20
 848.6400
 11
 189.4500
 21
 843.5400
  0
LINE
  8
200
  6
AUSGEZOGEN
 10
 207.2200
 20
 843.5400
 11
 206.5200
 21
 848.6400
  0
LINE
  8
200
  6
AUSGEZOGEN
 10
 100.5500
 20
 866.4600
 11
 101.2500
 21
 861.3600
  0
LINE
  8
200
  6
AUSGEZOGEN
 10
 119.0300
 20
 861.3600
 11
 118.3300
 21
 866.4600
  0
LINE
  8
200
  6
AUSGEZOGEN
 10
 136.1100
 20
 866.4600
 11
 136.8100
 21
 861.3600
  0
LINE
  8
200
  6
AUSGEZOGEN
 10
 154.5900
 20
 861.3600
 11
 153.8900
 21
 866.4600
  0
LINE
  8
200
  6
AUSGEZOGEN
 10
 171.6600
 20
 866.4600
 11
 172.3600
 21
 861.3600
  0
LINE
  8
200
  6
AUSGEZOGEN
 10
 207.9200
 20
 861.3600
 11
 207.2200
 21
 866.4600
  0
LINE
  8
200
  6
AUSGEZOGEN
 10
 242.7800
 20
 843.5400
 11
 242.0800
 21
 848.6400
  0
LINE
  8
200
  6
AUSGEZOGEN
 10
 295.4100
 20
 848.6400
 11
 296.1100
 21
 843.5400
  0
LINE
  8
200
  6
AUSGEZOGEN
 10
 313.8900
 20
 843.5400
 11
 313.1900
 21
 848.6400
  0
LINE
  8
200
  6
AUSGEZOGEN
 10
 348.7500
 20
 848.6400
 11
 349.4500
 21
 843.5400
  0
LINE
  8
200
  6
AUSGEZOGEN
 10
 367.2200
 20
 843.5400
 11
 366.5200
 21
 848.6400
  0
LINE
  8
200
  6
AUSGEZOGEN
 10
 260.5500
 20
 866.4600
 11
 261.2500
 21
 861.3600
  0
LINE
  8
200
  6
AUSGEZOGEN
 10
 279.0300
 20
 861.3600
 11
 278.3300
 21
 866.4600
  0
LINE
  8
200
  6
AUSGEZOGEN
 10
 296.1100
 20
 866.4600
 11
 296.8100
 21
 861.3600
  0
LINE
  8
200
  6
AUSGEZOGEN
 10
 314.5900
 20
 861.3600
 11
 313.8900
 21
 866.4600
  0
LINE
  8
200
  6
AUSGEZOGEN
 10
 331.6600
 20
 866.4600
 11
 332.3600
 21
 861.3600
  0
LINE
  8
200
  6
AUSGEZOGEN
 10
 367.9200
 20
 861.3600
 11
 367.2200
 21
 866.4600
  0
LINE
  8
200
  6
AUSGEZOGEN
 10
 100.5500
 20
 843.5400
 11
  99.8600
 21
 848.6400
  0
LINE
  8
200
  6
AUSGEZOGEN
 10
 117.6400
 20
 848.6400
 11
 118.3300
 21
 843.5400
  0
LINE
  8
200
  6
AUSGEZOGEN
 10
 171.6600
 20
 843.5400
 11
 170.9700
 21
 848.6400
  0
LINE
  8
200
  6
AUSGEZOGEN
 10
  65.0000
 20
 866.4600
 11
  65.6900
 21
 861.3600
  0
LINE
  8
200
  6
AUSGEZOGEN
 10
  83.4700
 20
 861.3600
 11
  82.7800
 21
 866.4600
  0
LINE
  8
200
  6
AUSGEZOGEN
 10
 189.4500
 20
 866.4600
 11
 190.1400
 21
 861.3600
  0
LINE
  8
200
  6
AUSGEZOGEN
 10
 225.0000
 20
 843.5400
 11
 224.3100
 21
 848.6400
  0
LINE
  8
200
  6
AUSGEZOGEN
 10
 259.8600
 20
 848.6400
 11
 260.5500
 21
 843.5400
  0
LINE
  8
200
  6
AUSGEZOGEN
 10
 278.3300
 20
 843.5400
 11
 277.6400
 21
 848.6400
  0
LINE
  8
200
  6
AUSGEZOGEN
 10
 330.9700
 20
 848.6400
 11
 331.6600
 21
 843.5400
  0
LINE
  8
200
  6
AUSGEZOGEN
 10
 225.0000
 20
 866.4600
 11
 225.6900
 21
 861.3600
  0
LINE
  8
200
  6
AUSGEZOGEN
 10
 243.4700
 20
 861.3600
 11
 242.7800
 21
 866.4600
  0
LINE
  8
200
  6
AUSGEZOGEN
 10
 349.4500
 20
 866.4600
 11
 350.1400
 21
 861.3600
  0
LINE
  8
200
  6
AUSGEZOGEN
 10
 385.0000
 20
 843.5400
 11
 384.3100
 21
 848.6400
  0
LINE
  8
200
  6
AUSGEZOGEN
 10
 101.2500
 20
 816.3800
 11
 100.5500
 21
 821.4700
  0
LINE
  8
200
  6
AUSGEZOGEN
 10
 118.3300
 20
 821.4700
 11
 119.0300
 21
 816.3800
  0
LINE
  8
200
  6
AUSGEZOGEN
 10
 136.8100
 20
 816.3800
 11
 136.1100
 21
 821.4700
  0
LINE
  8
200
  6
AUSGEZOGEN
 10
 153.8900
 20
 821.4700
 11
 154.5900
 21
 816.3800
  0
LINE
  8
200
  6
AUSGEZOGEN
 10
 172.3600
 20
 816.3800
 11
 171.6600
 21
 821.4700
  0
LINE
  8
200
  6
AUSGEZOGEN
 10
 207.2200
 20
 821.4700
 11
 207.9200
 21
 816.3800
  0
LINE
  8
200
  6
AUSGEZOGEN
 10
  82.0800
 20
 893.6200
 11
  82.7800
 21
 888.5300
  0
LINE
  8
200
  6
AUSGEZOGEN
 10
 136.1100
 20
 888.5300
 11
 135.4100
 21
 893.6200
  0
LINE
  8
200
  6
AUSGEZOGEN
 10
 153.1900
 20
 893.6200
 11
 153.8900
 21
 888.5300
  0
LINE
  8
200
  6
AUSGEZOGEN
 10
 189.4500
 20
 888.5300
 11
 188.7500
 21
 893.6200
  0
LINE
  8
200
  6
AUSGEZOGEN
 10
 206.5200
 20
 893.6200
 11
 207.2200
 21
 888.5300
  0
LINE
  8
200
  6
AUSGEZOGEN
 10
 261.2500
 20
 816.3800
 11
 260.5500
 21
 821.4700
  0
LINE
  8
200
  6
AUSGEZOGEN
 10
 278.3300
 20
 821.4700
 11
 279.0300
 21
 816.3800
  0
LINE
  8
200
  6
AUSGEZOGEN
 10
 296.8100
 20
 816.3800
 11
 296.1100
 21
 821.4700
  0
LINE
  8
200
  6
AUSGEZOGEN
 10
 313.8900
 20
 821.4700
 11
 314.5900
 21
 816.3800
  0
LINE
  8
200
  6
AUSGEZOGEN
 10
 332.3600
 20
 816.3800
 11
 331.6600
 21
 821.4700
  0
LINE
  8
200
  6
AUSGEZOGEN
 10
 367.2200
 20
 821.4700
 11
 367.9200
 21
 816.3800
  0
LINE
  8
200
  6
AUSGEZOGEN
 10
 242.0800
 20
 893.6200
 11
 242.7800
 21
 888.5300
  0
LINE
  8
200
  6
AUSGEZOGEN
 10
 296.1100
 20
 888.5300
 11
 295.4100
 21
 893.6200
  0
LINE
  8
200
  6
AUSGEZOGEN
 10
 313.1900
 20
 893.6200
 11
 313.8900
 21
 888.5300
  0
LINE
  8
200
  6
AUSGEZOGEN
 10
 349.4500
 20
 888.5300
 11
 348.7500
 21
 893.6200
  0
LINE
  8
200
  6
AUSGEZOGEN
 10
 366.5200
 20
 893.6200
 11
 367.2200
 21
 888.5300
  0
LINE
  8
200
  6
AUSGEZOGEN
 10
  65.6900
 20
 816.3800
 11
  65.0000
 21
 821.4700
  0
LINE
  8
200
  6
AUSGEZOGEN
 10
  82.7800
 20
 821.4700
 11
  83.4700
 21
 816.3800
  0
LINE
  8
200
  6
AUSGEZOGEN
 10
 190.1400
 20
 816.3800
 11
 189.4500
 21
 821.4700
  0
LINE
  8
200
  6
AUSGEZOGEN
 10
  99.8600
 20
 893.6200
 11
 100.5500
 21
 888.5300
  0
LINE
  8
200
  6
AUSGEZOGEN
 10
 118.3300
 20
 888.5300
 11
 117.6400
 21
 893.6200
  0
LINE
  8
200
  6
AUSGEZOGEN
 10
 170.9700
 20
 893.6200
 11
 171.6600
 21
 888.5300
  0
LINE
  8
200
  6
AUSGEZOGEN
 10
 225.0000
 20
 888.5300
 11
 224.3100
 21
 893.6200
  0
LINE
  8
200
  6
AUSGEZOGEN
 10
 225.6900
 20
 816.3800
 11
 225.0000
 21
 821.4700
  0
LINE
  8
200
  6
AUSGEZOGEN
 10
 242.7800
 20
 821.4700
 11
 243.4700
 21
 816.3800
  0
LINE
  8
200
  6
AUSGEZOGEN
 10
 350.1400
 20
 816.3800
 11
 349.4500
 21
 821.4700
  0
LINE
  8
200
  6
AUSGEZOGEN
 10
 259.8600
 20
 893.6200
 11
 260.5500
 21
 888.5300
  0
LINE
  8
200
  6
AUSGEZOGEN
 10
 278.3300
 20
 888.5300
 11
 277.6400
 21
 893.6200
  0
LINE
  8
200
  6
AUSGEZOGEN
 10
 330.9700
 20
 893.6200
 11
 331.6600
 21
 888.5300
  0
LINE
  8
200
  6
AUSGEZOGEN
 10
 385.0000
 20
 888.5300
 11
 384.3100
 21
 893.6200
  0
LINE
  8
200
  6
AUSGEZOGEN
 10
  65.6900
 20
 816.3800
 11
  68.2800
 21
 815.0000
  0
LINE
  8
200
  6
AUSGEZOGEN
 10
  86.0600
 20
 815.0000
 11
  83.4700
 21
 816.3800
  0
LINE
  8
200
  6
AUSGEZOGEN
 10
 103.8400
 20
 815.0000
 11
 101.2500
 21
 816.3800
  0
LINE
  8
200
  6
AUSGEZOGEN
 10
 121.6200
 20
 815.0000
 11
 119.0300
 21
 816.3800
  0
LINE
  8
200
  6
AUSGEZOGEN
 10
 174.9500
 20
 815.0000
 11
 172.3600
 21
 816.3800
  0
LINE
  8
200
  6
AUSGEZOGEN
 10
 192.7300
 20
 815.0000
 11
 190.1400
 21
 816.3800
  0
LINE
  8
200
  6
AUSGEZOGEN
 10
  97.2700
 20
 895.0000
 11
  99.8600
 21
 893.6200
  0
LINE
  8
200
  6
AUSGEZOGEN
 10
 117.6400
 20
 893.6200
 11
 115.0500
 21
 895.0000
  0
LINE
  8
200
  6
AUSGEZOGEN
 10
 170.9700
 20
 893.6200
 11
 168.3800
 21
 895.0000
  0
LINE
  8
200
  6
AUSGEZOGEN
 10
 188.7500
 20
 893.6200
 11
 186.1600
 21
 895.0000
  0
LINE
  8
200
  6
AUSGEZOGEN
 10
 224.3100
 20
 893.6200
 11
 221.7200
 21
 895.0000
  0
LINE
  8
200
  6
AUSGEZOGEN
 10
 228.2800
 20
 815.0000
 11
 225.6900
 21
 816.3800
  0
LINE
  8
200
  6
AUSGEZOGEN
 10
 246.0600
 20
 815.0000
 11
 243.4700
 21
 816.3800
  0
LINE
  8
200
  6
AUSGEZOGEN
 10
 263.8400
 20
 815.0000
 11
 261.2500
 21
 816.3800
  0
LINE
  8
200
  6
AUSGEZOGEN
 10
 281.6200
 20
 815.0000
 11
 279.0300
 21
 816.3800
  0
LINE
  8
200
  6
AUSGEZOGEN
 10
 334.9500
 20
 815.0000
 11
 332.3600
 21
 816.3800
  0
LINE
  8
200
  6
AUSGEZOGEN
 10
 352.7300
 20
 815.0000
 11
 350.1400
 21
 816.3800
  0
LINE
  8
200
  6
AUSGEZOGEN
 10
 257.2700
 20
 895.0000
 11
 259.8600
 21
 893.6200
  0
LINE
  8
200
  6
AUSGEZOGEN
 10
 277.6400
 20
 893.6200
 11
 275.0500
 21
 895.0000
  0
LINE
  8
200
  6
AUSGEZOGEN
 10
 330.9700
 20
 893.6200
 11
 328.3800
 21
 895.0000
  0
LINE
  8
200
  6
AUSGEZOGEN
 10
 348.7500
 20
 893.6200
 11
 346.1600
 21
 895.0000
  0
LINE
  8
200
  6
AUSGEZOGEN
 10
 384.3100
 20
 893.6200
 11
 381.7200
 21
 895.0000
  0
LINE
  8
200
  6
AUSGEZOGEN
 10
 350.1400
 20
 861.3600
 11
 352.7300
 21
 859.9900
  0
LINE
  8
200
  6
AUSGEZOGEN
 10
 332.3600
 20
 861.3600
 11
 334.9500
 21
 859.9900
  0
LINE
  8
200
  6
AUSGEZOGEN
 10
 279.0300
 20
 861.3600
 11
 281.6200
 21
 859.9900
  0
LINE
  8
200
  6
AUSGEZOGEN
 10
 261.2500
 20
 861.3600
 11
 263.8400
 21
 859.9900
  0
LINE
  8
200
  6
AUSGEZOGEN
 10
 243.4700
 20
 861.3600
 11
 246.0600
 21
 859.9900
  0
LINE
  8
200
  6
AUSGEZOGEN
 10
 225.6900
 20
 861.3600
 11
 228.2800
 21
 859.9900
  0
LINE
  8
200
  6
AUSGEZOGEN
 10
 190.1400
 20
 861.3600
 11
 192.7300
 21
 859.9900
  0
LINE
  8
200
  6
AUSGEZOGEN
 10
 172.3600
 20
 861.3600
 11
 174.9500
 21
 859.9900
  0
LINE
  8
200
  6
AUSGEZOGEN
 10
 119.0300
 20
 861.3600
 11
 121.6200
 21
 859.9900
  0
LINE
  8
200
  6
AUSGEZOGEN
 10
 101.2500
 20
 861.3600
 11
 103.8400
 21
 859.9900
  0
LINE
  8
200
  6
AUSGEZOGEN
 10
  83.4700
 20
 861.3600
 11
  86.0600
 21
 859.9900
  0
LINE
  8
200
  6
AUSGEZOGEN
 10
  65.6900
 20
 861.3600
 11
  68.2800
 21
 859.9900
  0
LINE
  8
200
  6
AUSGEZOGEN
 10
  82.0800
 20
 848.6400
 11
  79.5000
 21
 850.0000
  0
LINE
  8
200
  6
AUSGEZOGEN
 10
  99.8600
 20
 848.6400
 11
  97.2700
 21
 850.0000
  0
LINE
  8
200
  6
AUSGEZOGEN
 10
 117.6400
 20
 848.6400
 11
 115.0500
 21
 850.0000
  0
LINE
  8
200
  6
AUSGEZOGEN
 10
 135.4100
 20
 848.6400
 11
 132.8300
 21
 850.0000
  0
LINE
  8
200
  6
AUSGEZOGEN
 10
 153.1900
 20
 848.6400
 11
 150.6100
 21
 850.0000
  0
LINE
  8
200
  6
AUSGEZOGEN
 10
 136.8100
 20
 816.3800
 11
 139.3900
 21
 815.0000
  0
LINE
  8
200
  6
AUSGEZOGEN
 10
 170.9700
 20
 848.6400
 11
 168.3800
 21
 850.0000
  0
LINE
  8
200
  6
AUSGEZOGEN
 10
 154.5900
 20
 816.3800
 11
 157.1700
 21
 815.0000
  0
LINE
  8
200
  6
AUSGEZOGEN
 10
 188.7500
 20
 848.6400
 11
 186.1600
 21
 850.0000
  0
LINE
  8
200
  6
AUSGEZOGEN
 10
 206.5200
 20
 848.6400
 11
 203.9400
 21
 850.0000
  0
LINE
  8
200
  6
AUSGEZOGEN
 10
 224.3100
 20
 848.6400
 11
 221.7200
 21
 850.0000
  0
LINE
  8
200
  6
AUSGEZOGEN
 10
 207.9200
 20
 816.3800
 11
 210.5000
 21
 815.0000
  0
LINE
  8
200
  6
AUSGEZOGEN
 10
  79.5000
 20
 895.0000
 11
  82.0800
 21
 893.6200
  0
LINE
  8
200
  6
AUSGEZOGEN
 10
 135.4100
 20
 893.6200
 11
 132.8300
 21
 895.0000
  0
LINE
  8
200
  6
AUSGEZOGEN
 10
 153.1900
 20
 893.6200
 11
 150.6100
 21
 895.0000
  0
LINE
  8
200
  6
AUSGEZOGEN
 10
 136.8100
 20
 861.3600
 11
 139.3900
 21
 859.9900
  0
LINE
  8
200
  6
AUSGEZOGEN
 10
 157.1700
 20
 859.9900
 11
 154.5900
 21
 861.3600
  0
LINE
  8
200
  6
AUSGEZOGEN
 10
 206.5200
 20
 893.6200
 11
 203.9400
 21
 895.0000
  0
LINE
  8
200
  6
AUSGEZOGEN
 10
 210.5000
 20
 859.9900
 11
 207.9200
 21
 861.3600
  0
LINE
  8
200
  6
AUSGEZOGEN
 10
 242.0800
 20
 848.6400
 11
 239.5000
 21
 850.0000
  0
LINE
  8
200
  6
AUSGEZOGEN
 10
 259.8600
 20
 848.6400
 11
 257.2700
 21
 850.0000
  0
LINE
  8
200
  6
AUSGEZOGEN
 10
 277.6400
 20
 848.6400
 11
 275.0500
 21
 850.0000
  0
LINE
  8
200
  6
AUSGEZOGEN
 10
 295.4100
 20
 848.6400
 11
 292.8300
 21
 850.0000
  0
LINE
  8
200
  6
AUSGEZOGEN
 10
 313.1900
 20
 848.6400
 11
 310.6100
 21
 850.0000
  0
LINE
  8
200
  6
AUSGEZOGEN
 10
 296.8100
 20
 816.3800
 11
 299.3900
 21
 815.0000
  0
LINE
  8
200
  6
AUSGEZOGEN
 10
 330.9700
 20
 848.6400
 11
 328.3800
 21
 850.0000
  0
LINE
  8
200
  6
AUSGEZOGEN
 10
 314.5900
 20
 816.3800
 11
 317.1700
 21
 815.0000
  0
LINE
  8
200
  6
AUSGEZOGEN
 10
 348.7500
 20
 848.6400
 11
 346.1600
 21
 850.0000
  0
LINE
  8
200
  6
AUSGEZOGEN
 10
 366.5200
 20
 848.6400
 11
 363.9400
 21
 850.0000
  0
LINE
  8
200
  6
AUSGEZOGEN
 10
 384.3100
 20
 848.6400
 11
 381.7200
 21
 850.0000
  0
LINE
  8
200
  6
AUSGEZOGEN
 10
 367.9200
 20
 816.3800
 11
 370.5000
 21
 815.0000
  0
LINE
  8
200
  6
AUSGEZOGEN
 10
 239.5000
 20
 895.0000
 11
 242.0800
 21
 893.6200
  0
LINE
  8
200
  6
AUSGEZOGEN
 10
 295.4100
 20
 893.6200
 11
 292.8300
 21
 895.0000
  0
LINE
  8
200
  6
AUSGEZOGEN
 10
 313.1900
 20
 893.6200
 11
 310.6100
 21
 895.0000
  0
LINE
  8
200
  6
AUSGEZOGEN
 10
 296.8100
 20
 861.3600
 11
 299.3900
 21
 859.9900
  0
LINE
  8
200
  6
AUSGEZOGEN
 10
 317.1700
 20
 859.9900
 11
 314.5900
 21
 861.3600
  0
LINE
  8
200
  6
AUSGEZOGEN
 10
 366.5200
 20
 893.6200
 11
 363.9400
 21
 895.0000
  0
LINE
  8
200
  6
AUSGEZOGEN
 10
 370.5000
 20
 859.9900
 11
 367.9200
 21
 861.3600
  0
LINE
  8
200
  6
AUSGEZOGEN
 10
 370.5000
 20
 474.6200
 11
 385.0000
 21
 503.6600
  0
LINE
  8
200
  6
AUSGEZOGEN
 10
 381.7200
 20
 510.0000
 11
 367.2200
 21
 481.2000
  0
LINE
  8
200
  6
AUSGEZOGEN
 10
 334.9500
 20
 474.6200
 11
 349.4500
 21
 503.6600
  0
LINE
  8
200
  6
AUSGEZOGEN
 10
 346.1600
 20
 510.0000
 11
 331.6600
 21
 481.2000
  0
LINE
  8
200
  6
AUSGEZOGEN
 10
 299.3900
 20
 474.6200
 11
 313.8900
 21
 503.6600
  0
LINE
  8
200
  6
AUSGEZOGEN
 10
 310.6100
 20
 510.0000
 11
 296.1100
 21
 481.2000
  0
LINE
  8
200
  6
AUSGEZOGEN
 10
 278.3300
 20
 481.2000
 11
 292.8300
 21
 510.0000
  0
LINE
  8
200
  6
AUSGEZOGEN
 10
 275.0500
 20
 510.0000
 11
 260.5500
 21
 481.2000
  0
LINE
  8
200
  6
AUSGEZOGEN
 10
 228.2800
 20
 474.6200
 11
 242.7800
 21
 503.6600
  0
LINE
  8
200
  6
AUSGEZOGEN
 10
 239.5000
 20
 510.0000
 11
 225.0000
 21
 481.2000
  0
LINE
  8
200
  6
AUSGEZOGEN
 10
 370.5000
 20
 428.8500
 11
 385.0000
 21
 457.8900
  0
LINE
  8
200
  6
AUSGEZOGEN
 10
 349.4500
 20
 457.8900
 11
 334.9500
 21
 428.8500
  0
LINE
  8
200
  6
AUSGEZOGEN
 10
 299.3900
 20
 428.8500
 11
 313.8900
 21
 457.8900
  0
LINE
  8
200
  6
AUSGEZOGEN
 10
 242.7800
 20
 457.8900
 11
 228.2800
 21
 428.8500
  0
LINE
  8
200
  6
AUSGEZOGEN
 10
 370.5000
 20
 383.0800
 11
 385.0000
 21
 412.1200
  0
LINE
  8
200
  6
AUSGEZOGEN
 10
 349.4500
 20
 412.1200
 11
 334.9500
 21
 383.0800
  0
LINE
  8
200
  6
AUSGEZOGEN
 10
 299.3900
 20
 383.0800
 11
 313.8900
 21
 412.1200
  0
LINE
  8
200
  6
AUSGEZOGEN
 10
 242.7800
 20
 412.1200
 11
 228.2800
 21
 383.0800
  0
LINE
  8
200
  6
AUSGEZOGEN
 10
 370.5000
 20
 337.3100
 11
 385.0000
 21
 366.3500
  0
LINE
  8
200
  6
AUSGEZOGEN
 10
 349.4500
 20
 366.3500
 11
 334.9500
 21
 337.3100
  0
LINE
  8
200
  6
AUSGEZOGEN
 10
 299.3900
 20
 337.3100
 11
 313.8900
 21
 366.3500
  0
LINE
  8
200
  6
AUSGEZOGEN
 10
 242.7800
 20
 366.3500
 11
 228.2800
 21
 337.3100
  0
LINE
  8
200
  6
AUSGEZOGEN
 10
 370.5000
 20
 291.5400
 11
 385.0000
 21
 320.5800
  0
LINE
  8
200
  6
AUSGEZOGEN
 10
 349.4500
 20
 320.5800
 11
 334.9500
 21
 291.5400
  0
LINE
  8
200
  6
AUSGEZOGEN
 10
 299.3900
 20
 291.5400
 11
 313.8900
 21
 320.5800
  0
LINE
  8
200
  6
AUSGEZOGEN
 10
 242.7800
 20
 320.5800
 11
 228.2800
 21
 291.5400
  0
LINE
  8
200
  6
AUSGEZOGEN
 10
 370.5000
 20
 245.7700
 11
 385.0000
 21
 274.8100
  0
LINE
  8
200
  6
AUSGEZOGEN
 10
 381.7200
 20
 281.3800
 11
 367.2200
 21
 252.3400
  0
LINE
  8
200
  6
AUSGEZOGEN
 10
 334.9500
 20
 245.7700
 11
 349.4500
 21
 274.8100
  0
LINE
  8
200
  6
AUSGEZOGEN
 10
 346.1600
 20
 281.3800
 11
 331.6600
 21
 252.3400
  0
LINE
  8
200
  6
AUSGEZOGEN
 10
 299.3900
 20
 245.7700
 11
 313.8900
 21
 274.8100
  0
LINE
  8
200
  6
AUSGEZOGEN
 10
 310.6100
 20
 281.3800
 11
 296.1100
 21
 252.3400
  0
LINE
  8
200
  6
AUSGEZOGEN
 10
 278.3300
 20
 252.3400
 11
 292.8300
 21
 281.3800
  0
LINE
  8
200
  6
AUSGEZOGEN
 10
 275.0500
 20
 281.3800
 11
 260.5500
 21
 252.3400
  0
LINE
  8
200
  6
AUSGEZOGEN
 10
 228.2800
 20
 245.7700
 11
 242.7800
 21
 274.8100
  0
LINE
  8
200
  6
AUSGEZOGEN
 10
 239.5000
 20
 281.3800
 11
 225.0000
 21
 252.3400
  0
LINE
  8
200
  6
AUSGEZOGEN
 10
 370.5000
 20
 200.0000
 11
 385.0000
 21
 229.0400
  0
LINE
  8
200
  6
AUSGEZOGEN
 10
 381.7200
 20
 235.6100
 11
 367.2200
 21
 206.5700
  0
LINE
  8
200
  6
AUSGEZOGEN
 10
 334.9500
 20
 200.0000
 11
 349.4500
 21
 229.0400
  0
LINE
  8
200
  6
AUSGEZOGEN
 10
 346.1600
 20
 235.6100
 11
 331.6600
 21
 206.5700
  0
LINE
  8
200
  6
AUSGEZOGEN
 10
 299.3900
 20
 200.0000
 11
 313.8900
 21
 229.0400
  0
LINE
  8
200
  6
AUSGEZOGEN
 10
 310.6100
 20
 235.6100
 11
 296.1100
 21
 206.5700
  0
LINE
  8
200
  6
AUSGEZOGEN
 10
 278.3300
 20
 206.5700
 11
 292.8300
 21
 235.6100
  0
LINE
  8
200
  6
AUSGEZOGEN
 10
 275.0500
 20
 235.6100
 11
 260.5500
 21
 206.5700
  0
LINE
  8
200
  6
AUSGEZOGEN
 10
 228.2800
 20
 200.0000
 11
 242.7800
 21
 229.0400
  0
LINE
  8
200
  6
AUSGEZOGEN
 10
 239.5000
 20
 235.6100
 11
 225.0000
 21
 206.5700
  0
LINE
  8
200
  6
AUSGEZOGEN
 10
 225.0000
 20
 503.6600
 11
 210.5000
 21
 474.6200
  0
LINE
  8
200
  6
AUSGEZOGEN
 10
 207.2200
 20
 481.2000
 11
 221.7200
 21
 510.0000
  0
LINE
  8
200
  6
AUSGEZOGEN
 10
 189.4500
 20
 503.6600
 11
 174.9500
 21
 474.6200
  0
LINE
  8
200
  6
AUSGEZOGEN
 10
 171.6600
 20
 481.2000
 11
 186.1600
 21
 510.0000
  0
LINE
  8
200
  6
AUSGEZOGEN
 10
 153.8900
 20
 503.6600
 11
 139.3900
 21
 474.6200
  0
LINE
  8
200
  6
AUSGEZOGEN
 10
 136.1100
 20
 481.2000
 11
 150.6100
 21
 510.0000
  0
LINE
  8
200
  6
AUSGEZOGEN
 10
 132.8300
 20
 510.0000
 11
 118.3300
 21
 481.2000
  0
LINE
  8
200
  6
AUSGEZOGEN
 10
 100.5500
 20
 481.2000
 11
 115.0500
 21
 510.0000
  0
LINE
  8
200
  6
AUSGEZOGEN
 10
  82.7800
 20
 503.6600
 11
  68.2800
 21
 474.6200
  0
LINE
  8
200
  6
AUSGEZOGEN
 10
  65.0000
 20
 481.2000
 11
  79.5000
 21
 510.0000
  0
LINE
  8
200
  6
AUSGEZOGEN
 10
 210.5000
 20
 428.8500
 11
 225.0000
 21
 457.8900
  0
LINE
  8
200
  6
AUSGEZOGEN
 10
 189.4500
 20
 457.8900
 11
 174.9500
 21
 428.8500
  0
LINE
  8
200
  6
AUSGEZOGEN
 10
 139.3900
 20
 428.8500
 11
 153.8900
 21
 457.8900
  0
LINE
  8
200
  6
AUSGEZOGEN
 10
  82.7800
 20
 457.8900
 11
  68.2800
 21
 428.8500
  0
LINE
  8
200
  6
AUSGEZOGEN
 10
 210.5000
 20
 383.0800
 11
 225.0000
 21
 412.1200
  0
LINE
  8
200
  6
AUSGEZOGEN
 10
 189.4500
 20
 412.1200
 11
 174.9500
 21
 383.0800
  0
LINE
  8
200
  6
AUSGEZOGEN
 10
 139.3900
 20
 383.0800
 11
 153.8900
 21
 412.1200
  0
LINE
  8
200
  6
AUSGEZOGEN
 10
  82.7800
 20
 412.1200
 11
  68.2800
 21
 383.0800
  0
LINE
  8
200
  6
AUSGEZOGEN
 10
 210.5000
 20
 337.3100
 11
 225.0000
 21
 366.3500
  0
LINE
  8
200
  6
AUSGEZOGEN
 10
 189.4500
 20
 366.3500
 11
 174.9500
 21
 337.3100
  0
LINE
  8
200
  6
AUSGEZOGEN
 10
 139.3900
 20
 337.3100
 11
 153.8900
 21
 366.3500
  0
LINE
  8
200
  6
AUSGEZOGEN
 10
  82.7800
 20
 366.3500
 11
  68.2800
 21
 337.3100
  0
LINE
  8
200
  6
AUSGEZOGEN
 10
 210.5000
 20
 291.5400
 11
 225.0000
 21
 320.5800
  0
LINE
  8
200
  6
AUSGEZOGEN
 10
 189.4500
 20
 320.5800
 11
 174.9500
 21
 291.5400
  0
LINE
  8
200
  6
AUSGEZOGEN
 10
 139.3900
 20
 291.5400
 11
 153.8900
 21
 320.5800
  0
LINE
  8
200
  6
AUSGEZOGEN
 10
  82.7800
 20
 320.5800
 11
  68.2800
 21
 291.5400
  0
LINE
  8
200
  6
AUSGEZOGEN
 10
 210.5000
 20
 245.7700
 11
 225.0000
 21
 274.8100
  0
LINE
  8
200
  6
AUSGEZOGEN
 10
 221.7200
 20
 281.3800
 11
 207.2200
 21
 252.3400
  0
LINE
  8
200
  6
AUSGEZOGEN
 10
 174.9500
 20
 245.7700
 11
 189.4500
 21
 274.8100
  0
LINE
  8
200
  6
AUSGEZOGEN
 10
 186.1600
 20
 281.3800
 11
 171.6600
 21
 252.3400
  0
LINE
  8
200
  6
AUSGEZOGEN
 10
 139.3900
 20
 245.7700
 11
 153.8900
 21
 274.8100
  0
LINE
  8
200
  6
AUSGEZOGEN
 10
 150.6100
 20
 281.3800
 11
 136.1100
 21
 252.3400
  0
LINE
  8
200
  6
AUSGEZOGEN
 10
 118.3300
 20
 252.3400
 11
 132.8300
 21
 281.3800
  0
LINE
  8
200
  6
AUSGEZOGEN
 10
 115.0500
 20
 281.3800
 11
 100.5500
 21
 252.3400
  0
LINE
  8
200
  6
AUSGEZOGEN
 10
  68.2800
 20
 245.7700
 11
  82.7800
 21
 274.8100
  0
LINE
  8
200
  6
AUSGEZOGEN
 10
  79.5000
 20
 281.3800
 11
  65.0000
 21
 252.3400
  0
LINE
  8
200
  6
AUSGEZOGEN
 10
 210.5000
 20
 200.0000
 11
 225.0000
 21
 229.0400
  0
LINE
  8
200
  6
AUSGEZOGEN
 10
 221.7200
 20
 235.6100
 11
 207.2200
 21
 206.5700
  0
LINE
  8
200
  6
AUSGEZOGEN
 10
 174.9500
 20
 200.0000
 11
 189.4500
 21
 229.0400
  0
LINE
  8
200
  6
AUSGEZOGEN
 10
 186.1600
 20
 235.6100
 11
 171.6600
 21
 206.5700
  0
LINE
  8
200
  6
AUSGEZOGEN
 10
 139.3900
 20
 200.0000
 11
 153.8900
 21
 229.0400
  0
LINE
  8
200
  6
AUSGEZOGEN
 10
 150.6100
 20
 235.6100
 11
 136.1100
 21
 206.5700
  0
LINE
  8
200
  6
AUSGEZOGEN
 10
 118.3300
 20
 206.5700
 11
 132.8300
 21
 235.6100
  0
LINE
  8
200
  6
AUSGEZOGEN
 10
 115.0500
 20
 235.6100
 11
 100.5500
 21
 206.5700
  0
LINE
  8
200
  6
AUSGEZOGEN
 10
  68.2800
 20
 200.0000
 11
  82.7800
 21
 229.0400
  0
LINE
  8
200
  6
AUSGEZOGEN
 10
  79.5000
 20
 235.6100
 11
  65.0000
 21
 206.5700
  0
LINE
  8
200
  6
AUSGEZOGEN
 10
 367.2200
 20
 503.6600
 11
 352.7300
 21
 474.6200
  0
LINE
  8
200
  6
AUSGEZOGEN
 10
 349.4500
 20
 481.2000
 11
 363.9400
 21
 510.0000
  0
LINE
  8
200
  6
AUSGEZOGEN
 10
 331.6600
 20
 503.6600
 11
 317.1700
 21
 474.6200
  0
LINE
  8
200
  6
AUSGEZOGEN
 10
 313.8900
 20
 481.2000
 11
 328.3800
 21
 510.0000
  0
LINE
  8
200
  6
AUSGEZOGEN
 10
 296.1100
 20
 503.6600
 11
 281.6200
 21
 474.6200
  0
LINE
  8
200
  6
AUSGEZOGEN
 10
 263.8400
 20
 474.6200
 11
 278.3300
 21
 503.6600
  0
LINE
  8
200
  6
AUSGEZOGEN
 10
 260.5500
 20
 503.6600
 11
 246.0600
 21
 474.6200
  0
LINE
  8
200
  6
AUSGEZOGEN
 10
 242.7800
 20
 481.2000
 11
 257.2700
 21
 510.0000
  0
LINE
  8
200
  6
AUSGEZOGEN
 10
 367.2200
 20
 435.4300
 11
 381.7200
 21
 464.4600
  0
LINE
  8
200
  6
AUSGEZOGEN
 10
 367.2200
 20
 457.8900
 11
 352.7300
 21
 428.8500
  0
LINE
  8
200
  6
AUSGEZOGEN
 10
 331.6600
 20
 435.4300
 11
 346.1600
 21
 464.4600
  0
LINE
  8
200
  6
AUSGEZOGEN
 10
 331.6600
 20
 457.8900
 11
 317.1700
 21
 428.8500
  0
LINE
  8
200
  6
AUSGEZOGEN
 10
 296.1100
 20
 435.4300
 11
 310.6100
 21
 464.4600
  0
LINE
  8
200
  6
AUSGEZOGEN
 10
 296.1100
 20
 457.8900
 11
 281.6200
 21
 428.8500
  0
LINE
  8
200
  6
AUSGEZOGEN
 10
 278.3300
 20
 435.4300
 11
 292.8300
 21
 464.4600
  0
LINE
  8
200
  6
AUSGEZOGEN
 10
 278.3300
 20
 457.8900
 11
 263.8400
 21
 428.8500
  0
LINE
  8
200
  6
AUSGEZOGEN
 10
 260.5500
 20
 435.4300
 11
 275.0500
 21
 464.4600
  0
LINE
  8
200
  6
AUSGEZOGEN
 10
 260.5500
 20
 457.8900
 11
 246.0600
 21
 428.8500
  0
LINE
  8
200
  6
AUSGEZOGEN
 10
 225.0000
 20
 435.4300
 11
 239.5000
 21
 464.4600
  0
LINE
  8
200
  6
AUSGEZOGEN
 10
 367.2200
 20
 389.6600
 11
 381.7200
 21
 418.6900
  0
LINE
  8
200
  6
AUSGEZOGEN
 10
 367.2200
 20
 412.1200
 11
 352.7300
 21
 383.0800
  0
LINE
  8
200
  6
AUSGEZOGEN
 10
 331.6600
 20
 389.6600
 11
 346.1600
 21
 418.6900
  0
LINE
  8
200
  6
AUSGEZOGEN
 10
 331.6600
 20
 412.1200
 11
 317.1700
 21
 383.0800
  0
LINE
  8
200
  6
AUSGEZOGEN
 10
 296.1100
 20
 389.6600
 11
 310.6100
 21
 418.6900
  0
LINE
  8
200
  6
AUSGEZOGEN
 10
 296.1100
 20
 412.1200
 11
 281.6200
 21
 383.0800
  0
LINE
  8
200
  6
AUSGEZOGEN
 10
 278.3300
 20
 389.6600
 11
 292.8300
 21
 418.6900
  0
LINE
  8
200
  6
AUSGEZOGEN
 10
 278.3300
 20
 412.1200
 11
 263.8400
 21
 383.0800
  0
LINE
  8
200
  6
AUSGEZOGEN
 10
 260.5500
 20
 389.6600
 11
 275.0500
 21
 418.6900
  0
LINE
  8
200
  6
AUSGEZOGEN
 10
 260.5500
 20
 412.1200
 11
 246.0600
 21
 383.0800
  0
LINE
  8
200
  6
AUSGEZOGEN
 10
 225.0000
 20
 389.6600
 11
 239.5000
 21
 418.6900
  0
LINE
  8
200
  6
AUSGEZOGEN
 10
 367.2200
 20
 343.8900
 11
 381.7200
 21
 372.9200
  0
LINE
  8
200
  6
AUSGEZOGEN
 10
 367.2200
 20
 366.3500
 11
 352.7300
 21
 337.3100
  0
LINE
  8
200
  6
AUSGEZOGEN
 10
 331.6600
 20
 343.8900
 11
 346.1600
 21
 372.9200
  0
LINE
  8
200
  6
AUSGEZOGEN
 10
 331.6600
 20
 366.3500
 11
 317.1700
 21
 337.3100
  0
LINE
  8
200
  6
AUSGEZOGEN
 10
 296.1100
 20
 343.8900
 11
 310.6100
 21
 372.9200
  0
LINE
  8
200
  6
AUSGEZOGEN
 10
 296.1100
 20
 366.3500
 11
 281.6200
 21
 337.3100
  0
LINE
  8
200
  6
AUSGEZOGEN
 10
 278.3300
 20
 343.8900
 11
 292.8300
 21
 372.9200
  0
LINE
  8
200
  6
AUSGEZOGEN
 10
 278.3300
 20
 366.3500
 11
 263.8400
 21
 337.3100
  0
LINE
  8
200
  6
AUSGEZOGEN
 10
 260.5500
 20
 343.8900
 11
 275.0500
 21
 372.9200
  0
LINE
  8
200
  6
AUSGEZOGEN
 10
 260.5500
 20
 366.3500
 11
 246.0600
 21
 337.3100
  0
LINE
  8
200
  6
AUSGEZOGEN
 10
 225.0000
 20
 343.8900
 11
 239.5000
 21
 372.9200
  0
LINE
  8
200
  6
AUSGEZOGEN
 10
 367.2200
 20
 298.1200
 11
 381.7200
 21
 327.1500
  0
LINE
  8
200
  6
AUSGEZOGEN
 10
 367.2200
 20
 320.5800
 11
 352.7300
 21
 291.5400
  0
LINE
  8
200
  6
AUSGEZOGEN
 10
 331.6600
 20
 298.1200
 11
 346.1600
 21
 327.1500
  0
LINE
  8
200
  6
AUSGEZOGEN
 10
 331.6600
 20
 320.5800
 11
 317.1700
 21
 291.5400
  0
LINE
  8
200
  6
AUSGEZOGEN
 10
 296.1100
 20
 298.1200
 11
 310.6100
 21
 327.1500
  0
LINE
  8
200
  6
AUSGEZOGEN
 10
 296.1100
 20
 320.5800
 11
 281.6200
 21
 291.5400
  0
LINE
  8
200
  6
AUSGEZOGEN
 10
 278.3300
 20
 298.1200
 11
 292.8300
 21
 327.1500
  0
LINE
  8
200
  6
AUSGEZOGEN
 10
 278.3300
 20
 320.5800
 11
 263.8400
 21
 291.5400
  0
LINE
  8
200
  6
AUSGEZOGEN
 10
 260.5500
 20
 298.1200
 11
 275.0500
 21
 327.1500
  0
LINE
  8
200
  6
AUSGEZOGEN
 10
 260.5500
 20
 320.5800
 11
 246.0600
 21
 291.5400
  0
LINE
  8
200
  6
AUSGEZOGEN
 10
 225.0000
 20
 298.1200
 11
 239.5000
 21
 327.1500
  0
LINE
  8
200
  6
AUSGEZOGEN
 10
 352.7300
 20
 245.7700
 11
 367.2200
 21
 274.8100
  0
LINE
  8
200
  6
AUSGEZOGEN
 10
 363.9400
 20
 281.3800
 11
 349.4500
 21
 252.3400
  0
LINE
  8
200
  6
AUSGEZOGEN
 10
 317.1700
 20
 245.7700
 11
 331.6600
 21
 274.8100
  0
LINE
  8
200
  6
AUSGEZOGEN
 10
 328.3800
 20
 281.3800
 11
 313.8900
 21
 252.3400
  0
LINE
  8
200
  6
AUSGEZOGEN
 10
 281.6200
 20
 245.7700
 11
 296.1100
 21
 274.8100
  0
LINE
  8
200
  6
AUSGEZOGEN
 10
 278.3300
 20
 274.8100
 11
 263.8400
 21
 245.7700
  0
LINE
  8
200
  6
AUSGEZOGEN
 10
 246.0600
 20
 245.7700
 11
 260.5500
 21
 274.8100
  0
LINE
  8
200
  6
AUSGEZOGEN
 10
 257.2700
 20
 281.3800
 11
 242.7800
 21
 252.3400
  0
LINE
  8
200
  6
AUSGEZOGEN
 10
 352.7300
 20
 200.0000
 11
 367.2200
 21
 229.0400
  0
LINE
  8
200
  6
AUSGEZOGEN
 10
 363.9400
 20
 235.6100
 11
 349.4500
 21
 206.5700
  0
LINE
  8
200
  6
AUSGEZOGEN
 10
 317.1700
 20
 200.0000
 11
 331.6600
 21
 229.0400
  0
LINE
  8
200
  6
AUSGEZOGEN
 10
 328.3800
 20
 235.6100
 11
 313.8900
 21
 206.5700
  0
LINE
  8
200
  6
AUSGEZOGEN
 10
 281.6200
 20
 200.0000
 11
 296.1100
 21
 229.0400
  0
LINE
  8
200
  6
AUSGEZOGEN
 10
 278.3300
 20
 229.0400
 11
 263.8400
 21
 200.0000
  0
LINE
  8
200
  6
AUSGEZOGEN
 10
 246.0600
 20
 200.0000
 11
 260.5500
 21
 229.0400
  0
LINE
  8
200
  6
AUSGEZOGEN
 10
 257.2700
 20
 235.6100
 11
 242.7800
 21
 206.5700
  0
LINE
  8
200
  6
AUSGEZOGEN
 10
 207.2200
 20
 503.6600
 11
 192.7300
 21
 474.6200
  0
LINE
  8
200
  6
AUSGEZOGEN
 10
 189.4500
 20
 481.2000
 11
 203.9400
 21
 510.0000
  0
LINE
  8
200
  6
AUSGEZOGEN
 10
 171.6600
 20
 503.6600
 11
 157.1700
 21
 474.6200
  0
LINE
  8
200
  6
AUSGEZOGEN
 10
 153.8900
 20
 481.2000
 11
 168.3800
 21
 510.0000
  0
LINE
  8
200
  6
AUSGEZOGEN
 10
 136.1100
 20
 503.6600
 11
 121.6200
 21
 474.6200
  0
LINE
  8
200
  6
AUSGEZOGEN
 10
 103.8400
 20
 474.6200
 11
 118.3300
 21
 503.6600
  0
LINE
  8
200
  6
AUSGEZOGEN
 10
 100.5500
 20
 503.6600
 11
  86.0600
 21
 474.6200
  0
LINE
  8
200
  6
AUSGEZOGEN
 10
  82.7800
 20
 481.2000
 11
  97.2700
 21
 510.0000
  0
LINE
  8
200
  6
AUSGEZOGEN
 10
 207.2200
 20
 435.4300
 11
 221.7200
 21
 464.4600
  0
LINE
  8
200
  6
AUSGEZOGEN
 10
 207.2200
 20
 457.8900
 11
 192.7300
 21
 428.8500
  0
LINE
  8
200
  6
AUSGEZOGEN
 10
 171.6600
 20
 435.4300
 11
 186.1600
 21
 464.4600
  0
LINE
  8
200
  6
AUSGEZOGEN
 10
 171.6600
 20
 457.8900
 11
 157.1700
 21
 428.8500
  0
LINE
  8
200
  6
AUSGEZOGEN
 10
 136.1100
 20
 435.4300
 11
 150.6100
 21
 464.4600
  0
LINE
  8
200
  6
AUSGEZOGEN
 10
 136.1100
 20
 457.8900
 11
 121.6200
 21
 428.8500
  0
LINE
  8
200
  6
AUSGEZOGEN
 10
 118.3300
 20
 435.4300
 11
 132.8300
 21
 464.4600
  0
LINE
  8
200
  6
AUSGEZOGEN
 10
 118.3300
 20
 457.8900
 11
 103.8400
 21
 428.8500
  0
LINE
  8
200
  6
AUSGEZOGEN
 10
 100.5500
 20
 435.4300
 11
 115.0500
 21
 464.4600
  0
LINE
  8
200
  6
AUSGEZOGEN
 10
 100.5500
 20
 457.8900
 11
  86.0600
 21
 428.8500
  0
LINE
  8
200
  6
AUSGEZOGEN
 10
  65.0000
 20
 435.4300
 11
  79.5000
 21
 464.4600
  0
LINE
  8
200
  6
AUSGEZOGEN
 10
 207.2200
 20
 389.6600
 11
 221.7200
 21
 418.6900
  0
LINE
  8
200
  6
AUSGEZOGEN
 10
 207.2200
 20
 412.1200
 11
 192.7300
 21
 383.0800
  0
LINE
  8
200
  6
AUSGEZOGEN
 10
 171.6600
 20
 389.6600
 11
 186.1600
 21
 418.6900
  0
LINE
  8
200
  6
AUSGEZOGEN
 10
 171.6600
 20
 412.1200
 11
 157.1700
 21
 383.0800
  0
LINE
  8
200
  6
AUSGEZOGEN
 10
 136.1100
 20
 389.6600
 11
 150.6100
 21
 418.6900
  0
LINE
  8
200
  6
AUSGEZOGEN
 10
 136.1100
 20
 412.1200
 11
 121.6200
 21
 383.0800
  0
LINE
  8
200
  6
AUSGEZOGEN
 10
 118.3300
 20
 389.6600
 11
 132.8300
 21
 418.6900
  0
LINE
  8
200
  6
AUSGEZOGEN
 10
 118.3300
 20
 412.1200
 11
 103.8400
 21
 383.0800
  0
LINE
  8
200
  6
AUSGEZOGEN
 10
 100.5500
 20
 389.6600
 11
 115.0500
 21
 418.6900
  0
LINE
  8
200
  6
AUSGEZOGEN
 10
 100.5500
 20
 412.1200
 11
  86.0600
 21
 383.0800
  0
LINE
  8
200
  6
AUSGEZOGEN
 10
  65.0000
 20
 389.6600
 11
  79.5000
 21
 418.6900
  0
LINE
  8
200
  6
AUSGEZOGEN
 10
 207.2200
 20
 343.8900
 11
 221.7200
 21
 372.9200
  0
LINE
  8
200
  6
AUSGEZOGEN
 10
 207.2200
 20
 366.3500
 11
 192.7300
 21
 337.3100
  0
LINE
  8
200
  6
AUSGEZOGEN
 10
 171.6600
 20
 343.8900
 11
 186.1600
 21
 372.9200
  0
LINE
  8
200
  6
AUSGEZOGEN
 10
 171.6600
 20
 366.3500
 11
 157.1700
 21
 337.3100
  0
LINE
  8
200
  6
AUSGEZOGEN
 10
 136.1100
 20
 343.8900
 11
 150.6100
 21
 372.9200
  0
LINE
  8
200
  6
AUSGEZOGEN
 10
 136.1100
 20
 366.3500
 11
 121.6200
 21
 337.3100
  0
LINE
  8
200
  6
AUSGEZOGEN
 10
 118.3300
 20
 343.8900
 11
 132.8300
 21
 372.9200
  0
LINE
  8
200
  6
AUSGEZOGEN
 10
 118.3300
 20
 366.3500
 11
 103.8400
 21
 337.3100
  0
LINE
  8
200
  6
AUSGEZOGEN
 10
 100.5500
 20
 343.8900
 11
 115.0500
 21
 372.9200
  0
LINE
  8
200
  6
AUSGEZOGEN
 10
 100.5500
 20
 366.3500
 11
  86.0600
 21
 337.3100
  0
LINE
  8
200
  6
AUSGEZOGEN
 10
  65.0000
 20
 343.8900
 11
  79.5000
 21
 372.9200
  0
LINE
  8
200
  6
AUSGEZOGEN
 10
 207.2200
 20
 298.1200
 11
 221.7200
 21
 327.1500
  0
LINE
  8
200
  6
AUSGEZOGEN
 10
 207.2200
 20
 320.5800
 11
 192.7300
 21
 291.5400
  0
LINE
  8
200
  6
AUSGEZOGEN
 10
 171.6600
 20
 298.1200
 11
 186.1600
 21
 327.1500
  0
LINE
  8
200
  6
AUSGEZOGEN
 10
 171.6600
 20
 320.5800
 11
 157.1700
 21
 291.5400
  0
LINE
  8
200
  6
AUSGEZOGEN
 10
 136.1100
 20
 298.1200
 11
 150.6100
 21
 327.1500
  0
LINE
  8
200
  6
AUSGEZOGEN
 10
 136.1100
 20
 320.5800
 11
 121.6200
 21
 291.5400
  0
LINE
  8
200
  6
AUSGEZOGEN
 10
 118.3300
 20
 298.1200
 11
 132.8300
 21
 327.1500
  0
LINE
  8
200
  6
AUSGEZOGEN
 10
 118.3300
 20
 320.5800
 11
 103.8400
 21
 291.5400
  0
LINE
  8
200
  6
AUSGEZOGEN
 10
 100.5500
 20
 298.1200
 11
 115.0500
 21
 327.1500
  0
LINE
  8
200
  6
AUSGEZOGEN
 10
 100.5500
 20
 320.5800
 11
  86.0600
 21
 291.5400
  0
LINE
  8
200
  6
AUSGEZOGEN
 10
  65.0000
 20
 298.1200
 11
  79.5000
 21
 327.1500
  0
LINE
  8
200
  6
AUSGEZOGEN
 10
 192.7300
 20
 245.7700
 11
 207.2200
 21
 274.8100
  0
LINE
  8
200
  6
AUSGEZOGEN
 10
 203.9400
 20
 281.3800
 11
 189.4500
 21
 252.3400
  0
LINE
  8
200
  6
AUSGEZOGEN
 10
 157.1700
 20
 245.7700
 11
 171.6600
 21
 274.8100
  0
LINE
  8
200
  6
AUSGEZOGEN
 10
 168.3800
 20
 281.3800
 11
 153.8900
 21
 252.3400
  0
LINE
  8
200
  6
AUSGEZOGEN
 10
 121.6200
 20
 245.7700
 11
 136.1100
 21
 274.8100
  0
LINE
  8
200
  6
AUSGEZOGEN
 10
 118.3300
 20
 274.8100
 11
 103.8400
 21
 245.7700
  0
LINE
  8
200
  6
AUSGEZOGEN
 10
  86.0600
 20
 245.7700
 11
 100.5500
 21
 274.8100
  0
LINE
  8
200
  6
AUSGEZOGEN
 10
  97.2700
 20
 281.3800
 11
  82.7800
 21
 252.3400
  0
LINE
  8
200
  6
AUSGEZOGEN
 10
 192.7300
 20
 200.0000
 11
 207.2200
 21
 229.0400
  0
LINE
  8
200
  6
AUSGEZOGEN
 10
 203.9400
 20
 235.6100
 11
 189.4500
 21
 206.5700
  0
LINE
  8
200
  6
AUSGEZOGEN
 10
 157.1700
 20
 200.0000
 11
 171.6600
 21
 229.0400
  0
LINE
  8
200
  6
AUSGEZOGEN
 10
 168.3800
 20
 235.6100
 11
 153.8900
 21
 206.5700
  0
LINE
  8
200
  6
AUSGEZOGEN
 10
 121.6200
 20
 200.0000
 11
 136.1100
 21
 229.0400
  0
LINE
  8
200
  6
AUSGEZOGEN
 10
 118.3300
 20
 229.0400
 11
 103.8400
 21
 200.0000
  0
LINE
  8
200
  6
AUSGEZOGEN
 10
  86.0600
 20
 200.0000
 11
 100.5500
 21
 229.0400
  0
LINE
  8
200
  6
AUSGEZOGEN
 10
  97.2700
 20
 235.6100
 11
  82.7800
 21
 206.5700
  0
LINE
  8
200
  6
AUSGEZOGEN
 10
  79.5000
 20
 235.6100
 11
  82.0800
 21
 234.2200
  0
LINE
  8
200
  6
AUSGEZOGEN
 10
  82.7800
 20
 229.0400
 11
  82.0800
 21
 234.2200
  0
LINE
  8
200
  6
AUSGEZOGEN
 10
  65.6900
 20
 201.3900
 11
  68.2800
 21
 200.0000
  0
LINE
  8
200
  6
AUSGEZOGEN
 10
  65.0000
 20
 206.5700
 11
  65.6900
 21
 201.3900
  0
LINE
  8
200
  6
AUSGEZOGEN
 10
  99.8600
 20
 234.2200
 11
  97.2700
 21
 235.6100
  0
LINE
  8
200
  6
AUSGEZOGEN
 10
 100.5500
 20
 229.0400
 11
  99.8600
 21
 234.2200
  0
LINE
  8
200
  6
AUSGEZOGEN
 10
  83.4700
 20
 201.3900
 11
  86.0600
 21
 200.0000
  0
LINE
  8
200
  6
AUSGEZOGEN
 10
  82.7800
 20
 206.5700
 11
  83.4700
 21
 201.3900
  0
LINE
  8
200
  6
AUSGEZOGEN
 10
 117.6400
 20
 234.2200
 11
 115.0500
 21
 235.6100
  0
LINE
  8
200
  6
AUSGEZOGEN
 10
 118.3300
 20
 229.0400
 11
 117.6400
 21
 234.2200
  0
LINE
  8
200
  6
AUSGEZOGEN
 10
 101.2500
 20
 201.3900
 11
 103.8400
 21
 200.0000
  0
LINE
  8
200
  6
AUSGEZOGEN
 10
 100.5500
 20
 206.5700
 11
 101.2500
 21
 201.3900
  0
LINE
  8
200
  6
AUSGEZOGEN
 10
 135.4100
 20
 234.2200
 11
 132.8300
 21
 235.6100
  0
LINE
  8
200
  6
AUSGEZOGEN
 10
 136.1100
 20
 229.0400
 11
 135.4100
 21
 234.2200
  0
LINE
  8
200
  6
AUSGEZOGEN
 10
 119.0300
 20
 201.3900
 11
 121.6200
 21
 200.0000
  0
LINE
  8
200
  6
AUSGEZOGEN
 10
 118.3300
 20
 206.5700
 11
 119.0300
 21
 201.3900
  0
LINE
  8
200
  6
AUSGEZOGEN
 10
 153.1900
 20
 234.2200
 11
 150.6100
 21
 235.6100
  0
LINE
  8
200
  6
AUSGEZOGEN
 10
 153.8900
 20
 229.0400
 11
 153.1900
 21
 234.2200
  0
LINE
  8
200
  6
AUSGEZOGEN
 10
 136.8100
 20
 201.3900
 11
 139.3900
 21
 200.0000
  0
LINE
  8
200
  6
AUSGEZOGEN
 10
 136.1100
 20
 206.5700
 11
 136.8100
 21
 201.3900
  0
LINE
  8
200
  6
AUSGEZOGEN
 10
 170.9700
 20
 234.2200
 11
 168.3800
 21
 235.6100
  0
LINE
  8
200
  6
AUSGEZOGEN
 10
 171.6600
 20
 229.0400
 11
 170.9700
 21
 234.2200
  0
LINE
  8
200
  6
AUSGEZOGEN
 10
 154.5900
 20
 201.3900
 11
 157.1700
 21
 200.0000
  0
LINE
  8
200
  6
AUSGEZOGEN
 10
 153.8900
 20
 206.5700
 11
 154.5900
 21
 201.3900
  0
LINE
  8
200
  6
AUSGEZOGEN
 10
 188.7500
 20
 234.2200
 11
 186.1600
 21
 235.6100
  0
LINE
  8
200
  6
AUSGEZOGEN
 10
 189.4500
 20
 229.0400
 11
 188.7500
 21
 234.2200
  0
LINE
  8
200
  6
AUSGEZOGEN
 10
 172.3600
 20
 201.3900
 11
 174.9500
 21
 200.0000
  0
LINE
  8
200
  6
AUSGEZOGEN
 10
 171.6600
 20
 206.5700
 11
 172.3600
 21
 201.3900
  0
LINE
  8
200
  6
AUSGEZOGEN
 10
 206.5200
 20
 234.2200
 11
 203.9400
 21
 235.6100
  0
LINE
  8
200
  6
AUSGEZOGEN
 10
 207.2200
 20
 229.0400
 11
 206.5200
 21
 234.2200
  0
LINE
  8
200
  6
AUSGEZOGEN
 10
 190.1400
 20
 201.3900
 11
 192.7300
 21
 200.0000
  0
LINE
  8
200
  6
AUSGEZOGEN
 10
 189.4500
 20
 206.5700
 11
 190.1400
 21
 201.3900
  0
LINE
  8
200
  6
AUSGEZOGEN
 10
 224.3100
 20
 234.2200
 11
 221.7200
 21
 235.6100
  0
LINE
  8
200
  6
AUSGEZOGEN
 10
 207.9200
 20
 201.3900
 11
 210.5000
 21
 200.0000
  0
LINE
  8
200
  6
AUSGEZOGEN
 10
 207.2200
 20
 206.5700
 11
 207.9200
 21
 201.3900
  0
LINE
  8
200
  6
AUSGEZOGEN
 10
  79.5000
 20
 281.3800
 11
  82.0800
 21
 279.9900
  0
LINE
  8
200
  6
AUSGEZOGEN
 10
  82.7800
 20
 274.8100
 11
  82.0800
 21
 279.9900
  0
LINE
  8
200
  6
AUSGEZOGEN
 10
  65.6900
 20
 247.1600
 11
  68.2800
 21
 245.7700
  0
LINE
  8
200
  6
AUSGEZOGEN
 10
  65.0000
 20
 252.3400
 11
  65.6900
 21
 247.1600
  0
LINE
  8
200
  6
AUSGEZOGEN
 10
  99.8600
 20
 279.9900
 11
  97.2700
 21
 281.3800
  0
LINE
  8
200
  6
AUSGEZOGEN
 10
 100.5500
 20
 274.8100
 11
  99.8600
 21
 279.9900
  0
LINE
  8
200
  6
AUSGEZOGEN
 10
  83.4700
 20
 247.1600
 11
  86.0600
 21
 245.7700
  0
LINE
  8
200
  6
AUSGEZOGEN
 10
  82.7800
 20
 252.3400
 11
  83.4700
 21
 247.1600
  0
LINE
  8
200
  6
AUSGEZOGEN
 10
 117.6400
 20
 279.9900
 11
 115.0500
 21
 281.3800
  0
LINE
  8
200
  6
AUSGEZOGEN
 10
 118.3300
 20
 274.8100
 11
 117.6400
 21
 279.9900
  0
LINE
  8
200
  6
AUSGEZOGEN
 10
 101.2500
 20
 247.1600
 11
 103.8400
 21
 245.7700
  0
LINE
  8
200
  6
AUSGEZOGEN
 10
 100.5500
 20
 252.3400
 11
 101.2500
 21
 247.1600
  0
LINE
  8
200
  6
AUSGEZOGEN
 10
 135.4100
 20
 279.9900
 11
 132.8300
 21
 281.3800
  0
LINE
  8
200
  6
AUSGEZOGEN
 10
 136.1100
 20
 274.8100
 11
 135.4100
 21
 279.9900
  0
LINE
  8
200
  6
AUSGEZOGEN
 10
 119.0300
 20
 247.1600
 11
 121.6200
 21
 245.7700
  0
LINE
  8
200
  6
AUSGEZOGEN
 10
 118.3300
 20
 252.3400
 11
 119.0300
 21
 247.1600
  0
LINE
  8
200
  6
AUSGEZOGEN
 10
 153.1900
 20
 279.9900
 11
 150.6100
 21
 281.3800
  0
LINE
  8
200
  6
AUSGEZOGEN
 10
 153.8900
 20
 274.8100
 11
 153.1900
 21
 279.9900
  0
LINE
  8
200
  6
AUSGEZOGEN
 10
 136.8100
 20
 247.1600
 11
 139.3900
 21
 245.7700
  0
LINE
  8
200
  6
AUSGEZOGEN
 10
 136.1100
 20
 252.3400
 11
 136.8100
 21
 247.1600
  0
LINE
  8
200
  6
AUSGEZOGEN
 10
 170.9700
 20
 279.9900
 11
 168.3800
 21
 281.3800
  0
LINE
  8
200
  6
AUSGEZOGEN
 10
 171.6600
 20
 274.8100
 11
 170.9700
 21
 279.9900
  0
LINE
  8
200
  6
AUSGEZOGEN
 10
 154.5900
 20
 247.1600
 11
 157.1700
 21
 245.7700
  0
LINE
  8
200
  6
AUSGEZOGEN
 10
 153.8900
 20
 252.3400
 11
 154.5900
 21
 247.1600
  0
LINE
  8
200
  6
AUSGEZOGEN
 10
 188.7500
 20
 279.9900
 11
 186.1600
 21
 281.3800
  0
LINE
  8
200
  6
AUSGEZOGEN
 10
 189.4500
 20
 274.8100
 11
 188.7500
 21
 279.9900
  0
LINE
  8
200
  6
AUSGEZOGEN
 10
 172.3600
 20
 247.1600
 11
 174.9500
 21
 245.7700
  0
LINE
  8
200
  6
AUSGEZOGEN
 10
 171.6600
 20
 252.3400
 11
 172.3600
 21
 247.1600
  0
LINE
  8
200
  6
AUSGEZOGEN
 10
 206.5200
 20
 279.9900
 11
 203.9400
 21
 281.3800
  0
LINE
  8
200
  6
AUSGEZOGEN
 10
 207.2200
 20
 274.8100
 11
 206.5200
 21
 279.9900
  0
LINE
  8
200
  6
AUSGEZOGEN
 10
 190.1400
 20
 247.1600
 11
 192.7300
 21
 245.7700
  0
LINE
  8
200
  6
AUSGEZOGEN
 10
 189.4500
 20
 252.3400
 11
 190.1400
 21
 247.1600
  0
LINE
  8
200
  6
AUSGEZOGEN
 10
 224.3100
 20
 279.9900
 11
 221.7200
 21
 281.3800
  0
LINE
  8
200
  6
AUSGEZOGEN
 10
 207.9200
 20
 247.1600
 11
 210.5000
 21
 245.7700
  0
LINE
  8
200
  6
AUSGEZOGEN
 10
 207.2200
 20
 252.3400
 11
 207.9200
 21
 247.1600
  0
LINE
  8
200
  6
AUSGEZOGEN
 10
  79.5000
 20
 327.1500
 11
  82.0800
 21
 325.7600
  0
LINE
  8
200
  6
AUSGEZOGEN
 10
  82.7800
 20
 320.5800
 11
  82.0800
 21
 325.7600
  0
LINE
  8
200
  6
AUSGEZOGEN
 10
  65.6900
 20
 292.9300
 11
  68.2800
 21
 291.5400
  0
LINE
  8
200
  6
AUSGEZOGEN
 10
  65.0000
 20
 298.1200
 11
  65.6900
 21
 292.9300
  0
LINE
  8
200
  6
AUSGEZOGEN
 10
  97.2700
 20
 327.1500
 11
  82.7800
 21
 298.1200
  0
LINE
  8
200
  6
AUSGEZOGEN
 10
  99.8600
 20
 325.7600
 11
  97.2700
 21
 327.1500
  0
LINE
  8
200
  6
AUSGEZOGEN
 10
 100.5500
 20
 320.5800
 11
  99.8600
 21
 325.7600
  0
LINE
  8
200
  6
AUSGEZOGEN
 10
  83.4700
 20
 292.9300
 11
  86.0600
 21
 291.5400
  0
LINE
  8
200
  6
AUSGEZOGEN
 10
  82.7800
 20
 298.1200
 11
  83.4700
 21
 292.9300
  0
LINE
  8
200
  6
AUSGEZOGEN
 10
 117.6400
 20
 325.7600
 11
 115.0500
 21
 327.1500
  0
LINE
  8
200
  6
AUSGEZOGEN
 10
 118.3300
 20
 320.5800
 11
 117.6400
 21
 325.7600
  0
LINE
  8
200
  6
AUSGEZOGEN
 10
 101.2500
 20
 292.9300
 11
 103.8400
 21
 291.5400
  0
LINE
  8
200
  6
AUSGEZOGEN
 10
 100.5500
 20
 298.1200
 11
 101.2500
 21
 292.9300
  0
LINE
  8
200
  6
AUSGEZOGEN
 10
 135.4100
 20
 325.7600
 11
 132.8300
 21
 327.1500
  0
LINE
  8
200
  6
AUSGEZOGEN
 10
 136.1100
 20
 320.5800
 11
 135.4100
 21
 325.7600
  0
LINE
  8
200
  6
AUSGEZOGEN
 10
 119.0300
 20
 292.9300
 11
 121.6200
 21
 291.5400
  0
LINE
  8
200
  6
AUSGEZOGEN
 10
 118.3300
 20
 298.1200
 11
 119.0300
 21
 292.9300
  0
LINE
  8
200
  6
AUSGEZOGEN
 10
 153.1900
 20
 325.7600
 11
 150.6100
 21
 327.1500
  0
LINE
  8
200
  6
AUSGEZOGEN
 10
 153.8900
 20
 320.5800
 11
 153.1900
 21
 325.7600
  0
LINE
  8
200
  6
AUSGEZOGEN
 10
 136.8100
 20
 292.9300
 11
 139.3900
 21
 291.5400
  0
LINE
  8
200
  6
AUSGEZOGEN
 10
 136.1100
 20
 298.1200
 11
 136.8100
 21
 292.9300
  0
LINE
  8
200
  6
AUSGEZOGEN
 10
 168.3800
 20
 327.1500
 11
 153.8900
 21
 298.1200
  0
LINE
  8
200
  6
AUSGEZOGEN
 10
 170.9700
 20
 325.7600
 11
 168.3800
 21
 327.1500
  0
LINE
  8
200
  6
AUSGEZOGEN
 10
 171.6600
 20
 320.5800
 11
 170.9700
 21
 325.7600
  0
LINE
  8
200
  6
AUSGEZOGEN
 10
 154.5900
 20
 292.9300
 11
 157.1700
 21
 291.5400
  0
LINE
  8
200
  6
AUSGEZOGEN
 10
 153.8900
 20
 298.1200
 11
 154.5900
 21
 292.9300
  0
LINE
  8
200
  6
AUSGEZOGEN
 10
 188.7500
 20
 325.7600
 11
 186.1600
 21
 327.1500
  0
LINE
  8
200
  6
AUSGEZOGEN
 10
 189.4500
 20
 320.5800
 11
 188.7500
 21
 325.7600
  0
LINE
  8
200
  6
AUSGEZOGEN
 10
 172.3600
 20
 292.9300
 11
 174.9500
 21
 291.5400
  0
LINE
  8
200
  6
AUSGEZOGEN
 10
 171.6600
 20
 298.1200
 11
 172.3600
 21
 292.9300
  0
LINE
  8
200
  6
AUSGEZOGEN
 10
 203.9400
 20
 327.1500
 11
 189.4500
 21
 298.1200
  0
LINE
  8
200
  6
AUSGEZOGEN
 10
 206.5200
 20
 325.7600
 11
 203.9400
 21
 327.1500
  0
LINE
  8
200
  6
AUSGEZOGEN
 10
 207.2200
 20
 320.5800
 11
 206.5200
 21
 325.7600
  0
LINE
  8
200
  6
AUSGEZOGEN
 10
 190.1400
 20
 292.9300
 11
 192.7300
 21
 291.5400
  0
LINE
  8
200
  6
AUSGEZOGEN
 10
 189.4500
 20
 298.1200
 11
 190.1400
 21
 292.9300
  0
LINE
  8
200
  6
AUSGEZOGEN
 10
 224.3100
 20
 325.7600
 11
 221.7200
 21
 327.1500
  0
LINE
  8
200
  6
AUSGEZOGEN
 10
 207.9200
 20
 292.9300
 11
 210.5000
 21
 291.5400
  0
LINE
  8
200
  6
AUSGEZOGEN
 10
 207.2200
 20
 298.1200
 11
 207.9200
 21
 292.9300
  0
LINE
  8
200
  6
AUSGEZOGEN
 10
  79.5000
 20
 372.9200
 11
  82.0800
 21
 371.5300
  0
LINE
  8
200
  6
AUSGEZOGEN
 10
  82.7800
 20
 366.3500
 11
  82.0800
 21
 371.5300
  0
LINE
  8
200
  6
AUSGEZOGEN
 10
  65.6900
 20
 338.7000
 11
  68.2800
 21
 337.3100
  0
LINE
  8
200
  6
AUSGEZOGEN
 10
  65.0000
 20
 343.8900
 11
  65.6900
 21
 338.7000
  0
LINE
  8
200
  6
AUSGEZOGEN
 10
  97.2700
 20
 372.9200
 11
  82.7800
 21
 343.8900
  0
LINE
  8
200
  6
AUSGEZOGEN
 10
  99.8600
 20
 371.5300
 11
  97.2700
 21
 372.9200
  0
LINE
  8
200
  6
AUSGEZOGEN
 10
 100.5500
 20
 366.3500
 11
  99.8600
 21
 371.5300
  0
LINE
  8
200
  6
AUSGEZOGEN
 10
  83.4700
 20
 338.7000
 11
  86.0600
 21
 337.3100
  0
LINE
  8
200
  6
AUSGEZOGEN
 10
  82.7800
 20
 343.8900
 11
  83.4700
 21
 338.7000
  0
LINE
  8
200
  6
AUSGEZOGEN
 10
 117.6400
 20
 371.5300
 11
 115.0500
 21
 372.9200
  0
LINE
  8
200
  6
AUSGEZOGEN
 10
 118.3300
 20
 366.3500
 11
 117.6400
 21
 371.5300
  0
LINE
  8
200
  6
AUSGEZOGEN
 10
 101.2500
 20
 338.7000
 11
 103.8400
 21
 337.3100
  0
LINE
  8
200
  6
AUSGEZOGEN
 10
 100.5500
 20
 343.8900
 11
 101.2500
 21
 338.7000
  0
LINE
  8
200
  6
AUSGEZOGEN
 10
 135.4100
 20
 371.5300
 11
 132.8300
 21
 372.9200
  0
LINE
  8
200
  6
AUSGEZOGEN
 10
 136.1100
 20
 366.3500
 11
 135.4100
 21
 371.5300
  0
LINE
  8
200
  6
AUSGEZOGEN
 10
 119.0300
 20
 338.7000
 11
 121.6200
 21
 337.3100
  0
LINE
  8
200
  6
AUSGEZOGEN
 10
 118.3300
 20
 343.8900
 11
 119.0300
 21
 338.7000
  0
LINE
  8
200
  6
AUSGEZOGEN
 10
 153.1900
 20
 371.5300
 11
 150.6100
 21
 372.9200
  0
LINE
  8
200
  6
AUSGEZOGEN
 10
 153.8900
 20
 366.3500
 11
 153.1900
 21
 371.5300
  0
LINE
  8
200
  6
AUSGEZOGEN
 10
 136.8100
 20
 338.7000
 11
 139.3900
 21
 337.3100
  0
LINE
  8
200
  6
AUSGEZOGEN
 10
 136.1100
 20
 343.8900
 11
 136.8100
 21
 338.7000
  0
LINE
  8
200
  6
AUSGEZOGEN
 10
 168.3800
 20
 372.9200
 11
 153.8900
 21
 343.8900
  0
LINE
  8
200
  6
AUSGEZOGEN
 10
 170.9700
 20
 371.5300
 11
 168.3800
 21
 372.9200
  0
LINE
  8
200
  6
AUSGEZOGEN
 10
 171.6600
 20
 366.3500
 11
 170.9700
 21
 371.5300
  0
LINE
  8
200
  6
AUSGEZOGEN
 10
 154.5900
 20
 338.7000
 11
 157.1700
 21
 337.3100
  0
LINE
  8
200
  6
AUSGEZOGEN
 10
 153.8900
 20
 343.8900
 11
 154.5900
 21
 338.7000
  0
LINE
  8
200
  6
AUSGEZOGEN
 10
 188.7500
 20
 371.5300
 11
 186.1600
 21
 372.9200
  0
LINE
  8
200
  6
AUSGEZOGEN
 10
 189.4500
 20
 366.3500
 11
 188.7500
 21
 371.5300
  0
LINE
  8
200
  6
AUSGEZOGEN
 10
 172.3600
 20
 338.7000
 11
 174.9500
 21
 337.3100
  0
LINE
  8
200
  6
AUSGEZOGEN
 10
 171.6600
 20
 343.8900
 11
 172.3600
 21
 338.7000
  0
LINE
  8
200
  6
AUSGEZOGEN
 10
 203.9400
 20
 372.9200
 11
 189.4500
 21
 343.8900
  0
LINE
  8
200
  6
AUSGEZOGEN
 10
 206.5200
 20
 371.5300
 11
 203.9400
 21
 372.9200
  0
LINE
  8
200
  6
AUSGEZOGEN
 10
 207.2200
 20
 366.3500
 11
 206.5200
 21
 371.5300
  0
LINE
  8
200
  6
AUSGEZOGEN
 10
 190.1400
 20
 338.7000
 11
 192.7300
 21
 337.3100
  0
LINE
  8
200
  6
AUSGEZOGEN
 10
 189.4500
 20
 343.8900
 11
 190.1400
 21
 338.7000
  0
LINE
  8
200
  6
AUSGEZOGEN
 10
 224.3100
 20
 371.5300
 11
 221.7200
 21
 372.9200
  0
LINE
  8
200
  6
AUSGEZOGEN
 10
 207.9200
 20
 338.7000
 11
 210.5000
 21
 337.3100
  0
LINE
  8
200
  6
AUSGEZOGEN
 10
 207.2200
 20
 343.8900
 11
 207.9200
 21
 338.7000
  0
LINE
  8
200
  6
AUSGEZOGEN
 10
  79.5000
 20
 418.6900
 11
  82.0800
 21
 417.3000
  0
LINE
  8
200
  6
AUSGEZOGEN
 10
  82.7800
 20
 412.1200
 11
  82.0800
 21
 417.3000
  0
LINE
  8
200
  6
AUSGEZOGEN
 10
  65.6900
 20
 384.4800
 11
  68.2800
 21
 383.0800
  0
LINE
  8
200
  6
AUSGEZOGEN
 10
  65.0000
 20
 389.6600
 11
  65.6900
 21
 384.4800
  0
LINE
  8
200
  6
AUSGEZOGEN
 10
  97.2700
 20
 418.6900
 11
  82.7800
 21
 389.6600
  0
LINE
  8
200
  6
AUSGEZOGEN
 10
  99.8600
 20
 417.3000
 11
  97.2700
 21
 418.6900
  0
LINE
  8
200
  6
AUSGEZOGEN
 10
 100.5500
 20
 412.1200
 11
  99.8600
 21
 417.3000
  0
LINE
  8
200
  6
AUSGEZOGEN
 10
  83.4700
 20
 384.4800
 11
  86.0600
 21
 383.0800
  0
LINE
  8
200
  6
AUSGEZOGEN
 10
  82.7800
 20
 389.6600
 11
  83.4700
 21
 384.4800
  0
LINE
  8
200
  6
AUSGEZOGEN
 10
 117.6400
 20
 417.3000
 11
 115.0500
 21
 418.6900
  0
LINE
  8
200
  6
AUSGEZOGEN
 10
 118.3300
 20
 412.1200
 11
 117.6400
 21
 417.3000
  0
LINE
  8
200
  6
AUSGEZOGEN
 10
 101.2500
 20
 384.4800
 11
 103.8400
 21
 383.0800
  0
LINE
  8
200
  6
AUSGEZOGEN
 10
 100.5500
 20
 389.6600
 11
 101.2500
 21
 384.4800
  0
LINE
  8
200
  6
AUSGEZOGEN
 10
 135.4100
 20
 417.3000
 11
 132.8300
 21
 418.6900
  0
LINE
  8
200
  6
AUSGEZOGEN
 10
 136.1100
 20
 412.1200
 11
 135.4100
 21
 417.3000
  0
LINE
  8
200
  6
AUSGEZOGEN
 10
 119.0300
 20
 384.4800
 11
 121.6200
 21
 383.0800
  0
LINE
  8
200
  6
AUSGEZOGEN
 10
 118.3300
 20
 389.6600
 11
 119.0300
 21
 384.4800
  0
LINE
  8
200
  6
AUSGEZOGEN
 10
 153.1900
 20
 417.3000
 11
 150.6100
 21
 418.6900
  0
LINE
  8
200
  6
AUSGEZOGEN
 10
 153.8900
 20
 412.1200
 11
 153.1900
 21
 417.3000
  0
LINE
  8
200
  6
AUSGEZOGEN
 10
 136.8100
 20
 384.4800
 11
 139.3900
 21
 383.0800
  0
LINE
  8
200
  6
AUSGEZOGEN
 10
 136.1100
 20
 389.6600
 11
 136.8100
 21
 384.4800
  0
LINE
  8
200
  6
AUSGEZOGEN
 10
 168.3800
 20
 418.6900
 11
 153.8900
 21
 389.6600
  0
LINE
  8
200
  6
AUSGEZOGEN
 10
 170.9700
 20
 417.3000
 11
 168.3800
 21
 418.6900
  0
LINE
  8
200
  6
AUSGEZOGEN
 10
 171.6600
 20
 412.1200
 11
 170.9700
 21
 417.3000
  0
LINE
  8
200
  6
AUSGEZOGEN
 10
 154.5900
 20
 384.4800
 11
 157.1700
 21
 383.0800
  0
LINE
  8
200
  6
AUSGEZOGEN
 10
 153.8900
 20
 389.6600
 11
 154.5900
 21
 384.4800
  0
LINE
  8
200
  6
AUSGEZOGEN
 10
 188.7500
 20
 417.3000
 11
 186.1600
 21
 418.6900
  0
LINE
  8
200
  6
AUSGEZOGEN
 10
 189.4500
 20
 412.1200
 11
 188.7500
 21
 417.3000
  0
LINE
  8
200
  6
AUSGEZOGEN
 10
 172.3600
 20
 384.4800
 11
 174.9500
 21
 383.0800
  0
LINE
  8
200
  6
AUSGEZOGEN
 10
 171.6600
 20
 389.6600
 11
 172.3600
 21
 384.4800
  0
LINE
  8
200
  6
AUSGEZOGEN
 10
 203.9400
 20
 418.6900
 11
 189.4500
 21
 389.6600
  0
LINE
  8
200
  6
AUSGEZOGEN
 10
 206.5200
 20
 417.3000
 11
 203.9400
 21
 418.6900
  0
LINE
  8
200
  6
AUSGEZOGEN
 10
 207.2200
 20
 412.1200
 11
 206.5200
 21
 417.3000
  0
LINE
  8
200
  6
AUSGEZOGEN
 10
 190.1400
 20
 384.4800
 11
 192.7300
 21
 383.0800
  0
LINE
  8
200
  6
AUSGEZOGEN
 10
 189.4500
 20
 389.6600
 11
 190.1400
 21
 384.4800
  0
LINE
  8
200
  6
AUSGEZOGEN
 10
 224.3100
 20
 417.3000
 11
 221.7200
 21
 418.6900
  0
LINE
  8
200
  6
AUSGEZOGEN
 10
 207.9200
 20
 384.4800
 11
 210.5000
 21
 383.0800
  0
LINE
  8
200
  6
AUSGEZOGEN
 10
 207.2200
 20
 389.6600
 11
 207.9200
 21
 384.4800
  0
LINE
  8
200
  6
AUSGEZOGEN
 10
  79.5000
 20
 464.4600
 11
  82.0800
 21
 463.0700
  0
LINE
  8
200
  6
AUSGEZOGEN
 10
  82.7800
 20
 457.8900
 11
  82.0800
 21
 463.0700
  0
LINE
  8
200
  6
AUSGEZOGEN
 10
  65.6900
 20
 430.2500
 11
  68.2800
 21
 428.8500
  0
LINE
  8
200
  6
AUSGEZOGEN
 10
  65.0000
 20
 435.4300
 11
  65.6900
 21
 430.2500
  0
LINE
  8
200
  6
AUSGEZOGEN
 10
  97.2700
 20
 464.4600
 11
  82.7800
 21
 435.4300
  0
LINE
  8
200
  6
AUSGEZOGEN
 10
  99.8600
 20
 463.0700
 11
  97.2700
 21
 464.4600
  0
LINE
  8
200
  6
AUSGEZOGEN
 10
 100.5500
 20
 457.8900
 11
  99.8600
 21
 463.0700
  0
LINE
  8
200
  6
AUSGEZOGEN
 10
  83.4700
 20
 430.2500
 11
  86.0600
 21
 428.8500
  0
LINE
  8
200
  6
AUSGEZOGEN
 10
  82.7800
 20
 435.4300
 11
  83.4700
 21
 430.2500
  0
LINE
  8
200
  6
AUSGEZOGEN
 10
 117.6400
 20
 463.0700
 11
 115.0500
 21
 464.4600
  0
LINE
  8
200
  6
AUSGEZOGEN
 10
 118.3300
 20
 457.8900
 11
 117.6400
 21
 463.0700
  0
LINE
  8
200
  6
AUSGEZOGEN
 10
 101.2500
 20
 430.2500
 11
 103.8400
 21
 428.8500
  0
LINE
  8
200
  6
AUSGEZOGEN
 10
 100.5500
 20
 435.4300
 11
 101.2500
 21
 430.2500
  0
LINE
  8
200
  6
AUSGEZOGEN
 10
 135.4100
 20
 463.0700
 11
 132.8300
 21
 464.4600
  0
LINE
  8
200
  6
AUSGEZOGEN
 10
 136.1100
 20
 457.8900
 11
 135.4100
 21
 463.0700
  0
LINE
  8
200
  6
AUSGEZOGEN
 10
 119.0300
 20
 430.2500
 11
 121.6200
 21
 428.8500
  0
LINE
  8
200
  6
AUSGEZOGEN
 10
 118.3300
 20
 435.4300
 11
 119.0300
 21
 430.2500
  0
LINE
  8
200
  6
AUSGEZOGEN
 10
 153.1900
 20
 463.0700
 11
 150.6100
 21
 464.4600
  0
LINE
  8
200
  6
AUSGEZOGEN
 10
 153.8900
 20
 457.8900
 11
 153.1900
 21
 463.0700
  0
LINE
  8
200
  6
AUSGEZOGEN
 10
 136.8100
 20
 430.2500
 11
 139.3900
 21
 428.8500
  0
LINE
  8
200
  6
AUSGEZOGEN
 10
 136.1100
 20
 435.4300
 11
 136.8100
 21
 430.2500
  0
LINE
  8
200
  6
AUSGEZOGEN
 10
 168.3800
 20
 464.4600
 11
 153.8900
 21
 435.4300
  0
LINE
  8
200
  6
AUSGEZOGEN
 10
 170.9700
 20
 463.0700
 11
 168.3800
 21
 464.4600
  0
LINE
  8
200
  6
AUSGEZOGEN
 10
 171.6600
 20
 457.8900
 11
 170.9700
 21
 463.0700
  0
LINE
  8
200
  6
AUSGEZOGEN
 10
 154.5900
 20
 430.2500
 11
 157.1700
 21
 428.8500
  0
LINE
  8
200
  6
AUSGEZOGEN
 10
 153.8900
 20
 435.4300
 11
 154.5900
 21
 430.2500
  0
LINE
  8
200
  6
AUSGEZOGEN
 10
 188.7500
 20
 463.0700
 11
 186.1600
 21
 464.4600
  0
LINE
  8
200
  6
AUSGEZOGEN
 10
 189.4500
 20
 457.8900
 11
 188.7500
 21
 463.0700
  0
LINE
  8
200
  6
AUSGEZOGEN
 10
 172.3600
 20
 430.2500
 11
 174.9500
 21
 428.8500
  0
LINE
  8
200
  6
AUSGEZOGEN
 10
 171.6600
 20
 435.4300
 11
 172.3600
 21
 430.2500
  0
LINE
  8
200
  6
AUSGEZOGEN
 10
 203.9400
 20
 464.4600
 11
 189.4500
 21
 435.4300
  0
LINE
  8
200
  6
AUSGEZOGEN
 10
 206.5200
 20
 463.0700
 11
 203.9400
 21
 464.4600
  0
LINE
  8
200
  6
AUSGEZOGEN
 10
 207.2200
 20
 457.8900
 11
 206.5200
 21
 463.0700
  0
LINE
  8
200
  6
AUSGEZOGEN
 10
 190.1400
 20
 430.2500
 11
 192.7300
 21
 428.8500
  0
LINE
  8
200
  6
AUSGEZOGEN
 10
 189.4500
 20
 435.4300
 11
 190.1400
 21
 430.2500
  0
LINE
  8
200
  6
AUSGEZOGEN
 10
 224.3100
 20
 463.0700
 11
 221.7200
 21
 464.4600
  0
LINE
  8
200
  6
AUSGEZOGEN
 10
 207.9200
 20
 430.2500
 11
 210.5000
 21
 428.8500
  0
LINE
  8
200
  6
AUSGEZOGEN
 10
 207.2200
 20
 435.4300
 11
 207.9200
 21
 430.2500
  0
LINE
  8
200
  6
AUSGEZOGEN
 10
  79.5000
 20
 510.0000
 11
  82.0800
 21
 508.8400
  0
LINE
  8
200
  6
AUSGEZOGEN
 10
  82.7800
 20
 503.6600
 11
  82.0800
 21
 508.8400
  0
LINE
  8
200
  6
AUSGEZOGEN
 10
  65.6900
 20
 476.0200
 11
  68.2800
 21
 474.6200
  0
LINE
  8
200
  6
AUSGEZOGEN
 10
  65.0000
 20
 481.2000
 11
  65.6900
 21
 476.0200
  0
LINE
  8
200
  6
AUSGEZOGEN
 10
  99.8600
 20
 508.8400
 11
  97.2700
 21
 510.0000
  0
LINE
  8
200
  6
AUSGEZOGEN
 10
 100.5500
 20
 503.6600
 11
  99.8600
 21
 508.8400
  0
LINE
  8
200
  6
AUSGEZOGEN
 10
  83.4700
 20
 476.0200
 11
  86.0600
 21
 474.6200
  0
LINE
  8
200
  6
AUSGEZOGEN
 10
  82.7800
 20
 481.2000
 11
  83.4700
 21
 476.0200
  0
LINE
  8
200
  6
AUSGEZOGEN
 10
 117.6400
 20
 508.8400
 11
 115.0500
 21
 510.0000
  0
LINE
  8
200
  6
AUSGEZOGEN
 10
 118.3300
 20
 503.6600
 11
 117.6400
 21
 508.8400
  0
LINE
  8
200
  6
AUSGEZOGEN
 10
 101.2500
 20
 476.0200
 11
 103.8400
 21
 474.6200
  0
LINE
  8
200
  6
AUSGEZOGEN
 10
 100.5500
 20
 481.2000
 11
 101.2500
 21
 476.0200
  0
LINE
  8
200
  6
AUSGEZOGEN
 10
 135.4100
 20
 508.8400
 11
 132.8300
 21
 510.0000
  0
LINE
  8
200
  6
AUSGEZOGEN
 10
 136.1100
 20
 503.6600
 11
 135.4100
 21
 508.8400
  0
LINE
  8
200
  6
AUSGEZOGEN
 10
 119.0300
 20
 476.0200
 11
 121.6200
 21
 474.6200
  0
LINE
  8
200
  6
AUSGEZOGEN
 10
 118.3300
 20
 481.2000
 11
 119.0300
 21
 476.0200
  0
LINE
  8
200
  6
AUSGEZOGEN
 10
 153.1900
 20
 508.8400
 11
 150.6100
 21
 510.0000
  0
LINE
  8
200
  6
AUSGEZOGEN
 10
 153.8900
 20
 503.6600
 11
 153.1900
 21
 508.8400
  0
LINE
  8
200
  6
AUSGEZOGEN
 10
 136.8100
 20
 476.0200
 11
 139.3900
 21
 474.6200
  0
LINE
  8
200
  6
AUSGEZOGEN
 10
 136.1100
 20
 481.2000
 11
 136.8100
 21
 476.0200
  0
LINE
  8
200
  6
AUSGEZOGEN
 10
 170.9700
 20
 508.8400
 11
 168.3800
 21
 510.0000
  0
LINE
  8
200
  6
AUSGEZOGEN
 10
 171.6600
 20
 503.6600
 11
 170.9700
 21
 508.8400
  0
LINE
  8
200
  6
AUSGEZOGEN
 10
 154.5900
 20
 476.0200
 11
 157.1700
 21
 474.6200
  0
LINE
  8
200
  6
AUSGEZOGEN
 10
 153.8900
 20
 481.2000
 11
 154.5900
 21
 476.0200
  0
LINE
  8
200
  6
AUSGEZOGEN
 10
 188.7500
 20
 508.8400
 11
 186.1600
 21
 510.0000
  0
LINE
  8
200
  6
AUSGEZOGEN
 10
 189.4500
 20
 503.6600
 11
 188.7500
 21
 508.8400
  0
LINE
  8
200
  6
AUSGEZOGEN
 10
 172.3600
 20
 476.0200
 11
 174.9500
 21
 474.6200
  0
LINE
  8
200
  6
AUSGEZOGEN
 10
 171.6600
 20
 481.2000
 11
 172.3600
 21
 476.0200
  0
LINE
  8
200
  6
AUSGEZOGEN
 10
 206.5200
 20
 508.8400
 11
 203.9400
 21
 510.0000
  0
LINE
  8
200
  6
AUSGEZOGEN
 10
 207.2200
 20
 503.6600
 11
 206.5200
 21
 508.8400
  0
LINE
  8
200
  6
AUSGEZOGEN
 10
 190.1400
 20
 476.0200
 11
 192.7300
 21
 474.6200
  0
LINE
  8
200
  6
AUSGEZOGEN
 10
 189.4500
 20
 481.2000
 11
 190.1400
 21
 476.0200
  0
LINE
  8
200
  6
AUSGEZOGEN
 10
 224.3100
 20
 508.8400
 11
 221.7200
 21
 510.0000
  0
LINE
  8
200
  6
AUSGEZOGEN
 10
 207.9200
 20
 476.0200
 11
 210.5000
 21
 474.6200
  0
LINE
  8
200
  6
AUSGEZOGEN
 10
 207.2200
 20
 481.2000
 11
 207.9200
 21
 476.0200
  0
LINE
  8
200
  6
AUSGEZOGEN
 10
 225.0000
 20
 457.8900
 11
 224.3100
 21
 463.0700
  0
LINE
  8
200
  6
AUSGEZOGEN
 10
 224.3100
 20
 508.8400
 11
 225.0000
 21
 503.6600
  0
LINE
  8
200
  6
AUSGEZOGEN
 10
 225.0000
 20
 229.0400
 11
 224.3100
 21
 234.2200
  0
LINE
  8
200
  6
AUSGEZOGEN
 10
 224.3100
 20
 279.9900
 11
 225.0000
 21
 274.8100
  0
LINE
  8
200
  6
AUSGEZOGEN
 10
 224.3100
 20
 325.7600
 11
 225.0000
 21
 320.5800
  0
LINE
  8
200
  6
AUSGEZOGEN
 10
 224.3100
 20
 371.5300
 11
 225.0000
 21
 366.3500
  0
LINE
  8
200
  6
AUSGEZOGEN
 10
 224.3100
 20
 417.3000
 11
 225.0000
 21
 412.1200
  0
LINE
  8
200
  6
AUSGEZOGEN
 10
 242.0800
 20
 234.2200
 11
 239.5000
 21
 235.6100
  0
LINE
  8
200
  6
AUSGEZOGEN
 10
 242.7800
 20
 229.0400
 11
 242.0800
 21
 234.2200
  0
LINE
  8
200
  6
AUSGEZOGEN
 10
 225.6900
 20
 201.3900
 11
 228.2800
 21
 200.0000
  0
LINE
  8
200
  6
AUSGEZOGEN
 10
 225.0000
 20
 206.5700
 11
 225.6900
 21
 201.3900
  0
LINE
  8
200
  6
AUSGEZOGEN
 10
 259.8600
 20
 234.2200
 11
 257.2700
 21
 235.6100
  0
LINE
  8
200
  6
AUSGEZOGEN
 10
 260.5500
 20
 229.0400
 11
 259.8600
 21
 234.2200
  0
LINE
  8
200
  6
AUSGEZOGEN
 10
 243.4700
 20
 201.3900
 11
 246.0600
 21
 200.0000
  0
LINE
  8
200
  6
AUSGEZOGEN
 10
 242.7800
 20
 206.5700
 11
 243.4700
 21
 201.3900
  0
LINE
  8
200
  6
AUSGEZOGEN
 10
 277.6400
 20
 234.2200
 11
 275.0500
 21
 235.6100
  0
LINE
  8
200
  6
AUSGEZOGEN
 10
 278.3300
 20
 229.0400
 11
 277.6400
 21
 234.2200
  0
LINE
  8
200
  6
AUSGEZOGEN
 10
 261.2500
 20
 201.3900
 11
 263.8400
 21
 200.0000
  0
LINE
  8
200
  6
AUSGEZOGEN
 10
 260.5500
 20
 206.5700
 11
 261.2500
 21
 201.3900
  0
LINE
  8
200
  6
AUSGEZOGEN
 10
 295.4100
 20
 234.2200
 11
 292.8300
 21
 235.6100
  0
LINE
  8
200
  6
AUSGEZOGEN
 10
 296.1100
 20
 229.0400
 11
 295.4100
 21
 234.2200
  0
LINE
  8
200
  6
AUSGEZOGEN
 10
 279.0300
 20
 201.3900
 11
 281.6200
 21
 200.0000
  0
LINE
  8
200
  6
AUSGEZOGEN
 10
 278.3300
 20
 206.5700
 11
 279.0300
 21
 201.3900
  0
LINE
  8
200
  6
AUSGEZOGEN
 10
 313.1900
 20
 234.2200
 11
 310.6100
 21
 235.6100
  0
LINE
  8
200
  6
AUSGEZOGEN
 10
 313.8900
 20
 229.0400
 11
 313.1900
 21
 234.2200
  0
LINE
  8
200
  6
AUSGEZOGEN
 10
 296.8100
 20
 201.3900
 11
 299.3900
 21
 200.0000
  0
LINE
  8
200
  6
AUSGEZOGEN
 10
 296.1100
 20
 206.5700
 11
 296.8100
 21
 201.3900
  0
LINE
  8
200
  6
AUSGEZOGEN
 10
 330.9700
 20
 234.2200
 11
 328.3800
 21
 235.6100
  0
LINE
  8
200
  6
AUSGEZOGEN
 10
 331.6600
 20
 229.0400
 11
 330.9700
 21
 234.2200
  0
LINE
  8
200
  6
AUSGEZOGEN
 10
 314.5900
 20
 201.3900
 11
 317.1700
 21
 200.0000
  0
LINE
  8
200
  6
AUSGEZOGEN
 10
 313.8900
 20
 206.5700
 11
 314.5900
 21
 201.3900
  0
LINE
  8
200
  6
AUSGEZOGEN
 10
 348.7500
 20
 234.2200
 11
 346.1600
 21
 235.6100
  0
LINE
  8
200
  6
AUSGEZOGEN
 10
 349.4500
 20
 229.0400
 11
 348.7500
 21
 234.2200
  0
LINE
  8
200
  6
AUSGEZOGEN
 10
 332.3600
 20
 201.3900
 11
 334.9500
 21
 200.0000
  0
LINE
  8
200
  6
AUSGEZOGEN
 10
 331.6600
 20
 206.5700
 11
 332.3600
 21
 201.3900
  0
LINE
  8
200
  6
AUSGEZOGEN
 10
 366.5200
 20
 234.2200
 11
 363.9400
 21
 235.6100
  0
LINE
  8
200
  6
AUSGEZOGEN
 10
 367.2200
 20
 229.0400
 11
 366.5200
 21
 234.2200
  0
LINE
  8
200
  6
AUSGEZOGEN
 10
 350.1400
 20
 201.3900
 11
 352.7300
 21
 200.0000
  0
LINE
  8
200
  6
AUSGEZOGEN
 10
 349.4500
 20
 206.5700
 11
 350.1400
 21
 201.3900
  0
LINE
  8
200
  6
AUSGEZOGEN
 10
 384.3100
 20
 234.2200
 11
 381.7200
 21
 235.6100
  0
LINE
  8
200
  6
AUSGEZOGEN
 10
 367.9200
 20
 201.3900
 11
 370.5000
 21
 200.0000
  0
LINE
  8
200
  6
AUSGEZOGEN
 10
 367.2200
 20
 206.5700
 11
 367.9200
 21
 201.3900
  0
LINE
  8
200
  6
AUSGEZOGEN
 10
 239.5000
 20
 281.3800
 11
 242.0800
 21
 279.9900
  0
LINE
  8
200
  6
AUSGEZOGEN
 10
 242.7800
 20
 274.8100
 11
 242.0800
 21
 279.9900
  0
LINE
  8
200
  6
AUSGEZOGEN
 10
 225.6900
 20
 247.1600
 11
 228.2800
 21
 245.7700
  0
LINE
  8
200
  6
AUSGEZOGEN
 10
 225.0000
 20
 252.3400
 11
 225.6900
 21
 247.1600
  0
LINE
  8
200
  6
AUSGEZOGEN
 10
 259.8600
 20
 279.9900
 11
 257.2700
 21
 281.3800
  0
LINE
  8
200
  6
AUSGEZOGEN
 10
 260.5500
 20
 274.8100
 11
 259.8600
 21
 279.9900
  0
LINE
  8
200
  6
AUSGEZOGEN
 10
 243.4700
 20
 247.1600
 11
 246.0600
 21
 245.7700
  0
LINE
  8
200
  6
AUSGEZOGEN
 10
 242.7800
 20
 252.3400
 11
 243.4700
 21
 247.1600
  0
LINE
  8
200
  6
AUSGEZOGEN
 10
 277.6400
 20
 279.9900
 11
 275.0500
 21
 281.3800
  0
LINE
  8
200
  6
AUSGEZOGEN
 10
 278.3300
 20
 274.8100
 11
 277.6400
 21
 279.9900
  0
LINE
  8
200
  6
AUSGEZOGEN
 10
 261.2500
 20
 247.1600
 11
 263.8400
 21
 245.7700
  0
LINE
  8
200
  6
AUSGEZOGEN
 10
 260.5500
 20
 252.3400
 11
 261.2500
 21
 247.1600
  0
LINE
  8
200
  6
AUSGEZOGEN
 10
 295.4100
 20
 279.9900
 11
 292.8300
 21
 281.3800
  0
LINE
  8
200
  6
AUSGEZOGEN
 10
 296.1100
 20
 274.8100
 11
 295.4100
 21
 279.9900
  0
LINE
  8
200
  6
AUSGEZOGEN
 10
 279.0300
 20
 247.1600
 11
 281.6200
 21
 245.7700
  0
LINE
  8
200
  6
AUSGEZOGEN
 10
 278.3300
 20
 252.3400
 11
 279.0300
 21
 247.1600
  0
LINE
  8
200
  6
AUSGEZOGEN
 10
 313.1900
 20
 279.9900
 11
 310.6100
 21
 281.3800
  0
LINE
  8
200
  6
AUSGEZOGEN
 10
 313.8900
 20
 274.8100
 11
 313.1900
 21
 279.9900
  0
LINE
  8
200
  6
AUSGEZOGEN
 10
 296.8100
 20
 247.1600
 11
 299.3900
 21
 245.7700
  0
LINE
  8
200
  6
AUSGEZOGEN
 10
 296.1100
 20
 252.3400
 11
 296.8100
 21
 247.1600
  0
LINE
  8
200
  6
AUSGEZOGEN
 10
 330.9700
 20
 279.9900
 11
 328.3800
 21
 281.3800
  0
LINE
  8
200
  6
AUSGEZOGEN
 10
 331.6600
 20
 274.8100
 11
 330.9700
 21
 279.9900
  0
LINE
  8
200
  6
AUSGEZOGEN
 10
 314.5900
 20
 247.1600
 11
 317.1700
 21
 245.7700
  0
LINE
  8
200
  6
AUSGEZOGEN
 10
 313.8900
 20
 252.3400
 11
 314.5900
 21
 247.1600
  0
LINE
  8
200
  6
AUSGEZOGEN
 10
 348.7500
 20
 279.9900
 11
 346.1600
 21
 281.3800
  0
LINE
  8
200
  6
AUSGEZOGEN
 10
 349.4500
 20
 274.8100
 11
 348.7500
 21
 279.9900
  0
LINE
  8
200
  6
AUSGEZOGEN
 10
 332.3600
 20
 247.1600
 11
 334.9500
 21
 245.7700
  0
LINE
  8
200
  6
AUSGEZOGEN
 10
 331.6600
 20
 252.3400
 11
 332.3600
 21
 247.1600
  0
LINE
  8
200
  6
AUSGEZOGEN
 10
 366.5200
 20
 279.9900
 11
 363.9400
 21
 281.3800
  0
LINE
  8
200
  6
AUSGEZOGEN
 10
 367.2200
 20
 274.8100
 11
 366.5200
 21
 279.9900
  0
LINE
  8
200
  6
AUSGEZOGEN
 10
 350.1400
 20
 247.1600
 11
 352.7300
 21
 245.7700
  0
LINE
  8
200
  6
AUSGEZOGEN
 10
 349.4500
 20
 252.3400
 11
 350.1400
 21
 247.1600
  0
LINE
  8
200
  6
AUSGEZOGEN
 10
 384.3100
 20
 279.9900
 11
 381.7200
 21
 281.3800
  0
LINE
  8
200
  6
AUSGEZOGEN
 10
 367.9200
 20
 247.1600
 11
 370.5000
 21
 245.7700
  0
LINE
  8
200
  6
AUSGEZOGEN
 10
 367.2200
 20
 252.3400
 11
 367.9200
 21
 247.1600
  0
LINE
  8
200
  6
AUSGEZOGEN
 10
 239.5000
 20
 327.1500
 11
 242.0800
 21
 325.7600
  0
LINE
  8
200
  6
AUSGEZOGEN
 10
 242.7800
 20
 320.5800
 11
 242.0800
 21
 325.7600
  0
LINE
  8
200
  6
AUSGEZOGEN
 10
 225.6900
 20
 292.9300
 11
 228.2800
 21
 291.5400
  0
LINE
  8
200
  6
AUSGEZOGEN
 10
 225.0000
 20
 298.1200
 11
 225.6900
 21
 292.9300
  0
LINE
  8
200
  6
AUSGEZOGEN
 10
 257.2700
 20
 327.1500
 11
 242.7800
 21
 298.1200
  0
LINE
  8
200
  6
AUSGEZOGEN
 10
 259.8600
 20
 325.7600
 11
 257.2700
 21
 327.1500
  0
LINE
  8
200
  6
AUSGEZOGEN
 10
 260.5500
 20
 320.5800
 11
 259.8600
 21
 325.7600
  0
LINE
  8
200
  6
AUSGEZOGEN
 10
 243.4700
 20
 292.9300
 11
 246.0600
 21
 291.5400
  0
LINE
  8
200
  6
AUSGEZOGEN
 10
 242.7800
 20
 298.1200
 11
 243.4700
 21
 292.9300
  0
LINE
  8
200
  6
AUSGEZOGEN
 10
 277.6400
 20
 325.7600
 11
 275.0500
 21
 327.1500
  0
LINE
  8
200
  6
AUSGEZOGEN
 10
 278.3300
 20
 320.5800
 11
 277.6400
 21
 325.7600
  0
LINE
  8
200
  6
AUSGEZOGEN
 10
 261.2500
 20
 292.9300
 11
 263.8400
 21
 291.5400
  0
LINE
  8
200
  6
AUSGEZOGEN
 10
 260.5500
 20
 298.1200
 11
 261.2500
 21
 292.9300
  0
LINE
  8
200
  6
AUSGEZOGEN
 10
 295.4100
 20
 325.7600
 11
 292.8300
 21
 327.1500
  0
LINE
  8
200
  6
AUSGEZOGEN
 10
 296.1100
 20
 320.5800
 11
 295.4100
 21
 325.7600
  0
LINE
  8
200
  6
AUSGEZOGEN
 10
 279.0300
 20
 292.9300
 11
 281.6200
 21
 291.5400
  0
LINE
  8
200
  6
AUSGEZOGEN
 10
 278.3300
 20
 298.1200
 11
 279.0300
 21
 292.9300
  0
LINE
  8
200
  6
AUSGEZOGEN
 10
 313.1900
 20
 325.7600
 11
 310.6100
 21
 327.1500
  0
LINE
  8
200
  6
AUSGEZOGEN
 10
 313.8900
 20
 320.5800
 11
 313.1900
 21
 325.7600
  0
LINE
  8
200
  6
AUSGEZOGEN
 10
 296.8100
 20
 292.9300
 11
 299.3900
 21
 291.5400
  0
LINE
  8
200
  6
AUSGEZOGEN
 10
 296.1100
 20
 298.1200
 11
 296.8100
 21
 292.9300
  0
LINE
  8
200
  6
AUSGEZOGEN
 10
 328.3800
 20
 327.1500
 11
 313.8900
 21
 298.1200
  0
LINE
  8
200
  6
AUSGEZOGEN
 10
 330.9700
 20
 325.7600
 11
 328.3800
 21
 327.1500
  0
LINE
  8
200
  6
AUSGEZOGEN
 10
 331.6600
 20
 320.5800
 11
 330.9700
 21
 325.7600
  0
LINE
  8
200
  6
AUSGEZOGEN
 10
 314.5900
 20
 292.9300
 11
 317.1700
 21
 291.5400
  0
LINE
  8
200
  6
AUSGEZOGEN
 10
 313.8900
 20
 298.1200
 11
 314.5900
 21
 292.9300
  0
LINE
  8
200
  6
AUSGEZOGEN
 10
 348.7500
 20
 325.7600
 11
 346.1600
 21
 327.1500
  0
LINE
  8
200
  6
AUSGEZOGEN
 10
 349.4500
 20
 320.5800
 11
 348.7500
 21
 325.7600
  0
LINE
  8
200
  6
AUSGEZOGEN
 10
 332.3600
 20
 292.9300
 11
 334.9500
 21
 291.5400
  0
LINE
  8
200
  6
AUSGEZOGEN
 10
 331.6600
 20
 298.1200
 11
 332.3600
 21
 292.9300
  0
LINE
  8
200
  6
AUSGEZOGEN
 10
 363.9400
 20
 327.1500
 11
 349.4500
 21
 298.1200
  0
LINE
  8
200
  6
AUSGEZOGEN
 10
 366.5200
 20
 325.7600
 11
 363.9400
 21
 327.1500
  0
LINE
  8
200
  6
AUSGEZOGEN
 10
 367.2200
 20
 320.5800
 11
 366.5200
 21
 325.7600
  0
LINE
  8
200
  6
AUSGEZOGEN
 10
 350.1400
 20
 292.9300
 11
 352.7300
 21
 291.5400
  0
LINE
  8
200
  6
AUSGEZOGEN
 10
 349.4500
 20
 298.1200
 11
 350.1400
 21
 292.9300
  0
LINE
  8
200
  6
AUSGEZOGEN
 10
 384.3100
 20
 325.7600
 11
 381.7200
 21
 327.1500
  0
LINE
  8
200
  6
AUSGEZOGEN
 10
 367.9200
 20
 292.9300
 11
 370.5000
 21
 291.5400
  0
LINE
  8
200
  6
AUSGEZOGEN
 10
 367.2200
 20
 298.1200
 11
 367.9200
 21
 292.9300
  0
LINE
  8
200
  6
AUSGEZOGEN
 10
 239.5000
 20
 372.9200
 11
 242.0800
 21
 371.5300
  0
LINE
  8
200
  6
AUSGEZOGEN
 10
 242.7800
 20
 366.3500
 11
 242.0800
 21
 371.5300
  0
LINE
  8
200
  6
AUSGEZOGEN
 10
 225.6900
 20
 338.7000
 11
 228.2800
 21
 337.3100
  0
LINE
  8
200
  6
AUSGEZOGEN
 10
 225.0000
 20
 343.8900
 11
 225.6900
 21
 338.7000
  0
LINE
  8
200
  6
AUSGEZOGEN
 10
 257.2700
 20
 372.9200
 11
 242.7800
 21
 343.8900
  0
LINE
  8
200
  6
AUSGEZOGEN
 10
 259.8600
 20
 371.5300
 11
 257.2700
 21
 372.9200
  0
LINE
  8
200
  6
AUSGEZOGEN
 10
 260.5500
 20
 366.3500
 11
 259.8600
 21
 371.5300
  0
LINE
  8
200
  6
AUSGEZOGEN
 10
 243.4700
 20
 338.7000
 11
 246.0600
 21
 337.3100
  0
LINE
  8
200
  6
AUSGEZOGEN
 10
 242.7800
 20
 343.8900
 11
 243.4700
 21
 338.7000
  0
LINE
  8
200
  6
AUSGEZOGEN
 10
 277.6400
 20
 371.5300
 11
 275.0500
 21
 372.9200
  0
LINE
  8
200
  6
AUSGEZOGEN
 10
 278.3300
 20
 366.3500
 11
 277.6400
 21
 371.5300
  0
LINE
  8
200
  6
AUSGEZOGEN
 10
 261.2500
 20
 338.7000
 11
 263.8400
 21
 337.3100
  0
LINE
  8
200
  6
AUSGEZOGEN
 10
 260.5500
 20
 343.8900
 11
 261.2500
 21
 338.7000
  0
LINE
  8
200
  6
AUSGEZOGEN
 10
 295.4100
 20
 371.5300
 11
 292.8300
 21
 372.9200
  0
LINE
  8
200
  6
AUSGEZOGEN
 10
 296.1100
 20
 366.3500
 11
 295.4100
 21
 371.5300
  0
LINE
  8
200
  6
AUSGEZOGEN
 10
 279.0300
 20
 338.7000
 11
 281.6200
 21
 337.3100
  0
LINE
  8
200
  6
AUSGEZOGEN
 10
 278.3300
 20
 343.8900
 11
 279.0300
 21
 338.7000
  0
LINE
  8
200
  6
AUSGEZOGEN
 10
 313.1900
 20
 371.5300
 11
 310.6100
 21
 372.9200
  0
LINE
  8
200
  6
AUSGEZOGEN
 10
 313.8900
 20
 366.3500
 11
 313.1900
 21
 371.5300
  0
LINE
  8
200
  6
AUSGEZOGEN
 10
 296.8100
 20
 338.7000
 11
 299.3900
 21
 337.3100
  0
LINE
  8
200
  6
AUSGEZOGEN
 10
 296.1100
 20
 343.8900
 11
 296.8100
 21
 338.7000
  0
LINE
  8
200
  6
AUSGEZOGEN
 10
 328.3800
 20
 372.9200
 11
 313.8900
 21
 343.8900
  0
LINE
  8
200
  6
AUSGEZOGEN
 10
 330.9700
 20
 371.5300
 11
 328.3800
 21
 372.9200
  0
LINE
  8
200
  6
AUSGEZOGEN
 10
 331.6600
 20
 366.3500
 11
 330.9700
 21
 371.5300
  0
LINE
  8
200
  6
AUSGEZOGEN
 10
 314.5900
 20
 338.7000
 11
 317.1700
 21
 337.3100
  0
LINE
  8
200
  6
AUSGEZOGEN
 10
 313.8900
 20
 343.8900
 11
 314.5900
 21
 338.7000
  0
LINE
  8
200
  6
AUSGEZOGEN
 10
 348.7500
 20
 371.5300
 11
 346.1600
 21
 372.9200
  0
LINE
  8
200
  6
AUSGEZOGEN
 10
 349.4500
 20
 366.3500
 11
 348.7500
 21
 371.5300
  0
LINE
  8
200
  6
AUSGEZOGEN
 10
 332.3600
 20
 338.7000
 11
 334.9500
 21
 337.3100
  0
LINE
  8
200
  6
AUSGEZOGEN
 10
 331.6600
 20
 343.8900
 11
 332.3600
 21
 338.7000
  0
LINE
  8
200
  6
AUSGEZOGEN
 10
 363.9400
 20
 372.9200
 11
 349.4500
 21
 343.8900
  0
LINE
  8
200
  6
AUSGEZOGEN
 10
 366.5200
 20
 371.5300
 11
 363.9400
 21
 372.9200
  0
LINE
  8
200
  6
AUSGEZOGEN
 10
 367.2200
 20
 366.3500
 11
 366.5200
 21
 371.5300
  0
LINE
  8
200
  6
AUSGEZOGEN
 10
 350.1400
 20
 338.7000
 11
 352.7300
 21
 337.3100
  0
LINE
  8
200
  6
AUSGEZOGEN
 10
 349.4500
 20
 343.8900
 11
 350.1400
 21
 338.7000
  0
LINE
  8
200
  6
AUSGEZOGEN
 10
 384.3100
 20
 371.5300
 11
 381.7200
 21
 372.9200
  0
LINE
  8
200
  6
AUSGEZOGEN
 10
 367.9200
 20
 338.7000
 11
 370.5000
 21
 337.3100
  0
LINE
  8
200
  6
AUSGEZOGEN
 10
 367.2200
 20
 343.8900
 11
 367.9200
 21
 338.7000
  0
LINE
  8
200
  6
AUSGEZOGEN
 10
 239.5000
 20
 418.6900
 11
 242.0800
 21
 417.3000
  0
LINE
  8
200
  6
AUSGEZOGEN
 10
 242.7800
 20
 412.1200
 11
 242.0800
 21
 417.3000
  0
LINE
  8
200
  6
AUSGEZOGEN
 10
 225.6900
 20
 384.4800
 11
 228.2800
 21
 383.0800
  0
LINE
  8
200
  6
AUSGEZOGEN
 10
 225.0000
 20
 389.6600
 11
 225.6900
 21
 384.4800
  0
LINE
  8
200
  6
AUSGEZOGEN
 10
 257.2700
 20
 418.6900
 11
 242.7800
 21
 389.6600
  0
LINE
  8
200
  6
AUSGEZOGEN
 10
 259.8600
 20
 417.3000
 11
 257.2700
 21
 418.6900
  0
LINE
  8
200
  6
AUSGEZOGEN
 10
 260.5500
 20
 412.1200
 11
 259.8600
 21
 417.3000
  0
LINE
  8
200
  6
AUSGEZOGEN
 10
 243.4700
 20
 384.4800
 11
 246.0600
 21
 383.0800
  0
LINE
  8
200
  6
AUSGEZOGEN
 10
 242.7800
 20
 389.6600
 11
 243.4700
 21
 384.4800
  0
LINE
  8
200
  6
AUSGEZOGEN
 10
 277.6400
 20
 417.3000
 11
 275.0500
 21
 418.6900
  0
LINE
  8
200
  6
AUSGEZOGEN
 10
 278.3300
 20
 412.1200
 11
 277.6400
 21
 417.3000
  0
LINE
  8
200
  6
AUSGEZOGEN
 10
 261.2500
 20
 384.4800
 11
 263.8400
 21
 383.0800
  0
LINE
  8
200
  6
AUSGEZOGEN
 10
 260.5500
 20
 389.6600
 11
 261.2500
 21
 384.4800
  0
LINE
  8
200
  6
AUSGEZOGEN
 10
 295.4100
 20
 417.3000
 11
 292.8300
 21
 418.6900
  0
LINE
  8
200
  6
AUSGEZOGEN
 10
 296.1100
 20
 412.1200
 11
 295.4100
 21
 417.3000
  0
LINE
  8
200
  6
AUSGEZOGEN
 10
 279.0300
 20
 384.4800
 11
 281.6200
 21
 383.0800
  0
LINE
  8
200
  6
AUSGEZOGEN
 10
 278.3300
 20
 389.6600
 11
 279.0300
 21
 384.4800
  0
LINE
  8
200
  6
AUSGEZOGEN
 10
 313.1900
 20
 417.3000
 11
 310.6100
 21
 418.6900
  0
LINE
  8
200
  6
AUSGEZOGEN
 10
 313.8900
 20
 412.1200
 11
 313.1900
 21
 417.3000
  0
LINE
  8
200
  6
AUSGEZOGEN
 10
 296.8100
 20
 384.4800
 11
 299.3900
 21
 383.0800
  0
LINE
  8
200
  6
AUSGEZOGEN
 10
 296.1100
 20
 389.6600
 11
 296.8100
 21
 384.4800
  0
LINE
  8
200
  6
AUSGEZOGEN
 10
 328.3800
 20
 418.6900
 11
 313.8900
 21
 389.6600
  0
LINE
  8
200
  6
AUSGEZOGEN
 10
 330.9700
 20
 417.3000
 11
 328.3800
 21
 418.6900
  0
LINE
  8
200
  6
AUSGEZOGEN
 10
 331.6600
 20
 412.1200
 11
 330.9700
 21
 417.3000
  0
LINE
  8
200
  6
AUSGEZOGEN
 10
 314.5900
 20
 384.4800
 11
 317.1700
 21
 383.0800
  0
LINE
  8
200
  6
AUSGEZOGEN
 10
 313.8900
 20
 389.6600
 11
 314.5900
 21
 384.4800
  0
LINE
  8
200
  6
AUSGEZOGEN
 10
 348.7500
 20
 417.3000
 11
 346.1600
 21
 418.6900
  0
LINE
  8
200
  6
AUSGEZOGEN
 10
 349.4500
 20
 412.1200
 11
 348.7500
 21
 417.3000
  0
LINE
  8
200
  6
AUSGEZOGEN
 10
 332.3600
 20
 384.4800
 11
 334.9500
 21
 383.0800
  0
LINE
  8
200
  6
AUSGEZOGEN
 10
 331.6600
 20
 389.6600
 11
 332.3600
 21
 384.4800
  0
LINE
  8
200
  6
AUSGEZOGEN
 10
 363.9400
 20
 418.6900
 11
 349.4500
 21
 389.6600
  0
LINE
  8
200
  6
AUSGEZOGEN
 10
 366.5200
 20
 417.3000
 11
 363.9400
 21
 418.6900
  0
LINE
  8
200
  6
AUSGEZOGEN
 10
 367.2200
 20
 412.1200
 11
 366.5200
 21
 417.3000
  0
LINE
  8
200
  6
AUSGEZOGEN
 10
 350.1400
 20
 384.4800
 11
 352.7300
 21
 383.0800
  0
LINE
  8
200
  6
AUSGEZOGEN
 10
 349.4500
 20
 389.6600
 11
 350.1400
 21
 384.4800
  0
LINE
  8
200
  6
AUSGEZOGEN
 10
 384.3100
 20
 417.3000
 11
 381.7200
 21
 418.6900
  0
LINE
  8
200
  6
AUSGEZOGEN
 10
 367.9200
 20
 384.4800
 11
 370.5000
 21
 383.0800
  0
LINE
  8
200
  6
AUSGEZOGEN
 10
 367.2200
 20
 389.6600
 11
 367.9200
 21
 384.4800
  0
LINE
  8
200
  6
AUSGEZOGEN
 10
 239.5000
 20
 464.4600
 11
 242.0800
 21
 463.0700
  0
LINE
  8
200
  6
AUSGEZOGEN
 10
 242.7800
 20
 457.8900
 11
 242.0800
 21
 463.0700
  0
LINE
  8
200
  6
AUSGEZOGEN
 10
 225.6900
 20
 430.2500
 11
 228.2800
 21
 428.8500
  0
LINE
  8
200
  6
AUSGEZOGEN
 10
 225.0000
 20
 435.4300
 11
 225.6900
 21
 430.2500
  0
LINE
  8
200
  6
AUSGEZOGEN
 10
 257.2700
 20
 464.4600
 11
 242.7800
 21
 435.4300
  0
LINE
  8
200
  6
AUSGEZOGEN
 10
 259.8600
 20
 463.0700
 11
 257.2700
 21
 464.4600
  0
LINE
  8
200
  6
AUSGEZOGEN
 10
 260.5500
 20
 457.8900
 11
 259.8600
 21
 463.0700
  0
LINE
  8
200
  6
AUSGEZOGEN
 10
 243.4700
 20
 430.2500
 11
 246.0600
 21
 428.8500
  0
LINE
  8
200
  6
AUSGEZOGEN
 10
 242.7800
 20
 435.4300
 11
 243.4700
 21
 430.2500
  0
LINE
  8
200
  6
AUSGEZOGEN
 10
 277.6400
 20
 463.0700
 11
 275.0500
 21
 464.4600
  0
LINE
  8
200
  6
AUSGEZOGEN
 10
 278.3300
 20
 457.8900
 11
 277.6400
 21
 463.0700
  0
LINE
  8
200
  6
AUSGEZOGEN
 10
 261.2500
 20
 430.2500
 11
 263.8400
 21
 428.8500
  0
LINE
  8
200
  6
AUSGEZOGEN
 10
 260.5500
 20
 435.4300
 11
 261.2500
 21
 430.2500
  0
LINE
  8
200
  6
AUSGEZOGEN
 10
 295.4100
 20
 463.0700
 11
 292.8300
 21
 464.4600
  0
LINE
  8
200
  6
AUSGEZOGEN
 10
 296.1100
 20
 457.8900
 11
 295.4100
 21
 463.0700
  0
LINE
  8
200
  6
AUSGEZOGEN
 10
 279.0300
 20
 430.2500
 11
 281.6200
 21
 428.8500
  0
LINE
  8
200
  6
AUSGEZOGEN
 10
 278.3300
 20
 435.4300
 11
 279.0300
 21
 430.2500
  0
LINE
  8
200
  6
AUSGEZOGEN
 10
 313.1900
 20
 463.0700
 11
 310.6100
 21
 464.4600
  0
LINE
  8
200
  6
AUSGEZOGEN
 10
 313.8900
 20
 457.8900
 11
 313.1900
 21
 463.0700
  0
LINE
  8
200
  6
AUSGEZOGEN
 10
 296.8100
 20
 430.2500
 11
 299.3900
 21
 428.8500
  0
LINE
  8
200
  6
AUSGEZOGEN
 10
 296.1100
 20
 435.4300
 11
 296.8100
 21
 430.2500
  0
LINE
  8
200
  6
AUSGEZOGEN
 10
 328.3800
 20
 464.4600
 11
 313.8900
 21
 435.4300
  0
LINE
  8
200
  6
AUSGEZOGEN
 10
 330.9700
 20
 463.0700
 11
 328.3800
 21
 464.4600
  0
LINE
  8
200
  6
AUSGEZOGEN
 10
 331.6600
 20
 457.8900
 11
 330.9700
 21
 463.0700
  0
LINE
  8
200
  6
AUSGEZOGEN
 10
 314.5900
 20
 430.2500
 11
 317.1700
 21
 428.8500
  0
LINE
  8
200
  6
AUSGEZOGEN
 10
 313.8900
 20
 435.4300
 11
 314.5900
 21
 430.2500
  0
LINE
  8
200
  6
AUSGEZOGEN
 10
 348.7500
 20
 463.0700
 11
 346.1600
 21
 464.4600
  0
LINE
  8
200
  6
AUSGEZOGEN
 10
 349.4500
 20
 457.8900
 11
 348.7500
 21
 463.0700
  0
LINE
  8
200
  6
AUSGEZOGEN
 10
 332.3600
 20
 430.2500
 11
 334.9500
 21
 428.8500
  0
LINE
  8
200
  6
AUSGEZOGEN
 10
 331.6600
 20
 435.4300
 11
 332.3600
 21
 430.2500
  0
LINE
  8
200
  6
AUSGEZOGEN
 10
 363.9400
 20
 464.4600
 11
 349.4500
 21
 435.4300
  0
LINE
  8
200
  6
AUSGEZOGEN
 10
 366.5200
 20
 463.0700
 11
 363.9400
 21
 464.4600
  0
LINE
  8
200
  6
AUSGEZOGEN
 10
 367.2200
 20
 457.8900
 11
 366.5200
 21
 463.0700
  0
LINE
  8
200
  6
AUSGEZOGEN
 10
 350.1400
 20
 430.2500
 11
 352.7300
 21
 428.8500
  0
LINE
  8
200
  6
AUSGEZOGEN
 10
 349.4500
 20
 435.4300
 11
 350.1400
 21
 430.2500
  0
LINE
  8
200
  6
AUSGEZOGEN
 10
 384.3100
 20
 463.0700
 11
 381.7200
 21
 464.4600
  0
LINE
  8
200
  6
AUSGEZOGEN
 10
 367.9200
 20
 430.2500
 11
 370.5000
 21
 428.8500
  0
LINE
  8
200
  6
AUSGEZOGEN
 10
 367.2200
 20
 435.4300
 11
 367.9200
 21
 430.2500
  0
LINE
  8
200
  6
AUSGEZOGEN
 10
 239.5000
 20
 510.0000
 11
 242.0800
 21
 508.8400
  0
LINE
  8
200
  6
AUSGEZOGEN
 10
 242.7800
 20
 503.6600
 11
 242.0800
 21
 508.8400
  0
LINE
  8
200
  6
AUSGEZOGEN
 10
 225.6900
 20
 476.0200
 11
 228.2800
 21
 474.6200
  0
LINE
  8
200
  6
AUSGEZOGEN
 10
 225.0000
 20
 481.2000
 11
 225.6900
 21
 476.0200
  0
LINE
  8
200
  6
AUSGEZOGEN
 10
 259.8600
 20
 508.8400
 11
 257.2700
 21
 510.0000
  0
LINE
  8
200
  6
AUSGEZOGEN
 10
 260.5500
 20
 503.6600
 11
 259.8600
 21
 508.8400
  0
LINE
  8
200
  6
AUSGEZOGEN
 10
 243.4700
 20
 476.0200
 11
 246.0600
 21
 474.6200
  0
LINE
  8
200
  6
AUSGEZOGEN
 10
 242.7800
 20
 481.2000
 11
 243.4700
 21
 476.0200
  0
LINE
  8
200
  6
AUSGEZOGEN
 10
 277.6400
 20
 508.8400
 11
 275.0500
 21
 510.0000
  0
LINE
  8
200
  6
AUSGEZOGEN
 10
 278.3300
 20
 503.6600
 11
 277.6400
 21
 508.8400
  0
LINE
  8
200
  6
AUSGEZOGEN
 10
 261.2500
 20
 476.0200
 11
 263.8400
 21
 474.6200
  0
LINE
  8
200
  6
AUSGEZOGEN
 10
 260.5500
 20
 481.2000
 11
 261.2500
 21
 476.0200
  0
LINE
  8
200
  6
AUSGEZOGEN
 10
 295.4100
 20
 508.8400
 11
 292.8300
 21
 510.0000
  0
LINE
  8
200
  6
AUSGEZOGEN
 10
 296.1100
 20
 503.6600
 11
 295.4100
 21
 508.8400
  0
LINE
  8
200
  6
AUSGEZOGEN
 10
 279.0300
 20
 476.0200
 11
 281.6200
 21
 474.6200
  0
LINE
  8
200
  6
AUSGEZOGEN
 10
 278.3300
 20
 481.2000
 11
 279.0300
 21
 476.0200
  0
LINE
  8
200
  6
AUSGEZOGEN
 10
 313.1900
 20
 508.8400
 11
 310.6100
 21
 510.0000
  0
LINE
  8
200
  6
AUSGEZOGEN
 10
 313.8900
 20
 503.6600
 11
 313.1900
 21
 508.8400
  0
LINE
  8
200
  6
AUSGEZOGEN
 10
 296.8100
 20
 476.0200
 11
 299.3900
 21
 474.6200
  0
LINE
  8
200
  6
AUSGEZOGEN
 10
 296.1100
 20
 481.2000
 11
 296.8100
 21
 476.0200
  0
LINE
  8
200
  6
AUSGEZOGEN
 10
 330.9700
 20
 508.8400
 11
 328.3800
 21
 510.0000
  0
LINE
  8
200
  6
AUSGEZOGEN
 10
 331.6600
 20
 503.6600
 11
 330.9700
 21
 508.8400
  0
LINE
  8
200
  6
AUSGEZOGEN
 10
 314.5900
 20
 476.0200
 11
 317.1700
 21
 474.6200
  0
LINE
  8
200
  6
AUSGEZOGEN
 10
 313.8900
 20
 481.2000
 11
 314.5900
 21
 476.0200
  0
LINE
  8
200
  6
AUSGEZOGEN
 10
 348.7500
 20
 508.8400
 11
 346.1600
 21
 510.0000
  0
LINE
  8
200
  6
AUSGEZOGEN
 10
 349.4500
 20
 503.6600
 11
 348.7500
 21
 508.8400
  0
LINE
  8
200
  6
AUSGEZOGEN
 10
 332.3600
 20
 476.0200
 11
 334.9500
 21
 474.6200
  0
LINE
  8
200
  6
AUSGEZOGEN
 10
 331.6600
 20
 481.2000
 11
 332.3600
 21
 476.0200
  0
LINE
  8
200
  6
AUSGEZOGEN
 10
 366.5200
 20
 508.8400
 11
 363.9400
 21
 510.0000
  0
LINE
  8
200
  6
AUSGEZOGEN
 10
 367.2200
 20
 503.6600
 11
 366.5200
 21
 508.8400
  0
LINE
  8
200
  6
AUSGEZOGEN
 10
 350.1400
 20
 476.0200
 11
 352.7300
 21
 474.6200
  0
LINE
  8
200
  6
AUSGEZOGEN
 10
 349.4500
 20
 481.2000
 11
 350.1400
 21
 476.0200
  0
LINE
  8
200
  6
AUSGEZOGEN
 10
 384.3100
 20
 508.8400
 11
 381.7200
 21
 510.0000
  0
LINE
  8
200
  6
AUSGEZOGEN
 10
 367.9200
 20
 476.0200
 11
 370.5000
 21
 474.6200
  0
LINE
  8
200
  6
AUSGEZOGEN
 10
 367.2200
 20
 481.2000
 11
 367.9200
 21
 476.0200
  0
LINE
  8
200
  6
AUSGEZOGEN
 10
 385.0000
 20
 457.8900
 11
 384.3100
 21
 463.0700
  0
LINE
  8
200
  6
AUSGEZOGEN
 10
 384.3100
 20
 508.8400
 11
 385.0000
 21
 503.6600
  0
LINE
  8
200
  6
AUSGEZOGEN
 10
 385.0000
 20
 229.0400
 11
 384.3100
 21
 234.2200
  0
LINE
  8
200
  6
AUSGEZOGEN
 10
 384.3100
 20
 279.9900
 11
 385.0000
 21
 274.8100
  0
LINE
  8
200
  6
AUSGEZOGEN
 10
 384.3100
 20
 325.7600
 11
 385.0000
 21
 320.5800
  0
LINE
  8
200
  6
AUSGEZOGEN
 10
 384.3100
 20
 371.5300
 11
 385.0000
 21
 366.3500
  0
LINE
  8
200
  6
AUSGEZOGEN
 10
 384.3100
 20
 417.3000
 11
 385.0000
 21
 412.1200
  0
LINE
  8
200
  6
AUSGEZOGEN
 10
 155.0000
 20
 610.0000
 11
 305.0000
 21
 610.0000
  0
LINE
  8
200
  6
AUSGEZOGEN
 10
 155.0000
 20
 650.0000
 11
 155.0000
 21
 610.0000
  0
LINE
  8
200
  6
AUSGEZOGEN
 10
 305.0000
 20
 650.0000
 11
 155.0000
 21
 650.0000
  0
LINE
  8
200
  6
AUSGEZOGEN
 10
 305.0000
 20
 610.0000
 11
 305.0000
 21
 650.0000
  0
LINE
  8
200
  6
AUSGEZOGEN
 10
  40.0000
 20
 565.0000
 11
 410.0000
 21
 565.0000
  0
LINE
  8
200
  6
AUSGEZOGEN
 10
 410.0000
 20
 575.0000
 11
  40.0000
 21
 575.0000
  0
LINE
  8
200
  6
AUSGEZOGEN
 10
  40.0000
 20
 670.0000
 11
 410.0000
 21
 670.0000
  0
LINE
  8
200
  6
AUSGEZOGEN
 10
 410.0000
 20
 675.0000
 11
  40.0000
 21
 675.0000
  0
LINE
  8
200
  6
AUSGEZOGEN
 10
  40.0000
 20
 585.0000
 11
 410.0000
 21
 585.0000
  0
LINE
  8
200
  6
AUSGEZOGEN
 10
 410.0000
 20
 590.0000
 11
  40.0000
 21
 590.0000
  0
LINE
  8
200
  6
AUSGEZOGEN
 10
  40.0000
 20
 685.0000
 11
 410.0000
 21
 685.0000
  0
LINE
  8
200
  6
AUSGEZOGEN
 10
 410.0000
 20
 695.0000
 11
  40.0000
 21
 695.0000
  0
LINE
  8
200
  6
AUSGEZOGEN
 10
  40.0000
 20
 560.0000
 11
 410.0000
 21
 560.0000
  0
LINE
  8
200
  6
AUSGEZOGEN
 10
  40.0000
 20
 700.0000
 11
  40.0000
 21
 560.0000
  0
LINE
  8
200
  6
AUSGEZOGEN
 10
 410.0000
 20
 700.0000
 11
  40.0000
 21
 700.0000
  0
LINE
  8
200
  6
AUSGEZOGEN
 10
 410.0000
 20
 560.0000
 11
 410.0000
 21
 700.0000
  0
LINE
  8
200
  6
AUSGEZOGEN
 10
  35.0000
 20
 535.0000
 11
 415.0000
 21
 535.0000
  0
LINE
  8
200
  6
AUSGEZOGEN
 10
 415.0000
 20
 917.0000
 11
  35.0000
 21
 917.0000
  0
LINE
  8
200
  6
AUSGEZOGEN
 10
  35.0000
 20
 725.0000
 11
 415.0000
 21
 725.0000
  0
LINE
  8
200
  6
AUSGEZOGEN
 10
 415.0000
 20
 555.0000
 11
  35.0000
 21
 555.0000
  0
LINE
  8
200
  6
AUSGEZOGEN
 10
  35.0000
 20
 705.0000
 11
 415.0000
 21
 705.0000
  0
LINE
  8
200
  6
AUSGEZOGEN
 10
  35.0000
 20
  40.0000
 11
  35.0000
 21
 917.0000
  0
LINE
  8
200
  6
AUSGEZOGEN
 10
 415.0000
 20
 930.0000
 11
 415.0000
 21
  40.0000
  0
LINE
  8
200
  6
AUSGEZOGEN
 10
   0.0000
 20
 980.0000
 11
   0.0000
 21
 930.0000
  0
LINE
  8
200
  6
AUSGEZOGEN
 10
1550.0000
 20
 930.0000
 11
1550.0000
 21
 980.0000
  0
LINE
  8
200
  6
AUSGEZOGEN
 10
   0.0000
 20
 980.0000
 11
1550.0000
 21
 980.0000
  0
LINE
  8
200
  6
AUSGEZOGEN
 10
1525.0000
 20
  40.0000
 11
  25.0000
 21
  40.0000
  0
LINE
  8
200
  6
AUSGEZOGEN
 10
  25.0000
 20
   0.0000
 11
1525.0000
 21
   0.0000
  0
LINE
  8
200
  6
AUSGEZOGEN
 10
1550.0000
 20
 930.0000
 11
   0.0000
 21
 930.0000
  0
LINE
  8
200
  6
AUSGEZOGEN
 10
1525.0000
 20
   0.0000
 11
1525.0000
 21
 930.0000
  0
LINE
  8
200
  6
AUSGEZOGEN
 10
  25.0000
 20
 930.0000
 11
  25.0000
 21
   0.0000
  0
TEXT
  8
400
 10
1937.5000
 20
 860.0000
 40
  45.0000
  1
EZ: 230V 50Hz, Kabellänge 2,5m mit Schukostecker 0,44kW
 50
   0.0000
 41
   0.6000
  7
STANDARD
  0
TEXT
  8
410
 10
1937.5000
 20
 740.0000
 40
  45.0000
  1
TWk: DN15
 50
   0.0000
 41
   0.6000
  7
STANDARD
  0
TEXT
  8
420
 10
1937.5000
 20
 620.0000
 40
  45.0000
  1
A: DN50 Trichterablauf, unter Boden baus. syphoniert
 50
   0.0000
 41
   0.6000
  7
STANDARD
  0
ATTDEF
  8
550
 10
10.0
 20
100.0
 30
0.0
 40
30
  1
CCO-GTM721L81-MS
  2
CCO-GTM721L81-MSV
  3
HKI-Nummer
 70
1
  0
TEXT
  8
510
 10
10.0
 20
-45.0
 30
0.0
 40
30
  1
CCO-GTM721L81-MS
 50
0.0
 41
1.0
  7
STANDARD
  0
ENDSEC
  0
EOF
