  0
SECTION
  2
HEADER
  9
$ACADVER
  1
AC1009
  9
$INSBASE
 10
   0.0000
 20
   0.0000
 30
    0.0
  9
$EXTMIN
 10
 -72.0000
 20
-254.5000
 30
   0.0000
  9
$EXTMAX
 10
2819.4270
 20
2050.0000
 30
   0.0000
  9
$LTSCALE
 40
1.00
  9
$PSLTSCALE
 70
1
  0
ENDSEC
  0
SECTION
  2
TABLES
  0
TABLE
  2
LTYPE
 70
  5
  0
LTYPE
  2
AUSGEZOGEN
 70
 64
  3
AUSGEZOGEN
 72
 65
 73
  0
 40
0.0
  0
LTYPE
  2
PUNKTIERT
 70
 64
  3
Gepunktet
 72
 65
 73
  2
 40
30.0000
 49
0.0
 49
-30.0000
  0
LTYPE
  2
STRICHLIERT
 70
 64
  3
Strichliert
 72
 65
 73
  2
 40
80.0000
 49
50.0000
 49
-30.0000
  0
LTYPE
  2
STRICHPUNKT
 70
 64
  3
Strichpunktet
 72
 65
 73
  4
 40
160.0000
 49
100.0000
 49
-30.0000
 49
0.0
 49
-30.0000
  0
LTYPE
  2
STRICHPUNKTPUNKT
 70
 64
  3
Strichpunktpunktet
 72
 65
 73
  6
 40
190.0000
 49
100.0000
 49
-30.0000
 49
0.0
 49
-30.0000
 49
0.0
 49
-30.0000
  0
ENDTAB
  0
TABLE
  2
LAYER
 70
5
  0
LAYER
  2
550
 70
  0
 62
  2
  6
AUSGEZOGEN
  0
LAYER
  2
510
 70
  0
 62
  2
  6
AUSGEZOGEN
  0
LAYER
  2
0
 70
  0
 62
  1
  6
AUSGEZOGEN
  0
LAYER
  2
200
 70
  0
 62
  7
  6
AUSGEZOGEN
999
SWS-Layer-Line-Width
999
0.20
  0
LAYER
  2
400
 70
  0
 62
  4
  6
AUSGEZOGEN
999
SWS-Layer-Line-Width
999
0.30
  0
ENDTAB
  0
TABLE
  2
STYLE
 70
  1
  0
STYLE
  2
STANDARD
 70
 64
 40
0.0
 41
1.0
 50
0.0
 71
  0
 42
30.0
  3
TXT.SHX
  4

  0
ENDTAB
  0
ENDSEC
  0
SECTION
  2
ENTITIES
  0
LINE
  8
400
  6
AUSGEZOGEN
 10
 470.0000
 20
1800.0000
 11
 886.5000
 21
1916.5000
  0
LINE
  8
400
  6
AUSGEZOGEN
 10
2628.5700
 20
1916.5000
 11
 886.5000
 21
1916.5000
  0
LINE
  8
400
  6
AUSGEZOGEN
 10
 470.0000
 20
1800.0000
 11
 470.0000
 21
1875.0000
  0
LINE
  8
400
  6
AUSGEZOGEN
 10
 470.0000
 20
1725.0000
 11
 470.0000
 21
1800.0000
  0
LINE
  8
400
  6
AUSGEZOGEN
 10
 545.0000
 20
1800.0000
 11
 470.0000
 21
1800.0000
  0
LINE
  8
400
  6
AUSGEZOGEN
 10
 395.0000
 20
1800.0000
 11
 470.0000
 21
1800.0000
  0
CIRCLE
  8
400
  6
AUSGEZOGEN
 10
 470.0000
 20
1800.0000
 40
  50.0000
  0
CIRCLE
  8
200
  6
AUSGEZOGEN
 10
 380.0000
 20
1775.0000
 40
  10.0300
  0
LINE
  8
200
  6
AUSGEZOGEN
 10
 426.0000
 20
1907.0000
 11
 426.0000
 21
1883.0000
  0
LINE
  8
200
  6
AUSGEZOGEN
 10
 446.0000
 20
1907.0000
 11
 426.0000
 21
1907.0000
  0
LINE
  8
200
  6
AUSGEZOGEN
 10
 446.0000
 20
1883.0000
 11
 446.0000
 21
1907.0000
  0
LINE
  8
200
  6
AUSGEZOGEN
 10
 426.0000
 20
1883.0000
 11
 446.0000
 21
1883.0000
  0
LINE
  8
200
  6
AUSGEZOGEN
 10
 423.0000
 20
1910.0000
 11
 423.0000
 21
1880.0000
  0
LINE
  8
200
  6
AUSGEZOGEN
 10
 449.0000
 20
1910.0000
 11
 423.0000
 21
1910.0000
  0
LINE
  8
200
  6
AUSGEZOGEN
 10
 449.0000
 20
1880.0000
 11
 449.0000
 21
1910.0000
  0
LINE
  8
200
  6
AUSGEZOGEN
 10
 423.0000
 20
1880.0000
 11
 449.0000
 21
1880.0000
  0
LINE
  8
200
  6
AUSGEZOGEN
 10
 310.0000
 20
1910.0000
 11
 310.0000
 21
1880.0000
  0
LINE
  8
200
  6
AUSGEZOGEN
 10
 390.0000
 20
1910.0000
 11
 310.0000
 21
1910.0000
  0
LINE
  8
200
  6
AUSGEZOGEN
 10
 390.0000
 20
1880.0000
 11
 390.0000
 21
1910.0000
  0
LINE
  8
200
  6
AUSGEZOGEN
 10
 310.0000
 20
1880.0000
 11
 390.0000
 21
1880.0000
  0
LINE
  8
200
  6
AUSGEZOGEN
 10
 386.0000
 20
1892.0000
 11
 386.0000
 21
1884.0000
  0
LINE
  8
200
  6
AUSGEZOGEN
 10
 378.0000
 20
1892.0000
 11
 386.0000
 21
1892.0000
  0
LINE
  8
200
  6
AUSGEZOGEN
 10
 386.0000
 20
1884.0000
 11
 378.0000
 21
1884.0000
  0
LINE
  8
200
  6
AUSGEZOGEN
 10
 378.0000
 20
1892.0000
 11
 378.0000
 21
1884.0000
  0
LINE
  8
200
  6
AUSGEZOGEN
 10
 386.0000
 20
1906.0000
 11
 378.0000
 21
1906.0000
  0
LINE
  8
200
  6
AUSGEZOGEN
 10
 386.0000
 20
1898.0000
 11
 386.0000
 21
1906.0000
  0
LINE
  8
200
  6
AUSGEZOGEN
 10
 378.0000
 20
1898.0000
 11
 386.0000
 21
1898.0000
  0
LINE
  8
200
  6
AUSGEZOGEN
 10
 378.0000
 20
1906.0000
 11
 378.0000
 21
1898.0000
  0
LINE
  8
200
  6
AUSGEZOGEN
 10
 314.0000
 20
1906.0000
 11
 322.0000
 21
1906.0000
  0
LINE
  8
200
  6
AUSGEZOGEN
 10
 322.0000
 20
1898.0000
 11
 322.0000
 21
1906.0000
  0
LINE
  8
200
  6
AUSGEZOGEN
 10
 314.0000
 20
1898.0000
 11
 322.0000
 21
1898.0000
  0
LINE
  8
200
  6
AUSGEZOGEN
 10
 314.0000
 20
1906.0000
 11
 314.0000
 21
1898.0000
  0
LINE
  8
200
  6
AUSGEZOGEN
 10
 322.0000
 20
1892.0000
 11
 314.0000
 21
1892.0000
  0
LINE
  8
200
  6
AUSGEZOGEN
 10
 322.0000
 20
1884.0000
 11
 322.0000
 21
1892.0000
  0
LINE
  8
200
  6
AUSGEZOGEN
 10
 314.0000
 20
1884.0000
 11
 322.0000
 21
1884.0000
  0
LINE
  8
200
  6
AUSGEZOGEN
 10
 314.0000
 20
1892.0000
 11
 314.0000
 21
1884.0000
  0
LINE
  8
200
  6
AUSGEZOGEN
 10
 373.0000
 20
1905.0000
 11
 327.0000
 21
1905.0000
  0
LINE
  8
200
  6
AUSGEZOGEN
 10
 373.0000
 20
1885.0000
 11
 373.0000
 21
1905.0000
  0
LINE
  8
200
  6
AUSGEZOGEN
 10
 327.0000
 20
1885.0000
 11
 373.0000
 21
1885.0000
  0
LINE
  8
200
  6
AUSGEZOGEN
 10
 327.0000
 20
1905.0000
 11
 327.0000
 21
1885.0000
  0
LINE
  8
200
  6
AUSGEZOGEN
 10
 719.9000
 20
 150.7000
 11
 719.9000
 21
1741.3000
  0
LINE
  8
200
  6
AUSGEZOGEN
 10
  74.1000
 20
 150.7000
 11
 719.9000
 21
 150.7000
  0
LINE
  8
200
  6
AUSGEZOGEN
 10
  74.1000
 20
1741.3000
 11
  74.1000
 21
 150.7000
  0
LINE
  8
200
  6
AUSGEZOGEN
 10
 719.9000
 20
1741.3000
 11
  40.4000
 21
1741.3000
  0
LINE
  8
200
  6
AUSGEZOGEN
 10
  40.4000
 20
 150.8000
 11
  74.1000
 21
 150.7000
  0
LINE
  8
200
  6
AUSGEZOGEN
 10
  10.3000
 20
 150.7000
 11
  40.3000
 21
 160.7000
  0
LINE
  8
200
  6
AUSGEZOGEN
 10
   0.0000
 20
 150.7000
 11
  10.3000
 21
 150.7000
  0
LINE
  8
200
  6
AUSGEZOGEN
 10
  10.1000
 20
1741.4000
 11
   0.0000
 21
1741.4000
  0
LINE
  8
200
  6
AUSGEZOGEN
 10
  40.3000
 20
1731.3000
 11
  10.1000
 21
1741.4000
  0
LINE
  8
200
  6
AUSGEZOGEN
 10
  40.3000
 20
 160.7000
 11
  40.3000
 21
1731.3000
  0
LINE
  8
200
  6
AUSGEZOGEN
 10
  11.2000
 20
 151.0000
 11
  40.0000
 21
 151.0000
  0
LINE
  8
200
  6
AUSGEZOGEN
 10
  40.0000
 20
1741.0000
 11
  11.3000
 21
1741.0000
  0
LINE
  8
200
  6
AUSGEZOGEN
 10
  40.0000
 20
1731.4000
 11
  40.0000
 21
1741.0000
  0
LINE
  8
200
  6
AUSGEZOGEN
 10
  40.0000
 20
 151.0000
 11
  40.0000
 21
 160.6000
  0
LINE
  8
200
  6
AUSGEZOGEN
 10
 720.0000
 20
1750.0000
 11
   0.0000
 21
1750.0000
  0
LINE
  8
200
  6
AUSGEZOGEN
 10
   0.0000
 20
2050.0000
 11
 720.0000
 21
2050.0000
  0
LINE
  8
200
  6
AUSGEZOGEN
 10
 720.0000
 20
 150.0000
 11
 720.0000
 21
2050.0000
  0
LINE
  8
200
  6
AUSGEZOGEN
 10
   0.0000
 20
1850.0000
 11
 720.0000
 21
1850.0000
  0
LINE
  8
200
  6
AUSGEZOGEN
 10
   0.0000
 20
 150.0000
 11
   0.0000
 21
2050.0000
  0
LINE
  8
200
  6
AUSGEZOGEN
 10
 720.0000
 20
1950.0000
 11
   0.0000
 21
1950.0000
  0
LINE
  8
200
  6
AUSGEZOGEN
 10
 640.0000
 20
  50.0000
 11
 640.0000
 21
 150.0000
  0
LINE
  8
200
  6
AUSGEZOGEN
 10
 690.0000
 20
 150.0000
 11
 690.0000
 21
  50.0000
  0
LINE
  8
200
  6
AUSGEZOGEN
 10
 645.0000
 20
   0.0000
 11
 645.0000
 21
  50.0000
  0
LINE
  8
200
  6
AUSGEZOGEN
 10
 685.0000
 20
   0.0000
 11
 645.0000
 21
   0.0000
  0
LINE
  8
200
  6
AUSGEZOGEN
 10
 640.0000
 20
  50.0000
 11
 690.0000
 21
  50.0000
  0
LINE
  8
200
  6
AUSGEZOGEN
 10
 685.0000
 20
   0.0000
 11
 685.0000
 21
  50.0000
  0
LINE
  8
200
  6
AUSGEZOGEN
 10
  30.0000
 20
 150.0000
 11
  30.0000
 21
  50.0000
  0
LINE
  8
200
  6
AUSGEZOGEN
 10
 720.0000
 20
 150.0000
 11
   0.0000
 21
 150.0000
  0
LINE
  8
200
  6
AUSGEZOGEN
 10
  80.0000
 20
  50.0000
 11
  80.0000
 21
 150.0000
  0
LINE
  8
200
  6
AUSGEZOGEN
 10
  35.0000
 20
   0.0000
 11
  35.0000
 21
  50.0000
  0
LINE
  8
200
  6
AUSGEZOGEN
 10
  75.0000
 20
   0.0000
 11
  35.0000
 21
   0.0000
  0
LINE
  8
200
  6
AUSGEZOGEN
 10
  30.0000
 20
  50.0000
 11
  80.0000
 21
  50.0000
  0
LINE
  8
200
  6
AUSGEZOGEN
 10
  75.0000
 20
   0.0000
 11
  75.0000
 21
  50.0000
  0
TEXT
  8
400
 10
 900.0000
 20
1930.0000
 40
  45.0000
  1
EZ: 230V 50Hz, Kabellänge 2,5m mit Schukostecker 0,45kW (OKFF 1800mm)
 50
   0.0000
 41
   0.6000
  7
STANDARD
  0
ATTDEF
  8
550
 10
10.0
 20
100.0
 30
0.0
 40
30
  1
CCO-HKMNK62-01
  2
CCO-HKMNK62-01V
  3
HKI-Nummer
 70
1
  0
TEXT
  8
510
 10
10.0
 20
-45.0
 30
0.0
 40
30
  1
CCO-HKMNK62-01
 50
0.0
 41
1.0
  7
STANDARD
  0
ENDSEC
  0
EOF
