  0
SECTION
  2
HEADER
  9
$ACADVER
  1
AC1009
  9
$INSBASE
 10
   0.0000
 20
   0.0000
 30
    0.0
  9
$EXTMIN
 10
-115.0000
 20
-112.1000
 30
   0.0000
  9
$EXTMAX
 10
3218.6710
 20
 626.0000
 30
   0.0000
  9
$LTSCALE
 40
1.00
  9
$PSLTSCALE
 70
1
  0
ENDSEC
  0
SECTION
  2
TABLES
  0
TABLE
  2
LTYPE
 70
  5
  0
LTYPE
  2
AUSGEZOGEN
 70
 64
  3
AUSGEZOGEN
 72
 65
 73
  0
 40
0.0
  0
LTYPE
  2
PUNKTIERT
 70
 64
  3
Gepunktet
 72
 65
 73
  2
 40
30.0000
 49
0.0
 49
-30.0000
  0
LTYPE
  2
STRICHLIERT
 70
 64
  3
Strichliert
 72
 65
 73
  2
 40
80.0000
 49
50.0000
 49
-30.0000
  0
LTYPE
  2
STRICHPUNKT
 70
 64
  3
Strichpunktet
 72
 65
 73
  4
 40
160.0000
 49
100.0000
 49
-30.0000
 49
0.0
 49
-30.0000
  0
LTYPE
  2
STRICHPUNKTPUNKT
 70
 64
  3
Strichpunktpunktet
 72
 65
 73
  6
 40
190.0000
 49
100.0000
 49
-30.0000
 49
0.0
 49
-30.0000
 49
0.0
 49
-30.0000
  0
ENDTAB
  0
TABLE
  2
LAYER
 70
7
  0
LAYER
  2
550
 70
  0
 62
  2
  6
AUSGEZOGEN
  0
LAYER
  2
510
 70
  0
 62
  2
  6
AUSGEZOGEN
  0
LAYER
  2
0
 70
  0
 62
  1
  6
AUSGEZOGEN
  0
LAYER
  2
200
 70
  0
 62
  7
  6
AUSGEZOGEN
999
SWS-Layer-Line-Width
999
0.20
  0
LAYER
  2
400
 70
  0
 62
  4
  6
AUSGEZOGEN
999
SWS-Layer-Line-Width
999
0.30
  0
LAYER
  2
440
 70
  0
 62
  4
  6
AUSGEZOGEN
  0
LAYER
  2
420
 70
  0
 62
  2
  6
AUSGEZOGEN
  0
ENDTAB
  0
TABLE
  2
STYLE
 70
  1
  0
STYLE
  2
STANDARD
 70
 64
 40
0.0
 41
1.0
 50
0.0
 71
  0
 42
30.0
  3
TXT.SHX
  4

  0
ENDTAB
  0
ENDSEC
  0
SECTION
  2
ENTITIES
  0
LINE
  8
400
  6
AUSGEZOGEN
 10
1040.0000
 20
 150.0000
 11
1424.0000
 21
 492.5000
  0
LINE
  8
400
  6
AUSGEZOGEN
 10
2671.0600
 20
 492.5000
 11
1424.0000
 21
 492.5000
  0
LINE
  8
400
  6
AUSGEZOGEN
 10
1040.0000
 20
 150.0000
 11
1040.0000
 21
 225.0000
  0
LINE
  8
400
  6
AUSGEZOGEN
 10
1040.0000
 20
  75.0000
 11
1040.0000
 21
 150.0000
  0
LINE
  8
400
  6
AUSGEZOGEN
 10
1115.0000
 20
 150.0000
 11
1040.0000
 21
 150.0000
  0
LINE
  8
400
  6
AUSGEZOGEN
 10
 965.0000
 20
 150.0000
 11
1040.0000
 21
 150.0000
  0
CIRCLE
  8
400
  6
AUSGEZOGEN
 10
1040.0000
 20
 150.0000
 40
  50.0000
  0
LINE
  8
420
  6
AUSGEZOGEN
 10
1040.0000
 20
  50.0000
 11
1424.0000
 21
 132.5000
  0
LINE
  8
420
  6
AUSGEZOGEN
 10
3030.6100
 20
 132.5000
 11
1424.0000
 21
 132.5000
  0
LINE
  8
420
  6
AUSGEZOGEN
 10
1040.0000
 20
  50.0000
 11
1040.0000
 21
 125.0000
  0
LINE
  8
420
  6
AUSGEZOGEN
 10
1040.0000
 20
 -25.0000
 11
1040.0000
 21
  50.0000
  0
LINE
  8
420
  6
AUSGEZOGEN
 10
1115.0000
 20
  50.0000
 11
1040.0000
 21
  50.0000
  0
LINE
  8
420
  6
AUSGEZOGEN
 10
 965.0000
 20
  50.0000
 11
1040.0000
 21
  50.0000
  0
CIRCLE
  8
420
  6
AUSGEZOGEN
 10
1040.0000
 20
  50.0000
 40
  50.0000
  0
LINE
  8
440
  6
AUSGEZOGEN
 10
1040.0000
 20
 500.0000
 11
1424.0000
 21
 372.5000
  0
LINE
  8
440
  6
AUSGEZOGEN
 10
2225.1500
 20
 372.5000
 11
1424.0000
 21
 372.5000
  0
LINE
  8
440
  6
AUSGEZOGEN
 10
1040.0000
 20
 575.0000
 11
1040.0000
 21
 500.0000
  0
LINE
  8
440
  6
AUSGEZOGEN
 10
1040.0000
 20
 425.0000
 11
1040.0000
 21
 500.0000
  0
LINE
  8
440
  6
AUSGEZOGEN
 10
1115.0000
 20
 500.0000
 11
1040.0000
 21
 500.0000
  0
LINE
  8
440
  6
AUSGEZOGEN
 10
 965.0000
 20
 500.0000
 11
1040.0000
 21
 500.0000
  0
CIRCLE
  8
440
  6
AUSGEZOGEN
 10
1040.0000
 20
 500.0000
 40
  50.0000
  0
LINE
  8
440
  6
AUSGEZOGEN
 10
1040.0000
 20
 500.0000
 11
1424.0000
 21
 252.5000
  0
LINE
  8
440
  6
AUSGEZOGEN
 10
2391.7300
 20
 252.5000
 11
1424.0000
 21
 252.5000
  0
LINE
  8
440
  6
AUSGEZOGEN
 10
1040.0000
 20
 575.0000
 11
1040.0000
 21
 500.0000
  0
LINE
  8
440
  6
AUSGEZOGEN
 10
1040.0000
 20
 425.0000
 11
1040.0000
 21
 500.0000
  0
LINE
  8
440
  6
AUSGEZOGEN
 10
1115.0000
 20
 500.0000
 11
1040.0000
 21
 500.0000
  0
LINE
  8
440
  6
AUSGEZOGEN
 10
 965.0000
 20
 500.0000
 11
1040.0000
 21
 500.0000
  0
CIRCLE
  8
440
  6
AUSGEZOGEN
 10
1040.0000
 20
 500.0000
 40
  50.0000
  0
LINE
  8
200
  6
AUSGEZOGEN
 10
   0.0000
 20
 626.0000
 11
   0.0000
 21
 605.0000
  0
LINE
  8
200
  6
AUSGEZOGEN
 10
1150.0000
 20
 626.0000
 11
   0.0000
 21
 626.0000
  0
LINE
  8
200
  6
AUSGEZOGEN
 10
   0.0900
 20
 585.0000
 11
   0.0900
 21
 605.0000
  0
LINE
  8
200
  6
AUSGEZOGEN
 10
1150.0000
 20
 605.0000
 11
   0.0000
 21
 605.0000
  0
LINE
  8
200
  6
AUSGEZOGEN
 10
   0.0000
 20
 150.0000
 11
   0.0000
 21
 585.0000
  0
LINE
  8
200
  6
AUSGEZOGEN
 10
1150.0000
 20
 585.0000
 11
   0.0000
 21
 585.0000
  0
LINE
  8
200
  6
AUSGEZOGEN
 10
1150.0000
 20
 150.0000
 11
1150.0000
 21
 626.0000
  0
LINE
  8
200
  6
AUSGEZOGEN
 10
  65.0000
 20
   5.0000
 11
  65.0000
 21
  15.0000
  0
LINE
  8
200
  6
AUSGEZOGEN
 10
  95.0000
 20
  15.0000
 11
  95.0000
 21
   5.0000
  0
LINE
  8
200
  6
AUSGEZOGEN
 10
  60.4000
 20
   0.0000
 11
  60.4000
 21
   5.0000
  0
LINE
  8
200
  6
AUSGEZOGEN
 10
  99.6000
 20
   0.0000
 11
  60.4000
 21
   0.0000
  0
LINE
  8
200
  6
AUSGEZOGEN
 10
  60.4000
 20
   5.0000
 11
  99.6000
 21
   5.0000
  0
LINE
  8
200
  6
AUSGEZOGEN
 10
  99.6000
 20
   0.0000
 11
  99.6000
 21
   5.0000
  0
LINE
  8
200
  6
AUSGEZOGEN
 10
  60.0000
 20
 150.0000
 11
  60.0000
 21
  15.0000
  0
LINE
  8
200
  6
AUSGEZOGEN
 10
 100.0000
 20
  15.0000
 11
  60.0000
 21
  15.0000
  0
LINE
  8
200
  6
AUSGEZOGEN
 10
  60.0000
 20
  20.0000
 11
 100.0000
 21
  20.0000
  0
LINE
  8
200
  6
AUSGEZOGEN
 10
 100.0000
 20
 150.0000
 11
 100.0000
 21
  15.0000
  0
LINE
  8
200
  6
AUSGEZOGEN
 10
1150.0000
 20
 150.0000
 11
   0.0000
 21
 150.0000
  0
LINE
  8
200
  6
AUSGEZOGEN
 10
 857.0000
 20
  15.0000
 11
 857.0000
 21
 150.0000
  0
LINE
  8
200
  6
AUSGEZOGEN
 10
 897.0000
 20
  20.0000
 11
 857.0000
 21
  20.0000
  0
LINE
  8
200
  6
AUSGEZOGEN
 10
 897.0000
 20
 150.0000
 11
 897.0000
 21
  15.0000
  0
LINE
  8
200
  6
AUSGEZOGEN
 10
 857.4000
 20
   0.0000
 11
 857.4000
 21
   5.0000
  0
LINE
  8
200
  6
AUSGEZOGEN
 10
 896.6000
 20
   0.0000
 11
 857.4000
 21
   0.0000
  0
LINE
  8
200
  6
AUSGEZOGEN
 10
 896.6000
 20
   5.0000
 11
 896.6000
 21
   0.0000
  0
LINE
  8
200
  6
AUSGEZOGEN
 10
 862.0000
 20
  15.0000
 11
 862.0000
 21
   5.0000
  0
LINE
  8
200
  6
AUSGEZOGEN
 10
 896.6000
 20
   5.0000
 11
 857.4000
 21
   5.0000
  0
LINE
  8
200
  6
AUSGEZOGEN
 10
 857.0000
 20
  15.0000
 11
 897.0000
 21
  15.0000
  0
LINE
  8
200
  6
AUSGEZOGEN
 10
 892.0000
 20
   5.0000
 11
 892.0000
 21
  15.0000
  0
LINE
  8
200
  6
AUSGEZOGEN
 10
 917.0000
 20
 575.0000
 11
 917.0000
 21
 485.0000
  0
LINE
  8
200
  6
AUSGEZOGEN
 10
1135.0000
 20
 575.0000
 11
 917.0000
 21
 575.0000
  0
LINE
  8
200
  6
AUSGEZOGEN
 10
1055.0000
 20
 510.0000
 11
1095.0000
 21
 510.0000
  0
LINE
  8
200
  6
AUSGEZOGEN
 10
1055.0000
 20
 550.0000
 11
1055.0000
 21
 510.0000
  0
LINE
  8
200
  6
AUSGEZOGEN
 10
1095.0000
 20
 550.0000
 11
1055.0000
 21
 550.0000
  0
LINE
  8
200
  6
AUSGEZOGEN
 10
1095.0000
 20
 510.0000
 11
1095.0000
 21
 550.0000
  0
LINE
  8
200
  6
AUSGEZOGEN
 10
1055.0000
 20
 530.0000
 11
1095.0000
 21
 530.0000
  0
LINE
  8
200
  6
AUSGEZOGEN
 10
 935.0000
 20
 510.0000
 11
1015.0000
 21
 510.0000
  0
LINE
  8
200
  6
AUSGEZOGEN
 10
 935.0000
 20
 550.0000
 11
 935.0000
 21
 510.0000
  0
LINE
  8
200
  6
AUSGEZOGEN
 10
1015.0000
 20
 550.0000
 11
 935.0000
 21
 550.0000
  0
LINE
  8
200
  6
AUSGEZOGEN
 10
1015.0000
 20
 510.0000
 11
1015.0000
 21
 550.0000
  0
LINE
  8
200
  6
AUSGEZOGEN
 10
 959.0000
 20
 533.0000
 11
 965.0000
 21
 533.0000
  0
LINE
  8
200
  6
AUSGEZOGEN
 10
 959.0000
 20
 527.0000
 11
 959.0000
 21
 533.0000
  0
LINE
  8
200
  6
AUSGEZOGEN
 10
 965.0000
 20
 527.0000
 11
 959.0000
 21
 527.0000
  0
LINE
  8
200
  6
AUSGEZOGEN
 10
 965.0000
 20
 533.0000
 11
 965.0000
 21
 527.0000
  0
LINE
  8
200
  6
AUSGEZOGEN
 10
 954.0000
 20
 518.0000
 11
 969.0000
 21
 518.0000
  0
LINE
  8
200
  6
AUSGEZOGEN
 10
 954.0000
 20
 542.0000
 11
 954.0000
 21
 518.0000
  0
LINE
  8
200
  6
AUSGEZOGEN
 10
 969.0000
 20
 542.0000
 11
 954.0000
 21
 542.0000
  0
LINE
  8
200
  6
AUSGEZOGEN
 10
 969.0000
 20
 518.0000
 11
 969.0000
 21
 542.0000
  0
LINE
  8
200
  6
AUSGEZOGEN
 10
 983.0000
 20
 528.0000
 11
 983.0000
 21
 518.0000
  0
LINE
  8
200
  6
AUSGEZOGEN
 10
 973.0000
 20
 518.0000
 11
 983.0000
 21
 518.0000
  0
LINE
  8
200
  6
AUSGEZOGEN
 10
 973.0000
 20
 528.0000
 11
 973.0000
 21
 518.0000
  0
LINE
  8
200
  6
AUSGEZOGEN
 10
 983.0000
 20
 528.0000
 11
 973.0000
 21
 528.0000
  0
LINE
  8
200
  6
AUSGEZOGEN
 10
 973.0000
 20
 532.0000
 11
 983.0000
 21
 532.0000
  0
LINE
  8
200
  6
AUSGEZOGEN
 10
 973.0000
 20
 542.0000
 11
 973.0000
 21
 532.0000
  0
LINE
  8
200
  6
AUSGEZOGEN
 10
 983.0000
 20
 542.0000
 11
 973.0000
 21
 542.0000
  0
LINE
  8
200
  6
AUSGEZOGEN
 10
 983.0000
 20
 532.0000
 11
 983.0000
 21
 542.0000
  0
LINE
  8
200
  6
AUSGEZOGEN
 10
 997.0000
 20
 518.0000
 11
 997.0000
 21
 528.0000
  0
LINE
  8
200
  6
AUSGEZOGEN
 10
 987.0000
 20
 528.0000
 11
 997.0000
 21
 528.0000
  0
LINE
  8
200
  6
AUSGEZOGEN
 10
 987.0000
 20
 518.0000
 11
 987.0000
 21
 528.0000
  0
LINE
  8
200
  6
AUSGEZOGEN
 10
 997.0000
 20
 518.0000
 11
 987.0000
 21
 518.0000
  0
LINE
  8
200
  6
AUSGEZOGEN
 10
 997.0000
 20
 542.0000
 11
 997.0000
 21
 532.0000
  0
LINE
  8
200
  6
AUSGEZOGEN
 10
 987.0000
 20
 532.0000
 11
 997.0000
 21
 532.0000
  0
LINE
  8
200
  6
AUSGEZOGEN
 10
 987.0000
 20
 542.0000
 11
 987.0000
 21
 532.0000
  0
LINE
  8
200
  6
AUSGEZOGEN
 10
 997.0000
 20
 542.0000
 11
 987.0000
 21
 542.0000
  0
LINE
  8
200
  6
AUSGEZOGEN
 10
 945.0000
 20
 545.0000
 11
1005.0000
 21
 545.0000
  0
LINE
  8
200
  6
AUSGEZOGEN
 10
 945.0000
 20
 515.0000
 11
 945.0000
 21
 545.0000
  0
LINE
  8
200
  6
AUSGEZOGEN
 10
1005.0000
 20
 515.0000
 11
 945.0000
 21
 515.0000
  0
LINE
  8
200
  6
AUSGEZOGEN
 10
1005.0000
 20
 545.0000
 11
1005.0000
 21
 515.0000
  0
LINE
  8
200
  6
AUSGEZOGEN
 10
1135.0000
 20
 160.2000
 11
 917.0000
 21
 160.2000
  0
LINE
  8
200
  6
AUSGEZOGEN
 10
 917.1000
 20
 455.0000
 11
 917.0000
 21
 160.2000
  0
LINE
  8
200
  6
AUSGEZOGEN
 10
1135.0000
 20
 455.0000
 11
 917.1000
 21
 455.0000
  0
LINE
  8
200
  6
AUSGEZOGEN
 10
 917.0000
 20
 287.0000
 11
1135.0000
 21
 287.0000
  0
LINE
  8
200
  6
AUSGEZOGEN
 10
1135.0000
 20
 327.0000
 11
 917.0000
 21
 327.0000
  0
LINE
  8
200
  6
AUSGEZOGEN
 10
 917.0000
 20
 337.0000
 11
1135.0000
 21
 337.0000
  0
LINE
  8
200
  6
AUSGEZOGEN
 10
1135.0000
 20
 277.0000
 11
 917.0000
 21
 277.0000
  0
LINE
  8
200
  6
AUSGEZOGEN
 10
 917.1000
 20
 485.0000
 11
 917.1000
 21
 455.0000
  0
LINE
  8
200
  6
AUSGEZOGEN
 10
1135.0000
 20
 485.0000
 11
 917.0000
 21
 485.0000
  0
LINE
  8
200
  6
AUSGEZOGEN
 10
1135.0000
 20
 160.2000
 11
1135.0000
 21
 575.0000
  0
LINE
  8
200
  6
AUSGEZOGEN
 10
  15.0000
 20
 554.0000
 11
 445.0000
 21
 554.0000
  0
LINE
  8
200
  6
AUSGEZOGEN
 10
  15.0000
 20
 574.0000
 11
  15.0000
 21
 540.0000
  0
LINE
  8
200
  6
AUSGEZOGEN
 10
 445.0000
 20
 574.0000
 11
  15.0000
 21
 574.0000
  0
LINE
  8
200
  6
AUSGEZOGEN
 10
 445.0000
 20
 554.0000
 11
 445.0000
 21
 574.0000
  0
LINE
  8
200
  6
AUSGEZOGEN
 10
  15.1000
 20
 160.1000
 11
 445.0000
 21
 160.1000
  0
LINE
  8
200
  6
AUSGEZOGEN
 10
  15.2000
 20
 510.0000
 11
  15.1000
 21
 160.1000
  0
LINE
  8
200
  6
AUSGEZOGEN
 10
 445.0000
 20
 510.0000
 11
  15.2000
 21
 510.0000
  0
LINE
  8
200
  6
AUSGEZOGEN
 10
  15.1000
 20
 539.5000
 11
  15.2000
 21
 510.0000
  0
LINE
  8
200
  6
AUSGEZOGEN
 10
 445.0000
 20
 539.5000
 11
  15.1000
 21
 539.5000
  0
LINE
  8
200
  6
AUSGEZOGEN
 10
 445.0000
 20
 160.1000
 11
 445.0000
 21
 539.5000
  0
LINE
  8
200
  6
AUSGEZOGEN
 10
 895.0000
 20
 554.0000
 11
 465.0000
 21
 554.0000
  0
LINE
  8
200
  6
AUSGEZOGEN
 10
 465.0000
 20
 574.0000
 11
 465.0000
 21
 540.0000
  0
LINE
  8
200
  6
AUSGEZOGEN
 10
 895.0000
 20
 574.0000
 11
 465.0000
 21
 574.0000
  0
LINE
  8
200
  6
AUSGEZOGEN
 10
 465.1000
 20
 160.1000
 11
 895.0000
 21
 160.1000
  0
LINE
  8
200
  6
AUSGEZOGEN
 10
 465.2000
 20
 510.0000
 11
 465.1000
 21
 160.1000
  0
LINE
  8
200
  6
AUSGEZOGEN
 10
 895.0000
 20
 510.0000
 11
 465.2000
 21
 510.0000
  0
LINE
  8
200
  6
AUSGEZOGEN
 10
 465.1000
 20
 539.5000
 11
 465.2000
 21
 510.0000
  0
LINE
  8
200
  6
AUSGEZOGEN
 10
 895.0000
 20
 539.5000
 11
 465.1000
 21
 539.5000
  0
LINE
  8
200
  6
AUSGEZOGEN
 10
 895.0000
 20
 160.1000
 11
 895.0000
 21
 574.0000
  0
TEXT
  8
400
 10
1437.5000
 20
 506.0000
 40
  45.0000
  1
EZ: 230V 50Hz, Kabellänge 2,5m 0,08kW (OKFF 150mm)
 50
   0.0000
 41
   0.6000
  7
STANDARD
  0
TEXT
  8
420
 10
1437.5000
 20
 146.0000
 40
  45.0000
  1
A: DN50 Trichterablauf, unter Boden baus. syphoniert (OKFF 50mm)
 50
   0.0000
 41
   0.6000
  7
STANDARD
  0
TEXT
  8
440
 10
1437.5000
 20
 386.0000
 40
  45.0000
  1
KL: DN8 Saugleitung (OKFF 500mm)
 50
   0.0000
 41
   0.6000
  7
STANDARD
  0
TEXT
  8
440
 10
1437.5000
 20
 266.0000
 40
  45.0000
  1
KL: DN6 Flüssigkeitsleitung (OKFF 500mm)
 50
   0.0000
 41
   0.6000
  7
STANDARD
  0
ATTDEF
  8
550
 10
10.0
 20
100.0
 30
0.0
 40
30
  1
CCO-KTO721141
  2
CCO-KTO721141V
  3
HKI-Nummer
 70
1
  0
TEXT
  8
510
 10
10.0
 20
-45.0
 30
0.0
 40
30
  1
CCO-KTO721141
 50
0.0
 41
1.0
  7
STANDARD
  0
ENDSEC
  0
EOF
