  0
SECTION
  2
HEADER
  9
$ACADVER
  1
AC1009
  9
$INSBASE
 10
   0.0000
 20
 700.0000
 30
    0.0
  9
$EXTMIN
 10
-162.5000
 20
-138.5000
 30
   0.0000
  9
$EXTMAX
 10
3824.2960
 20
 670.0000
 30
   0.0000
  9
$LTSCALE
 40
1.00
  9
$PSLTSCALE
 70
1
  0
ENDSEC
  0
SECTION
  2
TABLES
  0
TABLE
  2
LTYPE
 70
  5
  0
LTYPE
  2
AUSGEZOGEN
 70
 64
  3
AUSGEZOGEN
 72
 65
 73
  0
 40
0.0
  0
LTYPE
  2
PUNKTIERT
 70
 64
  3
Gepunktet
 72
 65
 73
  2
 40
30.0000
 49
0.0
 49
-30.0000
  0
LTYPE
  2
STRICHLIERT
 70
 64
  3
Strichliert
 72
 65
 73
  2
 40
80.0000
 49
50.0000
 49
-30.0000
  0
LTYPE
  2
STRICHPUNKT
 70
 64
  3
Strichpunktet
 72
 65
 73
  4
 40
160.0000
 49
100.0000
 49
-30.0000
 49
0.0
 49
-30.0000
  0
LTYPE
  2
STRICHPUNKTPUNKT
 70
 64
  3
Strichpunktpunktet
 72
 65
 73
  6
 40
190.0000
 49
100.0000
 49
-30.0000
 49
0.0
 49
-30.0000
 49
0.0
 49
-30.0000
  0
ENDTAB
  0
TABLE
  2
LAYER
 70
7
  0
LAYER
  2
550
 70
  0
 62
  2
  6
AUSGEZOGEN
  0
LAYER
  2
510
 70
  0
 62
  2
  6
AUSGEZOGEN
  0
LAYER
  2
0
 70
  0
 62
  1
  6
AUSGEZOGEN
  0
LAYER
  2
200
 70
  0
 62
  7
  6
AUSGEZOGEN
999
SWS-Layer-Line-Width
999
0.20
  0
LAYER
  2
400
 70
  0
 62
  4
  6
AUSGEZOGEN
999
SWS-Layer-Line-Width
999
0.30
  0
LAYER
  2
440
 70
  0
 62
  4
  6
AUSGEZOGEN
  0
LAYER
  2
420
 70
  0
 62
  2
  6
AUSGEZOGEN
  0
ENDTAB
  0
TABLE
  2
STYLE
 70
  1
  0
STYLE
  2
STANDARD
 70
 64
 40
0.0
 41
1.0
 50
0.0
 71
  0
 42
30.0
  3
TXT.SHX
  4

  0
ENDTAB
  0
ENDSEC
  0
SECTION
  2
ENTITIES
  0
LINE
  8
400
  6
AUSGEZOGEN
 10
1515.0000
 20
 380.0000
 11
2017.7500
 21
 546.5000
  0
LINE
  8
400
  6
AUSGEZOGEN
 10
3260.4900
 20
 546.5000
 11
2017.7500
 21
 546.5000
  0
LINE
  8
400
  6
AUSGEZOGEN
 10
1515.0000
 20
 305.0000
 11
1515.0000
 21
 380.0000
  0
LINE
  8
400
  6
AUSGEZOGEN
 10
1515.0000
 20
 455.0000
 11
1515.0000
 21
 380.0000
  0
LINE
  8
400
  6
AUSGEZOGEN
 10
1440.0000
 20
 380.0000
 11
1515.0000
 21
 380.0000
  0
LINE
  8
400
  6
AUSGEZOGEN
 10
1590.0000
 20
 380.0000
 11
1515.0000
 21
 380.0000
  0
CIRCLE
  8
400
  6
AUSGEZOGEN
 10
1515.0000
 20
 380.0000
 40
  50.0000
  0
LINE
  8
420
  6
AUSGEZOGEN
 10
1515.0000
 20
 520.0000
 11
2017.7500
 21
 186.5000
  0
LINE
  8
420
  6
AUSGEZOGEN
 10
3624.3600
 20
 186.5000
 11
2017.7500
 21
 186.5000
  0
LINE
  8
420
  6
AUSGEZOGEN
 10
1515.0000
 20
 520.0000
 11
1515.0000
 21
 445.0000
  0
LINE
  8
420
  6
AUSGEZOGEN
 10
1515.0000
 20
 595.0000
 11
1515.0000
 21
 520.0000
  0
LINE
  8
420
  6
AUSGEZOGEN
 10
1440.0000
 20
 520.0000
 11
1515.0000
 21
 520.0000
  0
LINE
  8
420
  6
AUSGEZOGEN
 10
1590.0000
 20
 520.0000
 11
1515.0000
 21
 520.0000
  0
CIRCLE
  8
420
  6
AUSGEZOGEN
 10
1515.0000
 20
 520.0000
 40
  50.0000
  0
LINE
  8
440
  6
AUSGEZOGEN
 10
1515.0000
 20
 255.0000
 11
2017.7500
 21
 426.5000
  0
LINE
  8
440
  6
AUSGEZOGEN
 10
2818.9000
 20
 426.5000
 11
2017.7500
 21
 426.5000
  0
LINE
  8
440
  6
AUSGEZOGEN
 10
1515.0000
 20
 180.0000
 11
1515.0000
 21
 255.0000
  0
LINE
  8
440
  6
AUSGEZOGEN
 10
1515.0000
 20
 330.0000
 11
1515.0000
 21
 255.0000
  0
LINE
  8
440
  6
AUSGEZOGEN
 10
1440.0000
 20
 255.0000
 11
1515.0000
 21
 255.0000
  0
LINE
  8
440
  6
AUSGEZOGEN
 10
1590.0000
 20
 255.0000
 11
1515.0000
 21
 255.0000
  0
CIRCLE
  8
440
  6
AUSGEZOGEN
 10
1515.0000
 20
 255.0000
 40
  50.0000
  0
LINE
  8
440
  6
AUSGEZOGEN
 10
1515.0000
 20
 205.0000
 11
2017.7500
 21
 306.5000
  0
LINE
  8
440
  6
AUSGEZOGEN
 10
2985.4800
 20
 306.5000
 11
2017.7500
 21
 306.5000
  0
LINE
  8
440
  6
AUSGEZOGEN
 10
1515.0000
 20
 130.0000
 11
1515.0000
 21
 205.0000
  0
LINE
  8
440
  6
AUSGEZOGEN
 10
1515.0000
 20
 280.0000
 11
1515.0000
 21
 205.0000
  0
LINE
  8
440
  6
AUSGEZOGEN
 10
1440.0000
 20
 205.0000
 11
1515.0000
 21
 205.0000
  0
LINE
  8
440
  6
AUSGEZOGEN
 10
1590.0000
 20
 205.0000
 11
1515.0000
 21
 205.0000
  0
CIRCLE
  8
440
  6
AUSGEZOGEN
 10
1515.0000
 20
 205.0000
 40
  50.0000
  0
LINE
  8
200
  6
AUSGEZOGEN
 10
   0.0000
 20
 670.0000
 11
   0.0000
 21
  50.0000
  0
LINE
  8
200
  6
AUSGEZOGEN
 10
1625.0000
 20
 670.0000
 11
   0.0000
 21
 670.0000
  0
LINE
  8
200
  6
AUSGEZOGEN
 10
1625.0000
 20
  50.0000
 11
1625.0000
 21
 670.0000
  0
LINE
  8
200
  6
AUSGEZOGEN
 10
1500.0000
 20
  24.0000
 11
1500.0000
 21
  28.0000
  0
LINE
  8
200
  6
AUSGEZOGEN
 10
1528.0000
 20
  28.0000
 11
1500.0000
 21
  28.0000
  0
LINE
  8
200
  6
AUSGEZOGEN
 10
1500.0000
 20
  24.0000
 11
1528.0000
 21
  24.0000
  0
LINE
  8
200
  6
AUSGEZOGEN
 10
1528.0000
 20
  28.0000
 11
1528.0000
 21
  24.0000
  0
LINE
  8
200
  6
AUSGEZOGEN
 10
1418.0000
 20
  24.0000
 11
1418.0000
 21
  28.0000
  0
LINE
  8
200
  6
AUSGEZOGEN
 10
1473.0000
 20
  28.0000
 11
1418.0000
 21
  28.0000
  0
LINE
  8
200
  6
AUSGEZOGEN
 10
1418.0000
 20
  24.0000
 11
1473.0000
 21
  24.0000
  0
LINE
  8
200
  6
AUSGEZOGEN
 10
1473.0000
 20
  28.0000
 11
1473.0000
 21
  24.0000
  0
LINE
  8
200
  6
AUSGEZOGEN
 10
1392.0000
 20
   0.0000
 11
1392.0000
 21
  50.0000
  0
LINE
  8
200
  6
AUSGEZOGEN
 10
1392.1000
 20
  30.0000
 11
1392.1000
 21
   0.0000
  0
LINE
  8
200
  6
AUSGEZOGEN
 10
1610.0000
 20
  30.0000
 11
1392.0000
 21
  30.0000
  0
LINE
  8
200
  6
AUSGEZOGEN
 10
1610.0000
 20
   0.0000
 11
1610.0000
 21
  50.0000
  0
LINE
  8
200
  6
AUSGEZOGEN
 10
1392.0000
 20
   0.0000
 11
1610.0000
 21
   0.0000
  0
LINE
  8
200
  6
AUSGEZOGEN
 10
  15.0000
 20
  50.0000
 11
  15.0000
 21
   0.0000
  0
LINE
  8
200
  6
AUSGEZOGEN
 10
 445.0000
 20
   0.0000
 11
 445.0000
 21
  50.0000
  0
LINE
  8
200
  6
AUSGEZOGEN
 10
  15.0000
 20
   0.0000
 11
 445.0000
 21
   0.0000
  0
LINE
  8
200
  6
AUSGEZOGEN
 10
 476.0000
 20
  50.0000
 11
 476.0000
 21
   0.0000
  0
LINE
  8
200
  6
AUSGEZOGEN
 10
 906.0000
 20
   0.0000
 11
 906.0000
 21
  50.0000
  0
LINE
  8
200
  6
AUSGEZOGEN
 10
 476.0000
 20
   0.0000
 11
 906.0000
 21
   0.0000
  0
LINE
  8
200
  6
AUSGEZOGEN
 10
 936.0000
 20
  50.0000
 11
 936.0000
 21
   0.0000
  0
LINE
  8
200
  6
AUSGEZOGEN
 10
   0.0000
 20
  50.0000
 11
1625.0000
 21
  50.0000
  0
LINE
  8
200
  6
AUSGEZOGEN
 10
1366.0000
 20
   0.0000
 11
1366.0000
 21
  50.0000
  0
LINE
  8
200
  6
AUSGEZOGEN
 10
 936.0000
 20
   0.0000
 11
1366.0000
 21
   0.0000
  0
TEXT
  8
400
 10
2031.2500
 20
 560.0000
 40
  45.0000
  1
EZ: 230V 50Hz, Kabellänge 2,5m 0,13kW (OKFF 150mm)
 50
   0.0000
 41
   0.6000
  7
STANDARD
  0
TEXT
  8
420
 10
2031.2500
 20
 200.0000
 40
  45.0000
  1
A: DN50 Trichterablauf, unter Boden baus. syphoniert (OKFF 50mm)
 50
   0.0000
 41
   0.6000
  7
STANDARD
  0
TEXT
  8
440
 10
2031.2500
 20
 440.0000
 40
  45.0000
  1
KL: DN8 Saugleitung (OKFF 500mm)
 50
   0.0000
 41
   0.6000
  7
STANDARD
  0
TEXT
  8
440
 10
2031.2500
 20
 320.0000
 40
  45.0000
  1
KL: DN6 Flüssigkeitsleitung (OKFF 500mm)
 50
   0.0000
 41
   0.6000
  7
STANDARD
  0
ATTDEF
  8
550
 10
10.0
 20
100.0
 30
0.0
 40
30
  1
CCO-KTO731170-70
  2
CCO-KTO731170-70D
  3
HKI-Nummer
 70
1
  0
TEXT
  8
510
 10
10.0
 20
-45.0
 30
0.0
 40
30
  1
CCO-KTO731170-70
 50
0.0
 41
1.0
  7
STANDARD
  0
ENDSEC
  0
EOF
